Site menu:

    

Browse: 0-9 A B C D E F G H I J K L N O P Q R S T U V W X Y Z

joe satriani - speed of light:



Title: Speed of Light
Artist: 
Album: Time Machine (Disc 1: Studio)
Author: Joe Satriani


Track 1: Distortion Guitar I

E|---------------------|-0---------------|---------------------|-0---------------|
B|------3----3---1-----|-------3---3-----|------3----3---1-----|-------3---3-----|
G|------2----2---2-----|-------2---2-----|------2----2---2-----|-------2---2-----|
D|---------------------|-----------------|---------------------|-----------------|
A|---------------------|-----------------|---------------------|-----------------|
E|---------------------|-----------------|---------------------|-----------------|


E|---------------------|-0---------------|---------------------|-0---------------|
B|------3----3---1-----|-------3---3-----|------3----3---1-----|-------3---3-----|
G|------2----2---2-----|-------2---2-----|------2----2---2-----|-------2---2-----|
D|---------------------|-----------------|---------------------|-----------------|
A|---------------------|-----------------|---------------------|-----------------|
E|---------------------|-----------------|---------------------|-----------------|


E|------------------------|------------------------------|------------------------|
B|-10--------12-------10--|-----7------------------------|-10--------12-------10--|
G|-7---------7--------7---|-----7--------9-------7-------|-7---------7--------7---|
D|------------------------|------------------------------|------------------------|
A|------------------------|------------------------------|------------------------|
E|------------------------|------------------------------|------------------------|


E|-----------------|------------------------|------------------------------|-------------|
B|-10--------------|-10--------12-------10--|-----7------------------------|-13----15----|
G|-7---------------|-7---------7--------7---|-----7--------9-------7-------|-12----12----|
D|-----------------|------------------------|------------------------------|-------------|
A|-----------------|------------------------|------------------------------|-------------|
E|-----------------|------------------------|------------------------------|-------------|


E|-------------|------------------------|------------------------------|-----------7---10----------|
B|-12----------|-10--------12-------10--|-----7------------------------|-10--------------------10--|
G|-12----------|-7---------7--------7---|-----7--------9-------7-------|-7---------------------7---|
D|-------------|------------------------|------------------------------|---------------------------|
A|-------------|------------------------|------------------------------|---------------------------|
E|-------------|------------------------|------------------------------|---------------------------|


E|-----------------|------------------------|------------------------------|-------------|
B|-10--------------|-10--------12-------10--|-----7------------------------|-13----15----|
G|-7---------------|-7---------7--------7---|-----7--------9-------7-------|-12----12----|
D|-----------------|------------------------|------------------------------|-------------|
A|-----------------|------------------------|------------------------------|-------------|
E|-----------------|------------------------|------------------------------|-------------|


E|--------|-------------|-------------|-------------|--------|--------|--------|--------|
B|-15-----|-1-----3-----|-5-----7-----|-8-----10----|-12-----|--------|--------|--------|
G|-12-----|-2-----4-----|-5-----7-----|-9-----11----|-12-----|--------|--------|--------|
D|--------|-------------|-------------|-------------|--------|--------|--------|--------|
A|--------|-------------|-------------|-------------|--------|--------|--------|--------|
E|--------|-------------|-------------|-------------|--------|--------|--------|--------|


E|--------|-------------|-------------|-------------|--------|--------|--------|--------|
B|--------|-1-----3-----|-5-----7-----|-8-----10----|-12-----|--------|--------|--------|
G|--------|-2-----4-----|-5-----7-----|-9-----11----|-12-----|--------|--------|--------|
D|--------|-------------|-------------|-------------|--------|--------|--------|--------|
A|--------|-------------|-------------|-------------|--------|--------|--------|--------|
E|--------|-------------|-------------|-------------|--------|--------|--------|--------|


E|--------|---------------------|-0---------------|---------------------|-0---------------|
B|--------|------3----3---1-----|-------3---3-----|------3----3---1-----|-------3---3-----|
G|--------|------2----2---2-----|-------2---2-----|------2----2---2-----|-------2---2-----|
D|--------|---------------------|-----------------|---------------------|-----------------|
A|--------|---------------------|-----------------|---------------------|-----------------|
E|--------|---------------------|-----------------|---------------------|-----------------|


E|--------|--------|--------|--------|--------|--------|--------|--------|--------|
B|--------|--------|--------|--------|--------|--------|--------|--------|--------|
G|--------|--------|--------|--------|--------|--------|--------|--------|--------|
D|--------|--------|--------|--------|--------|--------|--------|--------|--------|
A|--------|--------|--------|--------|--------|--------|--------|--------|--------|
E|--------|--------|--------|--------|--------|--------|--------|--------|--------|


E|--------|--------|--------|--------|--------|--------|--------|-------------|-------------|
B|--------|--------|--------|--------|--------|--------|--------|-1-----3-----|-5-----7-----|
G|--------|--------|--------|--------|--------|--------|--------|-2-----4-----|-5-----7-----|
D|--------|--------|--------|--------|--------|--------|--------|-------------|-------------|
A|--------|--------|--------|--------|--------|--------|--------|-------------|-------------|
E|--------|--------|--------|--------|--------|--------|--------|-------------|-------------|


E|-------------|--------|--------|--------|--------|--------|-------------|-------------|
B|-8-----10----|-12-----|--------|--------|--------|--------|-1-----3-----|-5-----7-----|
G|-9-----11----|-12-----|--------|--------|--------|--------|-2-----4-----|-5-----7-----|
D|-------------|--------|--------|--------|--------|--------|-------------|-------------|
A|-------------|--------|--------|--------|--------|--------|-------------|-------------|
E|-------------|--------|--------|--------|--------|--------|-------------|-------------|


E|-------------|--------|--------|--------|--------|--------|---------------------|
B|-8-----10----|-12-----|--------|--------|--------|--------|------3----3---1-----|
G|-9-----11----|-12-----|--------|--------|--------|--------|------2----2---2-----|
D|-------------|--------|--------|--------|--------|--------|---------------------|
A|-------------|--------|--------|--------|--------|--------|---------------------|
E|-------------|--------|--------|--------|--------|--------|---------------------|


E|-0---------------|---------------------|-0---------------|--------------------------------|
B|-------3---3-----|------3----3---1-----|-------3---3-----|--------------------3-----------|
G|-------2---2-----|------2----2---2-----|-------2---2-----|----------0------0-----0---0----|
D|-----------------|---------------------|-----------------|------4---4------4-----4---4----|
A|-----------------|---------------------|-----------------|-2----2---2------2-----2---2----|
E|-----------------|---------------------|-----------------|--------------------------------|


E|-0-----0----------------|--------------------------------|-0-----0----------------|
B|-3-----3---3------------|--------------------3-----------|-3-----3---3------------|
G|-0---------0----0-------|----------0------0-----0---0----|-0---------0----0-------|
D|-4---------4--------4---|------4---4------4-----4---4----|-4---------4--------4---|
A|-2---------2------------|-2----2---2------2-----2---2----|-2---------2------------|
E|------------------------|--------------------------------|------------------------|


E|-0-----0---------|--------------------|-----------------------|--------------------|
B|-------3---3-----|--------------------|-----------------------|--------------------|
G|-----------------|------2-----4-------|-2---0-------0---0-----|------2-----4-------|
D|-----------------|------0-----0-------|-0---0-------0---0-----|------0-----0-------|
A|-----------------|--------------------|-----------------------|--------------------|
E|-----------------|--------------------|-----------------------|--------------------|


E|-----------------------|--------------------|-----------------------|--------------------|
B|-----------------------|--------------------|-----------------------|--------------------|
G|-2---0-------0---0-----|------2-----4-------|-2---0-------0---0-----|------2-----4-------|
D|-0---0-------0---0-----|------0-----0-------|-0---0-------0---0-----|------0-----0-------|
A|-----------------------|--------------------|-----------------------|--------------------|
E|-----------------------|--------------------|-----------------------|--------------------|


E|-----------------------|--------------------------------|-0-----0----------------|
B|-----------------------|--------------------3-----------|-3-----3---3------------|
G|-2---0-------0---0-----|----------0------0-----0---0----|-0---------0----0-------|
D|-0---0-------0---0-----|------4---4------4-----4---4----|-4---------4--------4---|
A|-----------------------|-2----2---2------2-----2---2----|-2---------2------------|
E|-----------------------|--------------------------------|------------------------|


E|--------------------------------|-0-----0----------------|--------------------------------|
B|--------------------3-----------|-3-----3---3------------|--------------------3-----------|
G|----------0------0-----0---0----|-0---------0----0-------|----------0------0-----0---0----|
D|------4---4------4-----4---4----|-4---------4--------4---|------4---4------4-----4---4----|
A|-2----2---2------2-----2---2----|-2---------2------------|-2----2---2------2-----2---2----|
E|--------------------------------|------------------------|--------------------------------|


E|-0-----0----------------|--------------------------------|-0-----0----------------|
B|-3-----3---3------------|--------------------3-----------|-3-----3---3------------|
G|-0---------0----0-------|----------0------0-----0---0----|-0---------0----0-------|
D|-4---------4--------4---|------4---4------4-----4---4----|-4---------4--------4---|
A|-2---------2------------|-2----2---2------2-----2---2----|-2---------2------------|
E|------------------------|--------------------------------|------------------------|


E|--------------------|-----------------------|--------------------|-----------------------|
B|--------------------|-----------------------|--------------------|-----------------------|
G|------5-----4-------|-0---2-------2---2-----|------5-----4-------|-2---0-------0---0-----|
D|------0-----0-------|-0---0-------0---0-----|------0-----0-------|-0---0-------0---0-----|
A|--------------------|-----------------------|--------------------|-----------------------|
E|--------------------|-----------------------|--------------------|-----------------------|


E|-----------------------|-----------------------|---------------------------|-----------------------|
B|-----------------------|-----------------------|---------------------------|-----------------------|
G|-0---2-------2---2-----|-0---2-------2---2-----|-0---2--------0---2--------|-0---2-------0---0-----|
D|-0---0-------0---0-----|-0---0-------0---0-----|-0---0--------0---0--------|-0---0-------0---0-----|
A|-----------------------|-----------------------|---------------------------|-----------------------|
E|-----------------------|-----------------------|---------------------------|-----------------------|


E|--------|--------|--------|--------|--------|--------|--------|--------|--------|
B|--------|--------|--------|--------|--------|--------|--------|--------|--------|
G|--------|--------|--------|--------|--------|--------|--------|--------|--------|
D|--------|--------|--------|--------|--------|--------|--------|--------|--------|
A|--------|--------|--------|--------|--------|--------|--------|--------|--------|
E|--------|--------|--------|--------|--------|--------|--------|--------|--------|


E|--------|--------|--------|--------|--------|--------|--------|-------------|-------------|
B|--------|--------|--------|--------|--------|--------|--------|-1-----3-----|-5-----7-----|
G|--------|--------|--------|--------|--------|--------|--------|-2-----4-----|-5-----7-----|
D|--------|--------|--------|--------|--------|--------|--------|-------------|-------------|
A|--------|--------|--------|--------|--------|--------|--------|-------------|-------------|
E|--------|--------|--------|--------|--------|--------|--------|-------------|-------------|


E|-------------|--------|--------|--------|--------|--------|-------------|-------------|
B|-8-----10----|-12-----|--------|--------|--------|--------|-1-----3-----|-5-----7-----|
G|-9-----11----|-12-----|--------|--------|--------|--------|-2-----4-----|-5-----7-----|
D|-------------|--------|--------|--------|--------|--------|-------------|-------------|
A|-------------|--------|--------|--------|--------|--------|-------------|-------------|
E|-------------|--------|--------|--------|--------|--------|-------------|-------------|


E|-------------|--------|--------|--------|--------|--------|---------------------|
B|-8-----10----|-12-----|--------|--------|--------|--------|------3----3---1-----|
G|-9-----11----|-12-----|--------|--------|--------|--------|------2----2---2-----|
D|-------------|--------|--------|--------|--------|--------|---------------------|
A|-------------|--------|--------|--------|--------|--------|---------------------|
E|-------------|--------|--------|--------|--------|--------|---------------------|


E|-0---------------|---------------------|-0---------------|--------|--------|--------|
B|-------3---3-----|------3----3---1-----|-------3---3-----|--------|--------|--------|
G|-------2---2-----|------2----2---2-----|-------2---2-----|--------|--------|--------|
D|-----------------|---------------------|-----------------|--------|--------|--------|
A|-----------------|---------------------|-----------------|--------|--------|--------|
E|-----------------|---------------------|-----------------|--------|--------|--------|


E|--------|--------|--------|--------|--------|--------|--------|--------|--------|
B|--------|--------|--------|--------|--------|--------|--------|--------|--------|
G|--------|--------|--------|--------|--------|--------|--------|--------|--------|
D|--------|--------|--------|--------|--------|--------|--------|--------|--------|
A|--------|--------|--------|--------|--------|--------|--------|--------|--------|
E|--------|--------|--------|--------|--------|--------|--------|--------|--------|


E|--------|--------|--------|--------|-------------|-------------|-------------|--------|
B|--------|--------|--------|--------|-1-----3-----|-5-----7-----|-8-----10----|-12-----|
G|--------|--------|--------|--------|-2-----4-----|-5-----7-----|-9-----11----|-12-----|
D|--------|--------|--------|--------|-------------|-------------|-------------|--------|
A|--------|--------|--------|--------|-------------|-------------|-------------|--------|
E|--------|--------|--------|--------|-------------|-------------|-------------|--------|


E|--------|--------|--------|--------|-------------|-------------|-------------|--------|
B|--------|--------|--------|--------|-1-----3-----|-5-----7-----|-8-----10----|-12-----|
G|--------|--------|--------|--------|-2-----4-----|-5-----7-----|-9-----11----|-12-----|
D|--------|--------|--------|--------|-------------|-------------|-------------|--------|
A|--------|--------|--------|--------|-------------|-------------|-------------|--------|
E|--------|--------|--------|--------|-------------|-------------|-------------|--------|


E|--------|--------|--------|--------|---------------------|-0---------------|---------------------|
B|--------|--------|--------|--------|------3----3---1-----|-------3---3-----|------3----3---1-----|
G|--------|--------|--------|--------|------2----2---2-----|-------2---2-----|------2----2---2-----|
D|--------|--------|--------|--------|---------------------|-----------------|---------------------|
A|--------|--------|--------|--------|---------------------|-----------------|---------------------|
E|--------|--------|--------|--------|---------------------|-----------------|---------------------|


E|-0---------------|--------------------------------|-0-----0----------------|--------------------------------|
B|-------3---3-----|--------------------3-----------|-3-----3---3------------|--------------------3-----------|
G|-------2---2-----|----------0------0-----0---0----|-0---------0----0-------|----------0------0-----0---0----|
D|-----------------|------4---4------4-----4---4----|-4---------4--------4---|------4---4------4-----4---4----|
A|-----------------|-2----2---2------2-----2---2----|-2---------2------------|-2----2---2------2-----2---2----|
E|-----------------|--------------------------------|------------------------|--------------------------------|


E|-0-----0----------------|-0-----0---------|--------------------|-----------------------|
B|-3-----3---3------------|-------3---3-----|--------------------|-----------------------|
G|-0---------0----0-------|-----------------|------2-----4-------|-2---0-------0---0-----|
D|-4---------4--------4---|-----------------|------0-----0-------|-0---0-------0---0-----|
A|-2---------2------------|-----------------|--------------------|-----------------------|
E|------------------------|-----------------|--------------------|-----------------------|


E|--------------------|-----------------------|--------------------|-----------------------|
B|--------------------|-----------------------|--------------------|-----------------------|
G|------2-----4-------|-2---0-------0---0-----|------2-----4-------|-2---0-------0---0-----|
D|------0-----0-------|-0---0-------0---0-----|------0-----0-------|-0---0-------0---0-----|
A|--------------------|-----------------------|--------------------|-----------------------|
E|--------------------|-----------------------|--------------------|-----------------------|


E|--------------------|-----------------------|--------------------------------|-0-----0----------------|
B|--------------------|-----------------------|--------------------3-----------|-3-----3---3------------|
G|------2-----4-------|-2---0-------0---0-----|----------0------0-----0---0----|-0---------0----0-------|
D|------0-----0-------|-0---0-------0---0-----|------4---4------4-----4---4----|-4---------4--------4---|
A|--------------------|-----------------------|-2----2---2------2-----2---2----|-2---------2------------|
E|--------------------|-----------------------|--------------------------------|------------------------|


E|--------------------------------|-0-----0----------------|--------------------------------|
B|--------------------3-----------|-3-----3---3------------|--------------------3-----------|
G|----------0------0-----0---0----|-0---------0----0-------|----------0------0-----0---0----|
D|------4---4------4-----4---4----|-4---------4--------4---|------4---4------4-----4---4----|
A|-2----2---2------2-----2---2----|-2---------2------------|-2----2---2------2-----2---2----|
E|--------------------------------|------------------------|--------------------------------|


E|-0-----0----------------|--------------------------------|-0-----0----------------|
B|-3-----3---3------------|--------------------3-----------|-3-----3---3------------|
G|-0---------0----0-------|----------0------0-----0---0----|-0---------0----0-------|
D|-4---------4--------4---|------4---4------4-----4---4----|-4---------4--------4---|
A|-2---------2------------|-2----2---2------2-----2---2----|-2---------2------------|
E|------------------------|--------------------------------|------------------------|


E|--------------------|-----------------------|--------------------|-----------------------|
B|--------------------|-----------------------|--------------------|-----------------------|
G|------5-----4-------|-0---2-------2---2-----|------5-----4-------|-2---0-------0---0-----|
D|------0-----0-------|-0---0-------0---0-----|------0-----0-------|-0---0-------0---0-----|
A|--------------------|-----------------------|--------------------|-----------------------|
E|--------------------|-----------------------|--------------------|-----------------------|


E|-----------------------|-----------------------|---------------------------|-----------------------|
B|-----------------------|-----------------------|---------------------------|-----------------------|
G|-0---2-------2---2-----|-0---2-------2---2-----|-0---2--------0---2--------|-0---2-------0---0-----|
D|-0---0-------0---0-----|-0---0-------0---0-----|-0---0--------0---0--------|-0---0-------0---0-----|
A|-----------------------|-----------------------|---------------------------|-----------------------|
E|-----------------------|-----------------------|---------------------------|-----------------------|


E|--------|--------|--------|--------|-------------|-------------|-------------|--------|
B|--------|--------|--------|--------|-1-----3-----|-5-----7-----|-8-----10----|-12-----|
G|--------|--------|--------|--------|-2-----4-----|-5-----7-----|-9-----11----|-12-----|
D|--------|--------|--------|--------|-------------|-------------|-------------|--------|
A|--------|--------|--------|--------|-------------|-------------|-------------|--------|
E|--------|--------|--------|--------|-------------|-------------|-------------|--------|


E|--------|--------|--------|--------|--------|--------|--------|--------|---------------------------|
B|--------|--------|--------|--------|--------|--------|--------|--------|---------------------------|
G|--------|--------|--------|--------|--------|--------|--------|--------|-5----4-------2----0-------|
D|--------|--------|--------|--------|--------|--------|--------|--------|-0----0-------0----0-------|
A|--------|--------|--------|--------|--------|--------|--------|--------|---------------------------|
E|--------|--------|--------|--------|--------|--------|--------|--------|---------------------------|


E|-----------------------|---------------------0-----|-------------3---3-----|---------------------------|
B|-----------------------|-------------1---1---------|---------3-------------|---------------------------|
G|-0---0-------2---2-----|---------2-----------------|-----0-----------------|-5----4-------2----0-------|
D|-0---0-------0---0-----|-----2---------------------|-----------------------|-0----0-------0----0-------|
A|-----------------------|-0-------------------------|-----------------------|---------------------------|
E|-----------------------|---------------------------|-3---------------------|---------------------------|


E|-----------------------|---------------------0-----|-------------3---3-----|---------------------------|
B|-----------------------|-------------1---1---------|---------3-------------|---------------------------|
G|-0---0-------2---2-----|---------2-----------------|-----0-----------------|-5----4-------2----0-------|
D|-0---0-------0---0-----|-----2---------------------|-----------------------|-0----0-------0----0-------|
A|-----------------------|-0-------------------------|-----------------------|---------------------------|
E|-----------------------|---------------------------|-3---------------------|---------------------------|


E|-----------------------|---------------------0-----|-------------3---3-----|---------------------------|
B|-----------------------|-------------1---1---------|---------3-------------|---------------------------|
G|-0---0-------2---2-----|---------2-----------------|-----0-----------------|-5----4-------2----0-------|
D|-0---0-------0---0-----|-----2---------------------|-----------------------|-0----0-------0----0-------|
A|-----------------------|-0-------------------------|-----------------------|---------------------------|
E|-----------------------|---------------------------|-3---------------------|---------------------------|


E|-----------------------|---------------------0-----|-------------3---3-----|---------------------------|
B|-----------------------|-------------1---1---------|---------3-------------|---------------------------|
G|-0---0-------2---2-----|---------2-----------------|-----0-----------------|-5----4-------2----0-------|
D|-0---0-------0---0-----|-----2---------------------|-----------------------|-0----0-------0----0-------|
A|-----------------------|-0-------------------------|-----------------------|---------------------------|
E|-----------------------|---------------------------|-3---------------------|---------------------------|


E|-----------------------|---------------------0-----|-------------3---3-----|---------------------------|
B|-----------------------|-------------1---1---------|---------3-------------|---------------------------|
G|-0---0-------2---2-----|---------2-----------------|-----0-----------------|-5----4-------2----0-------|
D|-0---0-------0---0-----|-----2---------------------|-----------------------|-0----0-------0----0-------|
A|-----------------------|-0-------------------------|-----------------------|---------------------------|
E|-----------------------|---------------------------|-3---------------------|---------------------------|


E|-----------------------|---------------------0-----|-------------3---3-----|---------------------------|
B|-----------------------|-------------1---1---------|---------3-------------|---------------------------|
G|-0---0-------2---2-----|---------2-----------------|-----0-----------------|-5----4-------2----0-------|
D|-0---0-------0---0-----|-----2---------------------|-----------------------|-0----0-------0----0-------|
A|-----------------------|-0-------------------------|-----------------------|---------------------------|
E|-----------------------|---------------------------|-3---------------------|---------------------------|


E|-----------------------|--------|--------|--------|--------|--------|--------|--------|
B|-----------------------|--------|--------|--------|--------|--------|--------|--------|
G|-0---0-------2---2-----|--------|--------|--------|--------|--------|--------|--------|
D|-0---0-------0---0-----|--------|--------|--------|--------|--------|--------|--------|
A|-----------------------|--------|--------|--------|--------|--------|--------|--------|
E|-----------------------|--------|--------|--------|--------|--------|--------|--------|


E|--------|--------|--------|--------|--------|--------|--------|--------|--------|
B|--------|--------|--------|--------|--------|--------|--------|--------|--------|
G|--------|--------|--------|--------|--------|--------|--------|--------|--------|
D|--------|--------|--------|--------|--------|--------|--------|--------|--------|
A|--------|--------|--------|--------|--------|--------|--------|--------|--------|
E|--------|--------|--------|--------|--------|--------|--------|--------|--------|


E|--------|--------|--------|--------|--------|--------|--------|--------|--------|
B|--------|--------|--------|--------|--------|--------|--------|--------|--------|
G|--------|--------|--------|--------|--------|--------|--------|--------|--------|
D|--------|--------|--------|--------|--------|--------|--------|--------|--------|
A|--------|--------|--------|--------|--------|--------|--------|--------|--------|
E|--------|--------|--------|--------|--------|--------|--------|--------|--------|


E|--------|--------|--------|--------|--------|--------|--------|--------|--------|
B|--------|--------|--------|--------|--------|--------|--------|--------|--------|
G|--------|--------|--------|--------|--------|--------|--------|--------|--------|
D|--------|--------|--------|--------|--------|--------|--------|--------|--------|
A|--------|--------|--------|--------|--------|--------|--------|--------|--------|
E|--------|--------|--------|--------|--------|--------|--------|--------|--------|


E|--------|--------|--------|--------|--------|--------|--------|--------|--------|
B|--------|--------|--------|--------|--------|--------|--------|--------|--------|
G|--------|--------|--------|--------|--------|--------|--------|--------|--------|
D|--------|--------|--------|--------|--------|--------|--------|--------|--------|
A|--------|--------|--------|--------|--------|--------|--------|--------|--------|
E|--------|--------|--------|--------|--------|--------|--------|--------|--------|


E|--------|--------|--------|--------|--------|--------|--------|
B|--------|--------|--------|--------|--------|--------|--------|
G|--------|--------|--------|--------|--------|--------|--------|
D|--------|--------|--------|--------|--------|--------|--------|
A|--------|--------|--------|--------|--------|--------|--------|
E|--------|--------|--------|--------|--------|--------|--------|





Track 2: Guitar Fills

E|--------|--------|--------|--------|--------|--------|--------|--------|--------|
B|--------|--------|--------|--------|--------|--------|--------|--------|--------|
G|--------|--------|--------|--------|--------|--------|--------|--------|--------|
D|--------|--------|--------|--------|--------|--------|--------|--------|--------|
B|--------|--------|--------|--------|--------|--------|--------|--------|--------|
E|--------|--------|--------|--------|--------|--------|--------|--------|--------|


E|--------|--------|-----------------------|--------|--------|--------|--------|--------|
B|--------|--------|-----------------------|--------|--------|--------|--------|--------|
G|--------|--------|-----------------------|--------|--------|--------|--------|--------|
D|--------|--------|-------2---3---4---5---|--------|--------|--------|--------|--------|
B|--------|--------|-----------------------|--------|--------|--------|--------|--------|
E|--------|--------|-----------------------|--------|--------|--------|--------|--------|


E|--------|--------|-----------------------|--------|--------|--------|--------|--------|
B|--------|--------|-----------------------|--------|--------|--------|--------|--------|
G|--------|--------|-----------------------|--------|--------|--------|--------|--------|
D|--------|--------|-------2---3---4---5---|--------|--------|--------|--------|--------|
B|--------|--------|-----------------------|--------|--------|--------|--------|--------|
E|--------|--------|-----------------------|--------|--------|--------|--------|--------|


E|--------|--------|--------|-17--0---15--0---14--0---12--0---|-10--0---8---0---7---0---5---0---|
B|--------|--------|--------|---------------------------------|---------------------------------|
G|--------|--------|--------|---------------------------------|---------------------------------|
D|--------|--------|--------|---------------------------------|---------------------------------|
B|--------|--------|--------|---------------------------------|---------------------------------|
E|--------|--------|--------|---------------------------------|---------------------------------|


E|-3---0---2---0---------------0---|--------|--------|--------|--------|-----------22--22--22--|
B|-----------------5---0---3-------|-5------|-5------|-5------|-5------|-5-----5---------------|
G|---------------------------------|--------|--------|--------|--------|-----------23--23--23--|
D|---------------------------------|--------|--------|--------|--------|-----------------------|
B|---------------------------------|--------|--------|--------|--------|-----------------------|
E|---------------------------------|--------|--------|--------|--------|-----------------------|


E|-22--20---20--20--19---19--|-19--17---17--17----|-15--17---15--15--10--12---|-12--10----10----|
B|---------------------------|--------------------|-15--17---15--15--10--12---|-12--10----10----|
G|-23--21---21--21--19---19--|-19--17---17--17----|---------------------------|-----------------|
D|---------------------------|--------------------|---------------------------|-----------------|
B|---------------------------|--------------------|---------------------------|-----------------|
E|---------------------------|--------------------|---------------------------|-----------------|


E|-10-----|-10-----|-10-----|-10-----|------------------------|------------------------------|
B|-10-----|-10-----|-10-----|-10-----|-10--------12-------10--|-----7------------------------|
G|--------|--------|--------|--------|-7---------7--------7---|-----7--------9-------7-------|
D|--------|--------|--------|--------|------------------------|------------------------------|
B|--------|--------|--------|--------|------------------------|------------------------------|
E|--------|--------|--------|--------|------------------------|------------------------------|


E|------------------------|-----------------|------------------------|------------------------------|
B|-10--------12-------10--|-10--------------|-10--------12-------10--|-----7------------------------|
G|-7---------7--------7---|-7---------------|-7---------7--------7---|-----7--------9-------7-------|
D|------------------------|-----------------|------------------------|------------------------------|
B|------------------------|-----------------|------------------------|------------------------------|
E|------------------------|-----------------|------------------------|------------------------------|


E|-------------|-------------|------------------------|------------------------------|
B|-13----15----|-12----------|-10--------12-------10--|-----7------------------------|
G|-12----12----|-12----------|-7---------7--------7---|-----7--------9-------7-------|
D|-------------|-------------|------------------------|------------------------------|
B|-------------|-------------|------------------------|------------------------------|
E|-------------|-------------|------------------------|------------------------------|


E|-----------7---10----------|-----------------|------------------------|------------------------------|
B|-10--------------------10--|-10--------------|-10--------12-------10--|-----7------------------------|
G|-7---------------------7---|-7---------------|-7---------7--------7---|-----7--------9-------7-------|
D|---------------------------|-----------------|------------------------|------------------------------|
B|---------------------------|-----------------|------------------------|------------------------------|
E|---------------------------|-----------------|------------------------|------------------------------|


E|-------------|--------|--------|--------|--------|--------|-20-0--20-0--19-0--19-0--17-0--17-0--15-0--15-0--|
B|-13----15----|-15-----|--------|--------|--------|--------|-------------------------------------------------|
G|-12----12----|-12-----|--------|--------|--------|--------|-------------------------------------------------|
D|-------------|--------|--------|--------|--------|--------|-------------------------------------------------|
B|-------------|--------|--------|--------|--------|--------|-------------------------------------------------|
E|-------------|--------|--------|--------|--------|--------|-------------------------------------------------|


E|-14-0--14-0--12-0--12-0--10-0--10-0--8--0--8--0--|-7--0--7--0--5--0--5--0--3--0--3--0--2--0--2--0--|
B|-------------------------------------------------|-------------------------------------------------|
G|-------------------------------------------------|-------------------------------------------------|
D|-------------------------------------------------|-------------------------------------------------|
B|-------------------------------------------------|-------------------------------------------------|
E|-------------------------------------------------|-------------------------------------------------|


E|--------|--------|--------|--------|-----------22--22--22--|-22--20---20--20--19---19--|
B|-5------|-5------|-5------|-5------|-5-----5---------------|---------------------------|
G|--------|--------|--------|--------|-----------23--23--23--|-23--21---21--21--19---19--|
D|--------|--------|--------|--------|-----------------------|---------------------------|
B|--------|--------|--------|--------|-----------------------|---------------------------|
E|--------|--------|--------|--------|-----------------------|---------------------------|


E|-19--17---17--17----|-15--17---15--15--10--12---|-12--10----10----|-10-----|-10-----|
B|--------------------|-15--17---15--15--10--12---|-12--10----10----|-10-----|-10-----|
G|-19--17---17--17----|---------------------------|-----------------|--------|--------|
D|--------------------|---------------------------|-----------------|--------|--------|
B|--------------------|---------------------------|-----------------|--------|--------|
E|--------------------|---------------------------|-----------------|--------|--------|


E|-10-----|-10-----|--------|--------|--------|--------|--------|------10------------|
B|--------|--------|--------|--------|--------|--------|--------|------------13------|
G|--------|--------|--------|--------|--------|--------|--------|--------------------|
D|--------|--------|--------|--------|--------|--------|--------|--------------------|
B|--------|--------|--------|--------|--------|--------|--------|--------------------|
E|--------|--------|--------|--------|--------|--------|--------|--------------------|


E|------10-------------------|--------------------|------------------------------|
B|-13-------12--12---10------|-10---10------------|------------------------------|
G|---------------------------|------------12------|-11--11-----------------------|
D|---------------------------|--------------------|---------12--10--10---12--0---|
B|---------------------------|--------------------|------------------------------|
E|---------------------------|--------------------|------------------------------|


E|------------------------------|------------------------------|---------------------|
B|------------------------------|------------------------------|---------------------|
G|------------------------------|-9---9-------7---7----5-------|-5---5-----5-----5---|
D|-10--9---0---7---7----9-------|--------------------------7---|---------------------|
B|------------------------------|------------------------------|---------------------|
E|------------------------------|------------------------------|---------------------|


E|-------------|-----5-----------7---7-----------|---------------------------|---------------------------|
B|-------------|---------5---5-----------7---7---|---------------7-----------|---------------------------|
G|-7------7----|---------------------------------|-----------7---------------|-----5---7---7-------------|
D|-------------|---------------------------------|------5------------5---5---|-5---------------5----5----|
B|-------------|---------------------------------|-5-------------------------|---------------------------|
E|-------------|---------------------------------|---------------------------|---------------------------|


E|------------------------------|---------------------------------|---------------------------------|
B|------------------------------|-------------------------7-------|-----------------7---------------|
G|--------------------------7---|-----------------7---5-----------|---------7---5-------------------|
D|---------7------------7-------|---------------------------------|---------------------------------|
B|-5---7--------5---7-----------|---------7---5-------------------|-7---5-------------------7---5---|
E|------------------------------|-----5-----------------------5---|---------------------5-----------|


E|-------------------------7---5---|------------------------------|------14-----|-14--14--12--10--10---10---|
B|---------7---7---7---5-----------|-5---5--------5---------------|-------------|---------------------------|
G|-7---5---------------------------|---------3--------5---7-------|-------------|---------------------------|
D|---------------------------------|--------------------------5---|-------------|---------------------------|
B|---------------------------------|------------------------------|-------------|---------------------------|
E|---------------------------------|------------------------------|-------------|---------------------------|


E|-10---10---10--10----|-10--8-------10--10---10---|-----14--14--10-------10------|
B|---------------------|---------------------------|-----------------10-----------|
G|---------------------|---------------------------|-0------------------------0---|
D|---------------------|---------------------------|------------------------------|
B|---------------------|---------------------------|------------------------------|
E|---------------------|---------------------------|------------------------------|


E|-14--14--10-----------10------|---------------------------|---------------------|
B|-------------13--13-----------|-12--12--10----------------|---------------------|
G|--------------------------0---|-------------12--11--------|---------------------|
D|------------------------------|----------------------12---|-10--12----12---12---|
B|------------------------------|---------------------------|---------------------|
E|------------------------------|---------------------------|---------------------|


E|------------------------|------------------------------|------------------------|
B|-10--------12-------10--|-----7------------------------|-10--------12-------10--|
G|-7---------7--------7---|-----7--------9-------7-------|-7---------7--------7---|
D|------------------------|------------------------------|------------------------|
B|------------------------|------------------------------|------------------------|
E|------------------------|------------------------------|------------------------|


E|-----------------|------------------------|------------------------------|-------------|
B|-10--------------|-10--------12-------10--|-----7------------------------|-13----15----|
G|-7---------------|-7---------7--------7---|-----7--------9-------7-------|-12----12----|
D|-----------------|------------------------|------------------------------|-------------|
B|-----------------|------------------------|------------------------------|-------------|
E|-----------------|------------------------|------------------------------|-------------|


E|-------------|------------------------|------------------------------|-----------7---10----------|
B|-12----------|-10--------12-------10--|-----7------------------------|-10--------------------10--|
G|-12----------|-7---------7--------7---|-----7--------9-------7-------|-7---------------------7---|
D|-------------|------------------------|------------------------------|---------------------------|
B|-------------|------------------------|------------------------------|---------------------------|
E|-------------|------------------------|------------------------------|---------------------------|


E|-----------------|------------------------|------------------------------|-------------|
B|-10--------------|-10--------12-------10--|-----7------------------------|-13----15----|
G|-7---------------|-7---------7--------7---|-----7--------9-------7-------|-12----12----|
D|-----------------|------------------------|------------------------------|-------------|
B|-----------------|------------------------|------------------------------|-------------|
E|-----------------|------------------------|------------------------------|-------------|


E|--------|--------|--------|--------|--------|-17--0---15--0---14--0---12--0---|-10--0---8---0---7---0---5---0---|
B|-15-----|--------|--------|--------|--------|---------------------------------|---------------------------------|
G|-12-----|--------|--------|--------|--------|---------------------------------|---------------------------------|
D|--------|--------|--------|--------|--------|---------------------------------|---------------------------------|
B|--------|--------|--------|--------|--------|---------------------------------|---------------------------------|
E|--------|--------|--------|--------|--------|---------------------------------|---------------------------------|


E|-3---0---2---0---------------0---|--------|--------|--------|--------|-----------22--22--22--|
B|-----------------5---0---3-------|-5------|-5------|-5------|-5------|-5-----5---------------|
G|---------------------------------|--------|--------|--------|--------|-----------23--23--23--|
D|---------------------------------|--------|--------|--------|--------|-----------------------|
B|---------------------------------|--------|--------|--------|--------|-----------------------|
E|---------------------------------|--------|--------|--------|--------|-----------------------|


E|-22--20---20--20--19---19--|-19--17---17--17----|-15--17---15--15--10--12---|-12--10----10----|
B|---------------------------|--------------------|-15--17---15--15--10--12---|-12--10----10----|
G|-23--21---21--21--19---19--|-19--17---17--17----|---------------------------|-----------------|
D|---------------------------|--------------------|---------------------------|-----------------|
B|---------------------------|--------------------|---------------------------|-----------------|
E|---------------------------|--------------------|---------------------------|-----------------|


E|-10-----|-10-----|-10-----|-10-----|------------------------|------------------------------|
B|-10-----|-10-----|-10-----|-10-----|-10--------12-------10--|-----7------------------------|
G|--------|--------|--------|--------|-7---------7--------7---|-----7--------9-------7-------|
D|--------|--------|--------|--------|------------------------|------------------------------|
B|--------|--------|--------|--------|------------------------|------------------------------|
E|--------|--------|--------|--------|------------------------|------------------------------|


E|------------------------|-----------------|------------------------|------------------------------|
B|-10--------12-------10--|-10--------------|-10--------12-------10--|-----7------------------------|
G|-7---------7--------7---|-7---------------|-7---------7--------7---|-----7--------9-------7-------|
D|------------------------|-----------------|------------------------|------------------------------|
B|------------------------|-----------------|------------------------|------------------------------|
E|------------------------|-----------------|------------------------|------------------------------|


E|-------------|-------------|------------------------|------------------------------|
B|-13----15----|-12----------|-10--------12-------10--|-----7------------------------|
G|-12----12----|-12----------|-7---------7--------7---|-----7--------9-------7-------|
D|-------------|-------------|------------------------|------------------------------|
B|-------------|-------------|------------------------|------------------------------|
E|-------------|-------------|------------------------|------------------------------|


E|-----------7---10----------|-----------------|------------------------|------------------------------|
B|-10--------------------10--|-10--------------|-10--------12-------10--|-----7------------------------|
G|-7---------------------7---|-7---------------|-7---------7--------7---|-----7--------9-------7-------|
D|---------------------------|-----------------|------------------------|------------------------------|
B|---------------------------|-----------------|------------------------|------------------------------|
E|---------------------------|-----------------|------------------------|------------------------------|


E|-------------|--------|--------|--------|--------|--------|-20-0--20-0--19-0--19-0--17-0--17-0--15-0--15-0--|
B|-13----15----|-15-----|--------|--------|--------|--------|-------------------------------------------------|
G|-12----12----|-12-----|--------|--------|--------|--------|-------------------------------------------------|
D|-------------|--------|--------|--------|--------|--------|-------------------------------------------------|
B|-------------|--------|--------|--------|--------|--------|-------------------------------------------------|
E|-------------|--------|--------|--------|--------|--------|-------------------------------------------------|


E|-14-0--14-0--12-0--12-0--10-0--10-0--8--0--8--0--|-7--0--7--0--5--0--5--0--3--0--3--0--2--0--2--0--|
B|-------------------------------------------------|-------------------------------------------------|
G|-------------------------------------------------|-------------------------------------------------|
D|-------------------------------------------------|-------------------------------------------------|
B|-------------------------------------------------|-------------------------------------------------|
E|-------------------------------------------------|-------------------------------------------------|


E|--------|--------|--------|--------|-----------22--22--22--|-22--20---20--20--19---19--|
B|-5------|-5------|-5------|-5------|-5-----5---------------|---------------------------|
G|--------|--------|--------|--------|-----------23--23--23--|-23--21---21--21--19---19--|
D|--------|--------|--------|--------|-----------------------|---------------------------|
B|--------|--------|--------|--------|-----------------------|---------------------------|
E|--------|--------|--------|--------|-----------------------|---------------------------|


E|-19--17---17--17----|-15--17---15--15--10--12---|-12--10----10----|-10-----|-10-----|
B|--------------------|-15--17---15--15--10--12---|-12--10----10----|-10-----|-10-----|
G|-19--17---17--17----|---------------------------|-----------------|--------|--------|
D|--------------------|---------------------------|-----------------|--------|--------|
B|--------------------|---------------------------|-----------------|--------|--------|
E|--------------------|---------------------------|-----------------|--------|--------|


E|-10-----|-10-----|--------|--------|--------|--------|--------|------10------------|
B|--------|--------|--------|--------|--------|--------|--------|------------13------|
G|--------|--------|--------|--------|--------|--------|--------|--------------------|
D|--------|--------|--------|--------|--------|--------|--------|--------------------|
B|--------|--------|--------|--------|--------|--------|--------|--------------------|
E|--------|--------|--------|--------|--------|--------|--------|--------------------|


E|------10-------------------|--------------------|------------------------------|
B|-13-------12--12---10------|-10---10------------|------------------------------|
G|---------------------------|------------12------|-11--11-----------------------|
D|---------------------------|--------------------|---------12--10--10---12--0---|
B|---------------------------|--------------------|------------------------------|
E|---------------------------|--------------------|------------------------------|


E|------------------------------|------------------------------|---------------------|
B|------------------------------|------------------------------|---------------------|
G|------------------------------|-9---9-------7---7----5-------|-5---5-----5-----5---|
D|-10--9---0---7---7----9-------|--------------------------7---|---------------------|
B|------------------------------|------------------------------|---------------------|
E|------------------------------|------------------------------|---------------------|


E|-------------|-----5-----------7---7-----------|---------------------------|---------------------------|
B|-------------|---------5---5-----------7---7---|---------------7-----------|---------------------------|
G|-7------7----|---------------------------------|-----------7---------------|-----5---7---7-------------|
D|-------------|---------------------------------|------5------------5---5---|-5---------------5----5----|
B|-------------|---------------------------------|-5-------------------------|---------------------------|
E|-------------|---------------------------------|---------------------------|---------------------------|


E|------------------------------|---------------------------------|---------------------------------|
B|------------------------------|-------------------------7-------|-----------------7---------------|
G|--------------------------7---|-----------------7---5-----------|---------7---5-------------------|
D|---------7------------7-------|---------------------------------|---------------------------------|
B|-5---7--------5---7-----------|---------7---5-------------------|-7---5-------------------7---5---|
E|------------------------------|-----5-----------------------5---|---------------------5-----------|


E|-------------------------7---5---|------------------------------|------14-----|-14--14--12--10--10---10---|
B|---------7---7---7---5-----------|-5---5--------5---------------|-------------|---------------------------|
G|-7---5---------------------------|---------3--------5---7-------|-------------|---------------------------|
D|---------------------------------|--------------------------5---|-------------|---------------------------|
B|---------------------------------|------------------------------|-------------|---------------------------|
E|---------------------------------|------------------------------|-------------|---------------------------|


E|-10---10---10--10----|-10--8-------10--10---10---|-----14--14--10-------10------|
B|---------------------|---------------------------|-----------------10-----------|
G|---------------------|---------------------------|-0------------------------0---|
D|---------------------|---------------------------|------------------------------|
B|---------------------|---------------------------|------------------------------|
E|---------------------|---------------------------|------------------------------|


E|-14--14--10-----------10------|---------------------------|---------------------|
B|-------------13--13-----------|-12--12--10----------------|---------------------|
G|--------------------------0---|-------------12--11--------|---------------------|
D|------------------------------|----------------------12---|-10--12----12---12---|
B|------------------------------|---------------------------|---------------------|
E|------------------------------|---------------------------|---------------------|


E|-20-22200--19-20190--1719170-19-20190--17-19170--1517150-|-17-19170--15-17150--1415140-15-17150--14-15140--1214120-|
B|---------------------------------------------------------|---------------------------------------------------------|
G|---------------------------------------------------------|---------------------------------------------------------|
D|---------------------------------------------------------|---------------------------------------------------------|
B|---------------------------------------------------------|---------------------------------------------------------|
E|---------------------------------------------------------|---------------------------------------------------------|


E|-14-15140--12-14120--1012100-12-14120--10-12100--8-108-0-|-7--8-7-0--5--7-5-0--3-5-3-0-2--3-2-0-----|
B|---------------------------------------------------------|------------------------------------------|
G|---------------------------------------------------------|------------------------------------------|
D|---------------------------------------------------------|------------------------------------------|
B|---------------------------------------------------------|------------------------------------------|
E|---------------------------------------------------------|------------------------------------------|


E|-0------|-0------|-0------|-0-----0---22---22-19-|-22--22----22----17--|-17--17-15-17--17--17----|
B|--------|--------|--------|----------------------|---------------------|-------------------------|
G|--------|--------|--------|----------------------|---------------------|-------------------------|
D|--------|--------|--------|----------------------|---------------------|-------------------------|
B|--------|--------|--------|----------------------|---------------------|-------------------------|
E|--------|--------|--------|----------------------|---------------------|-------------------------|


E|-15--12------------------------------------------|-------------------------------------------------|
B|---------15--12----------15--12------------------|-------------------------------------------------|
G|-----------------14--12----------14--12----------|-14--12------------------------------------------|
D|-----------------------------------------14--12--|---------14--12----------14--12------------------|
B|-------------------------------------------------|-----------------14--12----------14--12----------|
E|-------------------------------------------------|-----------------------------------------15--12--|


E|--------|------------------------|--------|---------------------------|--------|
B|--------|------------------------|--------|---------------------------|--------|
G|--------|-12---11----------------|--------|---------------------------|--------|
D|--------|----------12--12---12---|-0------|-5---4---3---2---2----2----|--------|
B|--------|------------------------|--------|---------------------------|--------|
E|-10-----|------------------------|--------|---------------------------|--------|


E|--------|--------|--------|--------|--------|--------|--------|--------|--------|
B|--------|--------|--------|--------|--------|--------|--------|--------|--------|
G|--------|--------|--------|--------|--------|--------|--------|--------|--------|
D|--------|--------|--------|--------|--------|--------|--------|--------|--------|
B|--------|--------|--------|--------|--------|--------|--------|--------|--------|
E|--------|--------|--------|--------|--------|--------|--------|--------|--------|


E|--------|--------|--------|--------|--------|-------------------10--|-10----------10--10----------10--|
B|--------|--------|--------|--------|--------|-----------10--13------|-----10--13----------10--13------|
G|--------|--------|--------|--------|--------|-----------------------|---------------------------------|
D|--------|--------|--------|--------|--------|-----------------------|---------------------------------|
B|--------|--------|--------|--------|--------|-----------------------|---------------------------------|
E|--------|--------|--------|--------|--------|-----------------------|---------------------------------|


E|-10----------10--10------10--10--|-----10--10------10--10------10--|-10------10----------10----------|
B|-----10--13----------13----------|-13----------13----------13------|-----13------10--13------10--10--|
G|---------------------------------|---------------------------------|---------------------------------|
D|---------------------------------|---------------------------------|---------------------------------|
B|---------------------------------|---------------------------------|---------------------------------|
E|---------------------------------|---------------------------------|---------------------------------|


E|-14-----14--|-14----14--10------10--|-10-------------10------|---------------------------------|
B|------------|---------------13------|-----13----13-------12--|-12--10--12--10------------------|
G|------------|-----------------------|------------------------|-----------------12--11----------|
D|------------|-----------------------|------------------------|-------------------------12--0---|
B|------------|-----------------------|------------------------|---------------------------------|
E|------------|-----------------------|------------------------|---------------------------------|


E|---------------------------|---------------------------|--------|--------|---------------------------|
B|---------------------------|---------------------------|--------|--------|---------------------------|
G|---------------------------|---------------------------|--------|--------|-------2---2---4---4---5---|
D|-10---10---9---7---5---0---|-5---7---7---7---7----7----|--------|--------|-0-------------------------|
B|---------------------------|---------------------------|--------|--------|---------------------------|
E|---------------------------|---------------------------|--------|--------|---------------------------|


E|------------------------------|---------------------------------|------------------------------|
B|------------------------------|---------------------------------|------------------------------|
G|-5---7---7---7---7----12--12--|-12--11------12--11------12--11--|-----12--11----------11-------|
D|------------------------------|---------0-----------0-----------|-0-----------0---12-----------|
B|------------------------------|---------------------------------|------------------------------|
E|------------------------------|---------------------------------|------------------------------|


E|-10-------10--10-------10--|-10-------10--10---10--12--|-12--12--12--12--12--10-------|
B|------13-----------13------|------13-------------------|-------------------------13---|
G|---------------------------|---------------------------|------------------------------|
D|---------------------------|---------------------------|------------------------------|
B|---------------------------|---------------------------|------------------------------|
E|---------------------------|---------------------------|------------------------------|


E|-10-------10--10--------|-20----20--20----|-20-----20---|----------17--17--17--17--17--|
B|------13----------------|-----------------|-------------|------------------------------|
G|------------------------|-----------------|-------------|------------------------------|
D|------------------------|-----------------|-------------|------------------------------|
B|------------------------|-----------------|-------------|------------------------------|
E|------------------------|-----------------|-------------|------------------------------|


E|-17--17--17--17--17--17--15------|-----17-----------------------|---------------------------|
B|-----------------------------17--|-17------17--17--15------15---|-15-------15--15---15------|
G|---------------------------------|---------------------17-------|------17---------------16--|
D|---------------------------------|------------------------------|---------------------------|
B|---------------------------------|------------------------------|---------------------------|
E|---------------------------------|------------------------------|---------------------------|


E|---------------------------------|---------------------------|------------------------------|
B|---------------------------------|---------------------------|------------------------------|
G|-16--14--16--14--16--14----------|---------------------------|-11--11-----------------------|
D|-------------------------16--0---|-12---14--12--10---12--0---|---------12--10--10---12--0---|
B|---------------------------------|---------------------------|------------------------------|
E|---------------------------------|---------------------------|------------------------------|


E|------------------------------|---------------------------------|------------------------------|
B|------------------------------|---------------------------------|------------------------------|
G|-11--11-----------------------|-11--11------------------11--11--|--------------11--11----------|
D|---------12--10--10---12--0---|---------12--10--10--12----------|-12--10---12----------12--10--|
B|------------------------------|---------------------------------|------------------------------|
E|------------------------------|---------------------------------|------------------------------|


E|------10------10---10------|------10------10---10------|------10------10------10--10--|
B|-13-------13-----------13--|-13-------13-----------13--|-13-------13------13----------|
G|---------------------------|---------------------------|------------------------------|
D|---------------------------|---------------------------|------------------------------|
B|---------------------------|---------------------------|------------------------------|
E|---------------------------|---------------------------|------------------------------|


E|-----10--10------10------10--10--|-14--14--14--10------10--10------|---------------------------|
B|-13----------13------13----------|-----------------13----------12--|-12--10--------------------|
G|---------------------------------|---------------------------------|---------12--11------------|
D|---------------------------------|---------------------------------|-----------------12---12---|
B|---------------------------------|---------------------------------|---------------------------|
E|---------------------------------|---------------------------------|---------------------------|


E|------------------------|---------------------|------------------------|------10----------------|
B|------------------------|---------------------|------------------------|------------------------|
G|------------------------|---------------------|----------7---7----9----|-9---------9---9---7----|
D|-10---0---9---9----7----|-9-----7---7----5----|-5---7------------------|------------------------|
B|------------------------|---------------------|------------------------|------------------------|
E|------------------------|---------------------|------------------------|------------------------|


E|---------------------------|------------------------|---------10-------------------|
B|-------------------10------|------------------------|------------------------------|
G|-7----7---9---9--------9---|-9---7--------7----9----|-9---9-------9---9---7--------|
D|---------------------------|---------9--------------|-------------------------9----|
B|---------------------------|------------------------|------------------------------|
E|---------------------------|------------------------|------------------------------|


E|------------------------|---------------------------------|---------------------------|
B|------------------------|---------8-----------------------|---------------------------|
G|-7------------------7---|-9---9-------9---9---7-------7---|---------------------------|
D|------9----7------------|-------------------------9-------|-9---9---------------------|
B|----------------9-------|---------------------------------|---------7---7---5---------|
E|------------------------|---------------------------------|---------------------------|


E|---------10----------8-----|-7---------------------|---------------------------------|
B|---------------------------|---------10------------|---------------------------------|
G|-9---9-------9---9---------|-----7-------9---9-----|-9---7-------7-------------------|
D|---------------------------|-----------------------|---------9-------9---9---7-------|
B|---------------------------|-----------------------|-----------------------------8---|
E|---------------------------|-----------------------|---------------------------------|


E|-----------------------|---------------------------------|------------------------------|
B|-----------------------|---------------------10--12--10--|-----15--17--15--15---17--15--|
G|-----------------------|-------------7---11--------------|-16---------------------------|
D|-----------------------|-----7---9-----------------------|------------------------------|
B|-8---7---5-------5-----|-9-------------------------------|------------------------------|
E|-------------7---------|---------------------------------|------------------------------|


E|----------22-------22------|-----22-------22-------22--|------22----------22-------|
B|-----24-------24-------24--|-24------24-------24-------|-24-------24--24------24---|
G|---------------------------|---------------------------|---------------------------|
D|---------------------------|---------------------------|---------------------------|
B|---------------------------|---------------------------|---------------------------|
E|---------------------------|---------------------------|---------------------------|


E|-22-------22-------22------|-----22-------22-------22--|-------------|
B|-----24-------24-------24--|-24------24-------24-------|-24-----24---|
G|---------------------------|---------------------------|-------------|
D|---------------------------|---------------------------|-------------|
B|---------------------------|---------------------------|-------------|
E|---------------------------|---------------------------|-------------|





Track 3: Guitar Fills

E|--------|--------|--------|--------|--------|--------|--------|--------|--------|
B|--------|--------|--------|--------|--------|--------|--------|--------|--------|
G|--------|--------|--------|--------|--------|--------|--------|--------|--------|
D|--------|--------|--------|--------|--------|--------|--------|--------|--------|
B|--------|--------|--------|--------|--------|--------|--------|--------|--------|
E|--------|--------|--------|--------|--------|--------|--------|--------|--------|


E|--------|--------|--------|--------|--------|--------|--------|--------|--------|
B|--------|--------|--------|--------|--------|--------|--------|--------|--------|
G|--------|--------|--------|--------|--------|--------|--------|--------|--------|
D|--------|--------|--------|--------|--------|--------|--------|--------|--------|
B|--------|--------|--------|--------|--------|--------|--------|--------|--------|
E|--------|--------|--------|--------|--------|--------|--------|--------|--------|


E|--------|--------|--------|--------|--------|--------|--------|--------|--------|
B|--------|--------|--------|--------|--------|--------|--------|--------|--------|
G|--------|--------|--------|--------|--------|--------|--------|--------|--------|
D|--------|--------|--------|--------|--------|--------|--------|--------|--------|
B|--------|--------|--------|--------|--------|--------|--------|--------|--------|
E|--------|--------|--------|--------|--------|--------|--------|--------|--------|


E|--------|--------|--------|--------|--------|--------|--------|--------|--------|
B|--------|--------|--------|--------|--------|--------|--------|--------|--------|
G|--------|--------|--------|--------|--------|--------|--------|--------|--------|
D|--------|--------|--------|--------|--------|--------|--------|--------|--------|
B|--------|--------|--------|--------|--------|--------|--------|--------|--------|
E|--------|--------|--------|--------|--------|--------|--------|--------|--------|


E|--------|--------|--------|--------|--------|--------|--------|--------|--------|
B|--------|--------|--------|--------|--------|--------|--------|--------|--------|
G|--------|--------|--------|--------|--------|--------|--------|--------|--------|
D|--------|--------|--------|--------|--------|--------|--------|--------|--------|
B|--------|--------|--------|--------|--------|--------|--------|--------|--------|
E|--------|--------|--------|--------|--------|--------|--------|--------|--------|


E|--------|--------|-----------------------|--------|--------|--------|--------|--------|
B|--------|--------|-----------------------|--------|--------|--------|--------|--------|
G|--------|--------|-----------------------|--------|--------|--------|--------|--------|
D|--------|--------|-------2---3---4---5---|--------|--------|--------|--------|--------|
B|--------|--------|-----------------------|--------|--------|--------|--------|--------|
E|--------|--------|-----------------------|--------|--------|--------|--------|--------|


E|--------|--------|-----------------------|--------|--------|--------|--------|--------|
B|--------|--------|-----------------------|--------|--------|--------|--------|--------|
G|--------|--------|-----------------------|--------|--------|--------|--------|--------|
D|--------|--------|-------2---3---4---5---|--------|--------|--------|--------|--------|
B|--------|--------|-----------------------|--------|--------|--------|--------|--------|
E|--------|--------|-----------------------|--------|--------|--------|--------|--------|


E|--------|--------|--------|--------|--------|--------|--------|--------|--------|
B|--------|--------|--------|--------|--------|--------|--------|--------|--------|
G|--------|--------|--------|--------|--------|--------|--------|--------|--------|
D|--------|--------|--------|--------|--------|--------|--------|--------|--------|
B|--------|--------|--------|--------|--------|--------|--------|--------|--------|
E|--------|--------|--------|--------|--------|--------|--------|--------|--------|


E|--------|--------|--------|--------|--------|--------|--------|--------|--------|
B|--------|--------|--------|--------|--------|--------|--------|--------|--------|
G|--------|--------|--------|--------|--------|--------|--------|--------|--------|
D|--------|--------|--------|--------|--------|--------|--------|--------|--------|
B|--------|--------|--------|--------|--------|--------|--------|--------|--------|
E|--------|--------|--------|--------|--------|--------|--------|--------|--------|


E|--------|--------|--------|--------|--------|--------|--------|--------|--------|
B|--------|--------|--------|--------|--------|--------|--------|--------|--------|
G|--------|--------|--------|--------|--------|--------|--------|--------|--------|
D|--------|--------|--------|--------|--------|--------|--------|--------|--------|
B|--------|--------|--------|--------|--------|--------|--------|--------|--------|
E|--------|--------|--------|--------|--------|--------|--------|--------|--------|


E|--------|--------|--------|--------|--------|--------|--------|--------|--------|
B|--------|--------|--------|--------|--------|--------|--------|--------|--------|
G|--------|--------|--------|--------|--------|--------|--------|--------|--------|
D|--------|--------|--------|--------|--------|--------|--------|--------|--------|
B|--------|--------|--------|--------|--------|--------|--------|--------|--------|
E|--------|--------|--------|--------|--------|--------|--------|--------|--------|


E|--------|--------|--------|--------|--------|--------|--------|--------|--------|
B|--------|--------|--------|--------|--------|--------|--------|--------|--------|
G|--------|--------|--------|--------|--------|--------|--------|--------|--------|
D|--------|--------|--------|--------|--------|--------|--------|--------|--------|
B|--------|--------|--------|--------|--------|--------|--------|--------|--------|
E|--------|--------|--------|--------|--------|--------|--------|--------|--------|


E|--------|--------|--------|--------|--------|--------|-----------------------|--------|
B|--------|--------|--------|--------|--------|--------|-----------------------|--------|
G|--------|--------|--------|--------|--------|--------|-----------------------|--------|
D|--------|--------|--------|--------|--------|--------|-------2---3---4---5---|--------|
B|--------|--------|--------|--------|--------|--------|-----------------------|--------|
E|--------|--------|--------|--------|--------|--------|-----------------------|--------|


E|--------|--------|--------|--------|--------|--------|-----------------------|--------|
B|--------|--------|--------|--------|--------|--------|-----------------------|--------|
G|--------|--------|--------|--------|--------|--------|-----------------------|--------|
D|--------|--------|--------|--------|--------|--------|-------2---3---4---5---|--------|
B|--------|--------|--------|--------|--------|--------|-----------------------|--------|
E|--------|--------|--------|--------|--------|--------|-----------------------|--------|


E|--------|--------|--------|--------|--------|--------|--------|--------|--------|
B|--------|--------|--------|--------|--------|--------|--------|--------|--------|
G|--------|--------|--------|--------|--------|--------|--------|--------|--------|
D|--------|--------|--------|--------|--------|--------|--------|--------|--------|
B|--------|--------|--------|--------|--------|--------|--------|--------|--------|
E|--------|--------|--------|--------|--------|--------|--------|--------|--------|


E|--------|--------|--------|--------|--------|--------|--------|--------|--------|
B|--------|--------|--------|--------|--------|--------|--------|--------|--------|
G|--------|--------|--------|--------|--------|--------|--------|--------|--------|
D|--------|--------|--------|--------|--------|--------|--------|--------|--------|
B|--------|--------|--------|--------|--------|--------|--------|--------|--------|
E|--------|--------|--------|--------|--------|--------|--------|--------|--------|


E|--------|--------|--------|--------|--------|--------|--------|--------|-----------------------|
B|--------|--------|--------|--------|--------|--------|--------|--------|-----------------------|
G|--------|--------|--------|--------|--------|--------|--------|--------|-----------------------|
D|--------|--------|--------|--------|--------|--------|--------|--------|-------2---3---4---5---|
B|--------|--------|--------|--------|--------|--------|--------|--------|-----------------------|
E|--------|--------|--------|--------|--------|--------|--------|--------|-----------------------|


E|--------|--------|--------|--------|--------|--------|--------|-----------------------|
B|--------|--------|--------|--------|--------|--------|--------|-----------------------|
G|--------|--------|--------|--------|--------|--------|--------|-----------------------|
D|--------|--------|--------|--------|--------|--------|--------|-------2---3---4---5---|
B|--------|--------|--------|--------|--------|--------|--------|-----------------------|
E|--------|--------|--------|--------|--------|--------|--------|-----------------------|


E|--------|--------|--------|--------|--------|--------|--------|--------|--------|
B|--------|--------|--------|--------|--------|--------|--------|--------|--------|
G|--------|--------|--------|--------|--------|--------|--------|--------|--------|
D|--------|--------|--------|--------|--------|--------|--------|--------|--------|
B|--------|--------|--------|--------|--------|--------|--------|--------|--------|
E|--------|--------|--------|--------|--------|--------|--------|--------|--------|


E|--------|--------|--------|--------|--------|--------|--------|--------|--------|
B|--------|--------|--------|--------|--------|--------|--------|--------|--------|
G|--------|--------|--------|--------|--------|--------|--------|--------|--------|
D|--------|--------|--------|--------|--------|--------|--------|--------|--------|
B|--------|--------|--------|--------|--------|--------|--------|--------|--------|
E|--------|--------|--------|--------|--------|--------|--------|--------|--------|


E|--------|--------|--------|--------|--------|--------|--------|--------|--------|
B|--------|--------|--------|--------|--------|--------|--------|--------|--------|
G|--------|--------|--------|--------|--------|--------|--------|--------|--------|
D|--------|--------|--------|--------|--------|--------|--------|--------|--------|
B|--------|--------|--------|--------|--------|--------|--------|--------|--------|
E|--------|--------|--------|--------|--------|--------|--------|--------|--------|


E|--------|--------|--------|--------|--------|--------|--------|--------|--------|
B|--------|--------|--------|--------|--------|--------|--------|--------|--------|
G|--------|--------|--------|--------|--------|--------|--------|--------|--------|
D|--------|--------|--------|--------|--------|--------|--------|--------|--------|
B|--------|--------|--------|--------|--------|--------|--------|--------|--------|
E|--------|--------|--------|--------|--------|--------|--------|--------|--------|


E|--------|--------|--------|--------|--------|--------|--------|--------|--------|
B|--------|--------|--------|--------|--------|--------|--------|--------|--------|
G|--------|--------|--------|--------|--------|--------|--------|--------|--------|
D|--------|--------|--------|--------|--------|--------|--------|--------|--------|
B|--------|--------|--------|--------|--------|--------|--------|--------|--------|
E|--------|--------|--------|--------|--------|--------|--------|--------|--------|


E|--------|--------|--------|--------|--------|--------|--------|--------|--------|
B|--------|--------|--------|--------|--------|--------|--------|--------|--------|
G|--------|--------|--------|--------|--------|--------|--------|--------|--------|
D|--------|--------|--------|--------|--------|--------|--------|--------|--------|
B|--------|--------|--------|--------|--------|--------|--------|--------|--------|
E|--------|--------|--------|--------|--------|--------|--------|--------|--------|


E|--------|--------|--------|--------|--------|--------|--------|--------|--------|
B|--------|--------|--------|--------|--------|--------|--------|--------|--------|
G|--------|--------|--------|--------|--------|--------|--------|--------|--------|
D|--------|--------|--------|--------|--------|--------|--------|--------|--------|
B|--------|--------|--------|--------|--------|--------|--------|--------|--------|
E|--------|--------|--------|--------|--------|--------|--------|--------|--------|


E|--------|--------|--------|--------|--------|--------|--------|--------|--------|
B|--------|--------|--------|--------|--------|--------|--------|--------|--------|
G|--------|--------|--------|--------|--------|--------|--------|--------|--------|
D|--------|--------|--------|--------|--------|--------|--------|--------|--------|
B|--------|--------|--------|--------|--------|--------|--------|--------|--------|
E|--------|--------|--------|--------|--------|--------|--------|--------|--------|


E|--------|--------|--------|--------|--------|--------|--------|--------|--------|
B|--------|--------|--------|--------|--------|--------|--------|--------|--------|
G|--------|--------|--------|--------|--------|--------|--------|--------|--------|
D|--------|--------|--------|--------|--------|--------|--------|--------|--------|
B|--------|--------|--------|--------|--------|--------|--------|--------|--------|
E|--------|--------|--------|--------|--------|--------|--------|--------|--------|


E|--------|--------|--------|--------|--------|--------|--------|--------|--------|
B|--------|--------|--------|--------|--------|--------|--------|--------|--------|
G|--------|--------|--------|--------|--------|--------|--------|--------|--------|
D|--------|--------|--------|--------|--------|--------|--------|--------|--------|
B|--------|--------|--------|--------|--------|--------|--------|--------|--------|
E|--------|--------|--------|--------|--------|--------|--------|--------|--------|


E|--------|--------|--------|--------|--------|--------|--------|--------|--------|
B|--------|--------|--------|--------|--------|--------|--------|--------|--------|
G|--------|--------|--------|--------|--------|--------|--------|--------|--------|
D|--------|--------|--------|--------|--------|--------|--------|--------|--------|
B|--------|--------|--------|--------|--------|--------|--------|--------|--------|
E|--------|--------|--------|--------|--------|--------|--------|--------|--------|


E|--------|--------|--------|--------|--------|--------|--------|--------|--------|
B|--------|--------|--------|--------|--------|--------|--------|--------|--------|
G|--------|--------|--------|--------|--------|--------|--------|--------|--------|
D|--------|--------|--------|--------|--------|--------|--------|--------|--------|
B|--------|--------|--------|--------|--------|--------|--------|--------|--------|
E|--------|--------|--------|--------|--------|--------|--------|--------|--------|


E|--------|--------|--------|--------|--------|--------|--------|--------|--------|
B|--------|--------|--------|--------|--------|--------|--------|--------|--------|
G|--------|--------|--------|--------|--------|--------|--------|--------|--------|
D|--------|--------|--------|--------|--------|--------|--------|--------|--------|
B|--------|--------|--------|--------|--------|--------|--------|--------|--------|
E|--------|--------|--------|--------|--------|--------|--------|--------|--------|


E|--------|--------|--------|--------|--------|--------|--------|--------|--------|
B|--------|--------|--------|--------|--------|--------|--------|--------|--------|
G|--------|--------|--------|--------|--------|--------|--------|--------|--------|
D|--------|--------|--------|--------|--------|--------|--------|--------|--------|
B|--------|--------|--------|--------|--------|--------|--------|--------|--------|
E|--------|--------|--------|--------|--------|--------|--------|--------|--------|


E|--------|--------|--------|--------|--------|--------|--------|--------|--------|
B|--------|--------|--------|--------|--------|--------|--------|--------|--------|
G|--------|--------|--------|--------|--------|--------|--------|--------|--------|
D|--------|--------|--------|--------|--------|--------|--------|--------|--------|
B|--------|--------|--------|--------|--------|--------|--------|--------|--------|
E|--------|--------|--------|--------|--------|--------|--------|--------|--------|


E|--------|--------|--------|--------|--------|--------|--------|--------|--------|
B|--------|--------|--------|--------|--------|--------|--------|--------|--------|
G|--------|--------|--------|--------|--------|--------|--------|--------|--------|
D|--------|--------|--------|--------|--------|--------|--------|--------|--------|
B|--------|--------|--------|--------|--------|--------|--------|--------|--------|
E|--------|--------|--------|--------|--------|--------|--------|--------|--------|


E|--------|
B|--------|
G|--------|
D|--------|
B|--------|
E|--------|





Track 4: Distortion Guitar I

E|--------|--------|--------|--------|--------|--------|--------|--------|--------|
B|--------|--------|--------|--------|--------|--------|--------|--------|--------|
G|--------|--------|--------|--------|--------|--------|--------|--------|--------|
D|--------|--------|--------|--------|--------|--------|--------|--------|--------|
A|--------|--------|--------|--------|--------|--------|--------|--------|--------|
E|--------|--------|--------|--------|--------|--------|--------|--------|--------|


E|--------|--------|--------|--------|--------|--------|--------|--------|--------|
B|--------|--------|--------|--------|--------|--------|--------|--------|--------|
G|--------|--------|--------|--------|--------|--------|--------|--------|--------|
D|--------|--------|--------|--------|--------|--------|--------|--------|--------|
A|--------|--------|--------|--------|--------|--------|--------|--------|--------|
E|--------|--------|--------|--------|--------|--------|--------|--------|--------|


E|--------|--------|--------|--------|--------|--------|--------|--------|--------|
B|--------|--------|--------|--------|--------|--------|--------|--------|--------|
G|--------|--------|--------|--------|--------|--------|--------|--------|--------|
D|--------|--------|--------|--------|--------|--------|--------|--------|--------|
A|--------|--------|--------|--------|--------|--------|--------|--------|--------|
E|--------|--------|--------|--------|--------|--------|--------|--------|--------|


E|--------|--------|--------|--------|--------|--------|--------|--------|--------|
B|--------|--------|--------|--------|--------|--------|--------|--------|--------|
G|--------|--------|--------|--------|--------|--------|--------|--------|--------|
D|--------|--------|--------|--------|--------|--------|--------|--------|--------|
A|--------|--------|--------|--------|--------|--------|--------|--------|--------|
E|--------|--------|--------|--------|--------|--------|--------|--------|--------|


E|--------|--------|--------|--------|--------|--------|--------|--------|--------|
B|--------|--------|--------|--------|--------|--------|--------|--------|--------|
G|--------|--------|--------|--------|--------|--------|--------|--------|--------|
D|--------|--------|--------|--------|--------|--------|--------|--------|--------|
A|--------|--------|--------|--------|--------|--------|--------|--------|--------|
E|--------|--------|--------|--------|--------|--------|--------|--------|--------|


E|--------|--------|--------|--------|--------|--------|--------|--------|--------|
B|--------|--------|--------|--------|--------|--------|--------|--------|--------|
G|--------|--------|--------|--------|--------|--------|--------|--------|--------|
D|--------|--------|--------|--------|--------|--------|--------|--------|--------|
A|--------|--------|--------|--------|--------|--------|--------|--------|--------|
E|--------|--------|--------|--------|--------|--------|--------|--------|--------|


E|--------|--------|--------|--------|--------|--------|--------|--------|--------|
B|--------|--------|--------|--------|--------|--------|--------|--------|--------|
G|--------|--------|--------|--------|--------|--------|--------|--------|--------|
D|--------|--------|--------|--------|--------|--------|--------|--------|--------|
A|--------|--------|--------|--------|--------|--------|--------|--------|--------|
E|--------|--------|--------|--------|--------|--------|--------|--------|--------|


E|--------|--------|--------|--------|--------|--------|--------|--------|--------|
B|--------|--------|--------|--------|--------|--------|--------|--------|--------|
G|--------|--------|--------|--------|--------|--------|--------|--------|--------|
D|--------|--------|--------|--------|--------|--------|--------|--------|--------|
A|--------|--------|--------|--------|--------|--------|--------|--------|--------|
E|--------|--------|--------|--------|--------|--------|--------|--------|--------|


E|--------|--------|--------|--------|--------|--------|--------|--------|--------|
B|--------|--------|--------|--------|--------|--------|--------|--------|--------|
G|--------|--------|--------|--------|--------|--------|--------|--------|--------|
D|--------|--------|--------|--------|--------|--------|--------|--------|--------|
A|--------|--------|--------|--------|--------|--------|--------|--------|--------|
E|--------|--------|--------|--------|--------|--------|--------|--------|--------|


E|--------|--------|--------|--------|-------------|--------|--------|--------|--------|
B|--------|--------|--------|--------|-------------|--------|--------|--------|--------|
G|--------|--------|--------|--------|-------------|--------|--------|--------|--------|
D|--------|--------|--------|--------|-------------|--------|--------|--------|--------|
A|--------|--------|--------|--------|-------------|--------|--------|--------|--------|
E|--------|--------|--------|--------|-------------|--------|--------|--------|--------|


E|--------|--------|--------|--------|--------|--------|--------|--------|--------|
B|--------|--------|--------|--------|--------|--------|--------|--------|--------|
G|--------|--------|--------|--------|--------|--------|--------|--------|--------|
D|--------|--------|--------|--------|--------|--------|--------|--------|--------|
A|--------|--------|--------|--------|--------|--------|--------|--------|--------|
E|--------|--------|--------|--------|--------|--------|--------|--------|--------|


E|--------|--------|--------|--------|--------|--------|--------|--------|--------|
B|--------|--------|--------|--------|--------|--------|--------|--------|--------|
G|--------|--------|--------|--------|--------|--------|--------|--------|--------|
D|--------|--------|--------|--------|--------|--------|--------|--------|--------|
A|--------|--------|--------|--------|--------|--------|--------|--------|--------|
E|--------|--------|--------|--------|--------|--------|--------|--------|--------|


E|--------|--------|--------|--------|--------|--------|--------|--------|--------|
B|--------|--------|--------|--------|--------|--------|--------|--------|--------|
G|--------|--------|--------|--------|--------|--------|--------|--------|--------|
D|--------|--------|--------|--------|--------|--------|--------|--------|--------|
A|--------|--------|--------|--------|--------|--------|--------|--------|--------|
E|--------|--------|--------|--------|--------|--------|--------|--------|--------|


E|--------|--------|--------|--------|--------|--------|--------|--------|--------|
B|--------|--------|--------|--------|--------|--------|--------|--------|--------|
G|--------|--------|--------|--------|--------|--------|--------|--------|--------|
D|--------|--------|--------|--------|--------|--------|--------|--------|--------|
A|--------|--------|--------|--------|--------|--------|--------|--------|--------|
E|--------|--------|--------|--------|--------|--------|--------|--------|--------|


E|--------|--------|--------|--------|--------|--------|--------|--------|--------|
B|--------|--------|--------|--------|--------|--------|--------|--------|--------|
G|--------|--------|--------|--------|--------|--------|--------|--------|--------|
D|--------|--------|--------|--------|--------|--------|--------|--------|--------|
A|--------|--------|--------|--------|--------|--------|--------|--------|--------|
E|--------|--------|--------|--------|--------|--------|--------|--------|--------|


E|--------|--------|--------|--------|--------|--------|--------|--------|--------|
B|--------|--------|--------|--------|--------|--------|--------|--------|--------|
G|--------|--------|--------|--------|--------|--------|--------|--------|--------|
D|--------|--------|--------|--------|--------|--------|--------|--------|--------|
A|--------|--------|--------|--------|--------|--------|--------|--------|--------|
E|--------|--------|--------|--------|--------|--------|--------|--------|--------|


E|--------|--------|--------|--------|--------|--------|--------|--------|--------|
B|--------|--------|--------|--------|--------|--------|--------|--------|--------|
G|--------|--------|--------|--------|--------|--------|--------|--------|--------|
D|--------|--------|--------|--------|--------|--------|--------|--------|--------|
A|--------|--------|--------|--------|--------|--------|--------|--------|--------|
E|--------|--------|--------|--------|--------|--------|--------|--------|--------|


E|--------|--------|--------|--------|--------|--------|--------|--------|--------|
B|--------|--------|--------|--------|--------|--------|--------|--------|--------|
G|--------|--------|--------|--------|--------|--------|--------|--------|--------|
D|--------|--------|--------|--------|--------|--------|--------|--------|--------|
A|--------|--------|--------|--------|--------|--------|--------|--------|--------|
E|--------|--------|--------|--------|--------|--------|--------|--------|--------|


E|--------|--------|--------|--------|--------|--------|--------|--------|--------|
B|--------|--------|--------|--------|--------|--------|--------|--------|--------|
G|--------|--------|--------|--------|--------|--------|--------|--------|--------|
D|--------|--------|--------|--------|--------|--------|--------|--------|--------|
A|--------|--------|--------|--------|--------|--------|--------|--------|--------|
E|--------|--------|--------|--------|--------|--------|--------|--------|--------|


E|--------|--------|--------|--------|--------|--------|--------|--------|--------|
B|--------|--------|--------|--------|--------|--------|--------|--------|--------|
G|--------|--------|--------|--------|--------|--------|--------|--------|--------|
D|--------|--------|--------|--------|--------|--------|--------|--------|--------|
A|--------|--------|--------|--------|--------|--------|--------|--------|--------|
E|--------|--------|--------|--------|--------|--------|--------|--------|--------|


E|--------|--------|--------|--------|--------|--------|--------|--------|--------|
B|--------|--------|--------|--------|--------|--------|--------|--------|--------|
G|--------|--------|--------|--------|--------|--------|--------|--------|--------|
D|--------|--------|--------|--------|--------|--------|--------|--------|--------|
A|--------|--------|--------|--------|--------|--------|--------|--------|--------|
E|--------|--------|--------|--------|--------|--------|--------|--------|--------|


E|--------|--------|--------|--------|--------|--------|--------|--------|--------|
B|--------|--------|--------|--------|--------|--------|--------|--------|--------|
G|--------|--------|--------|--------|--------|--------|--------|--------|--------|
D|--------|--------|--------|--------|--------|--------|--------|--------|--------|
A|--------|--------|--------|--------|--------|--------|--------|--------|--------|
E|--------|--------|--------|--------|--------|--------|--------|--------|--------|


E|--------|--------|--------|--------|--------|--------|--------|--------|--------|
B|--------|--------|--------|--------|--------|--------|--------|--------|--------|
G|--------|--------|--------|--------|--------|--------|--------|--------|--------|
D|--------|--------|--------|--------|--------|--------|--------|--------|--------|
A|--------|--------|--------|--------|--------|--------|--------|--------|--------|
E|--------|--------|--------|--------|--------|--------|--------|--------|--------|


E|--------|--------|--------|--------|--------|--------|--------|--------|--------|
B|--------|--------|--------|--------|--------|--------|--------|--------|--------|
G|--------|--------|--------|--------|--------|--------|--------|--------|--------|
D|--------|--------|--------|--------|--------|--------|--------|--------|--------|
A|--------|--------|--------|--------|--------|--------|--------|--------|--------|
E|--------|--------|--------|--------|--------|--------|--------|--------|--------|


E|--------|--------|--------|--------|--------|--------|--------|--------|--------|
B|--------|--------|--------|--------|--------|--------|--------|--------|--------|
G|--------|--------|--------|--------|--------|--------|--------|--------|--------|
D|--------|--------|--------|--------|--------|--------|--------|--------|--------|
A|--------|--------|--------|--------|--------|--------|--------|--------|--------|
E|--------|--------|--------|--------|--------|--------|--------|--------|--------|


E|--------|--------|--------|--------|--------|--------|--------|--------|--------|
B|--------|--------|--------|--------|--------|--------|--------|--------|--------|
G|--------|--------|--------|--------|--------|--------|--------|--------|--------|
D|--------|--------|--------|--------|--------|--------|--------|--------|--------|
A|--------|--------|--------|--------|--------|--------|--------|--------|--------|
E|--------|--------|--------|--------|--------|--------|--------|--------|--------|


E|--------|--------|--------|--------|--------|--------|--------|--------|--------|
B|--------|--------|--------|--------|--------|--------|--------|--------|--------|
G|--------|--------|--------|--------|--------|--------|--------|--------|--------|
D|--------|--------|--------|--------|--------|--------|--------|--------|--------|
A|--------|--------|--------|--------|--------|--------|--------|--------|--------|
E|--------|--------|--------|--------|--------|--------|--------|--------|--------|


E|--------|--------|--------|--------|--------|--------|--------|--------|--------|
B|--------|--------|--------|--------|--------|--------|--------|--------|--------|
G|--------|--------|--------|--------|--------|--------|--------|--------|--------|
D|--------|--------|--------|--------|--------|--------|--------|--------|--------|
A|--------|--------|--------|--------|--------|--------|--------|--------|--------|
E|--------|--------|--------|--------|--------|--------|--------|--------|--------|


E|--------|--------|--------|--------|--------|--------|--------|--------|--------|
B|--------|--------|--------|--------|--------|--------|--------|--------|--------|
G|--------|--------|--------|--------|--------|--------|--------|--------|--------|
D|--------|--------|--------|--------|--------|--------|--------|--------|--------|
A|--------|--------|--------|--------|--------|--------|--------|--------|--------|
E|--------|--------|--------|--------|--------|--------|--------|--------|--------|


E|--------|--------|--------|--------|--------|--------|--------|--------|--------|
B|--------|--------|--------|--------|--------|--------|--------|--------|--------|
G|--------|--------|--------|--------|--------|--------|--------|--------|--------|
D|--------|--------|--------|--------|--------|--------|--------|--------|--------|
A|--------|--------|--------|--------|--------|--------|--------|--------|--------|
E|--------|--------|--------|--------|--------|--------|--------|--------|--------|


E|--------|--------|--------|--------|--------|--------|--------|--------|--------|
B|--------|--------|--------|--------|--------|--------|--------|--------|--------|
G|--------|--------|--------|--------|--------|--------|--------|--------|--------|
D|--------|--------|--------|--------|--------|--------|--------|--------|--------|
A|--------|--------|--------|--------|--------|--------|--------|--------|--------|
E|--------|--------|--------|--------|--------|--------|--------|--------|--------|


E|--------|--------|--------|--------|--------|--------|--------|--------|--------|
B|--------|--------|--------|--------|--------|--------|--------|--------|--------|
G|--------|--------|--------|--------|--------|--------|--------|--------|--------|
D|--------|--------|--------|--------|--------|--------|--------|--------|--------|
A|--------|--------|--------|--------|--------|--------|--------|--------|--------|
E|--------|--------|--------|--------|--------|--------|--------|--------|--------|


E|--------|--------|--------|--------|--------|--------|--------|--------|--------|
B|--------|--------|--------|--------|--------|--------|--------|--------|--------|
G|--------|--------|--------|--------|--------|--------|--------|--------|--------|
D|--------|--------|--------|--------|--------|--------|--------|--------|--------|
A|--------|--------|--------|--------|--------|--------|--------|--------|--------|
E|--------|--------|--------|--------|--------|--------|--------|--------|--------|


E|--------|--------|--------|--------|--------|
B|--------|--------|--------|--------|--------|
G|--------|--------|--------|--------|--------|
D|--------|--------|--------|--------|--------|
A|--------|--------|--------|--------|--------|
E|--------|--------|--------|--------|--------|





Track 5: Distortion Guitar I

E|--------|--------|--------|--------|--------|--------|--------|--------|--------|
B|--------|--------|--------|--------|--------|--------|--------|--------|--------|
G|--------|--------|--------|--------|--------|--------|--------|--------|--------|
D|--------|--------|--------|--------|--------|--------|--------|--------|--------|
A|--------|--------|--------|--------|--------|--------|--------|--------|--------|
E|--------|--------|--------|--------|--------|--------|--------|--------|--------|


E|--------|--------|--------|--------|--------|--------|--------|--------|--------|
B|--------|--------|--------|--------|--------|--------|--------|--------|--------|
G|--------|--------|--------|--------|--------|--------|--------|--------|--------|
D|--------|--------|--------|--------|--------|--------|--------|--------|--------|
A|--------|--------|--------|--------|--------|--------|--------|--------|--------|
E|--------|--------|--------|--------|--------|--------|--------|--------|--------|


E|--------|--------|--------|--------|--------|--------|--------|--------|--------|
B|--------|--------|--------|--------|--------|--------|--------|--------|--------|
G|--------|--------|--------|--------|--------|--------|--------|--------|--------|
D|--------|--------|--------|--------|--------|--------|--------|--------|--------|
A|--------|--------|--------|--------|--------|--------|--------|--------|--------|
E|--------|--------|--------|--------|--------|--------|--------|--------|--------|


E|--------|--------|--------|--------|--------|--------|--------|--------|--------|
B|--------|--------|--------|--------|--------|--------|--------|--------|--------|
G|--------|--------|--------|--------|--------|--------|--------|--------|--------|
D|--------|--------|--------|--------|--------|--------|--------|--------|--------|
A|--------|--------|--------|--------|--------|--------|--------|--------|--------|
E|--------|--------|--------|--------|--------|--------|--------|--------|--------|


E|--------|--------|--------|--------|--------|--------|--------|--------|--------|
B|--------|--------|--------|--------|--------|--------|--------|--------|--------|
G|--------|--------|--------|--------|--------|--------|--------|--------|--------|
D|--------|--------|--------|--------|--------|--------|--------|--------|--------|
A|--------|--------|--------|--------|--------|--------|--------|--------|--------|
E|--------|--------|--------|--------|--------|--------|--------|--------|--------|


E|--------|--------|--------|--------|--------|--------|--------|--------|--------|
B|--------|--------|--------|--------|--------|--------|--------|--------|--------|
G|--------|--------|--------|--------|--------|--------|--------|--------|--------|
D|--------|--------|--------|--------|--------|--------|--------|--------|--------|
A|--------|--------|--------|--------|--------|--------|--------|--------|--------|
E|--------|--------|--------|--------|--------|--------|--------|--------|--------|


E|--------|--------|--------|--------|--------|--------|--------|--------|--------|
B|--------|--------|--------|--------|--------|--------|--------|--------|--------|
G|--------|--------|--------|--------|--------|--------|--------|--------|--------|
D|--------|--------|--------|--------|--------|--------|--------|--------|--------|
A|--------|--------|--------|--------|--------|--------|--------|--------|--------|
E|--------|--------|--------|--------|--------|--------|--------|--------|--------|


E|--------|--------|--------|--------|--------|--------|--------|--------|--------|
B|--------|--------|--------|--------|--------|--------|--------|--------|--------|
G|--------|--------|--------|--------|--------|--------|--------|--------|--------|
D|--------|--------|--------|--------|--------|--------|--------|--------|--------|
A|--------|--------|--------|--------|--------|--------|--------|--------|--------|
E|--------|--------|--------|--------|--------|--------|--------|--------|--------|


E|--------|--------|--------|--------|--------|--------|--------|--------|--------|
B|--------|--------|--------|--------|--------|--------|--------|--------|--------|
G|--------|--------|--------|--------|--------|--------|--------|--------|--------|
D|--------|--------|--------|--------|--------|--------|--------|--------|--------|
A|--------|--------|--------|--------|--------|--------|--------|--------|--------|
E|--------|--------|--------|--------|--------|--------|--------|--------|--------|


E|--------|--------|--------|--------|--------|--------|--------|--------|--------|
B|--------|--------|--------|--------|--------|--------|--------|--------|--------|
G|--------|--------|--------|--------|--------|--------|--------|--------|--------|
D|--------|--------|--------|--------|--------|--------|--------|--------|--------|
A|--------|--------|--------|--------|--------|--------|--------|--------|--------|
E|--------|--------|--------|--------|--------|--------|--------|--------|--------|


E|--------|--------|--------|--------|--------|--------|--------|--------|--------|
B|--------|--------|--------|--------|--------|--------|--------|--------|--------|
G|--------|--------|--------|--------|--------|--------|--------|--------|--------|
D|--------|--------|--------|--------|--------|--------|--------|--------|--------|
A|--------|--------|--------|--------|--------|--------|--------|--------|--------|
E|--------|--------|--------|--------|--------|--------|--------|--------|--------|


E|--------|--------|--------|--------|--------|--------|--------|--------|--------|
B|--------|--------|--------|--------|--------|--------|--------|--------|--------|
G|--------|--------|--------|--------|--------|--------|--------|--------|--------|
D|--------|--------|--------|--------|--------|--------|--------|--------|--------|
A|--------|--------|--------|--------|--------|--------|--------|--------|--------|
E|--------|--------|--------|--------|--------|--------|--------|--------|--------|


E|--------|--------|--------|--------|--------|--------|--------|--------|--------|
B|--------|--------|--------|--------|--------|--------|--------|--------|--------|
G|--------|--------|--------|--------|--------|--------|--------|--------|--------|
D|--------|--------|--------|--------|--------|--------|--------|--------|--------|
A|--------|--------|--------|--------|--------|--------|--------|--------|--------|
E|--------|--------|--------|--------|--------|--------|--------|--------|--------|


E|--------|--------|--------|--------|--------|--------|--------|--------|--------|
B|--------|--------|--------|--------|--------|--------|--------|--------|--------|
G|--------|--------|--------|--------|--------|--------|--------|--------|--------|
D|--------|--------|--------|--------|--------|--------|--------|--------|--------|
A|--------|--------|--------|--------|--------|--------|--------|--------|--------|
E|--------|--------|--------|--------|--------|--------|--------|--------|--------|


E|--------|--------|--------|--------|--------|--------|--------|--------|--------|
B|--------|--------|--------|--------|--------|--------|--------|--------|--------|
G|--------|--------|--------|--------|--------|--------|--------|--------|--------|
D|--------|--------|--------|--------|--------|--------|--------|--------|--------|
A|--------|--------|--------|--------|--------|--------|--------|--------|--------|
E|--------|--------|--------|--------|--------|--------|--------|--------|--------|


E|--------|--------|--------|--------|--------|--------|--------|--------|--------|
B|--------|--------|--------|--------|--------|--------|--------|--------|--------|
G|--------|--------|--------|--------|--------|--------|--------|--------|--------|
D|--------|--------|--------|--------|--------|--------|--------|--------|--------|
A|--------|--------|--------|--------|--------|--------|--------|--------|--------|
E|--------|--------|--------|--------|--------|--------|--------|--------|--------|


E|--------|--------|--------|--------|--------|--------|--------|--------|--------|
B|--------|--------|--------|--------|--------|--------|--------|--------|--------|
G|--------|--------|--------|--------|--------|--------|--------|--------|--------|
D|--------|--------|--------|--------|--------|--------|--------|--------|--------|
A|--------|--------|--------|--------|--------|--------|--------|--------|--------|
E|--------|--------|--------|--------|--------|--------|--------|--------|--------|


E|--------|--------|--------|--------|--------|--------|--------|--------|--------|
B|--------|--------|--------|--------|--------|--------|--------|--------|--------|
G|--------|--------|--------|--------|--------|--------|--------|--------|--------|
D|--------|--------|--------|--------|--------|--------|--------|--------|--------|
A|--------|--------|--------|--------|--------|--------|--------|--------|--------|
E|--------|--------|--------|--------|--------|--------|--------|--------|--------|


E|--------|--------|--------|--------|--------|--------|--------|--------|--------|
B|--------|--------|--------|--------|--------|--------|--------|--------|--------|
G|--------|--------|--------|--------|--------|--------|--------|--------|--------|
D|--------|--------|--------|--------|--------|--------|--------|--------|--------|
A|--------|--------|--------|--------|--------|--------|--------|--------|--------|
E|--------|--------|--------|--------|--------|--------|--------|--------|--------|


E|--------|--------|--------|--------|--------|--------|--------|--------|--------|
B|--------|--------|--------|--------|--------|--------|--------|--------|--------|
G|--------|--------|--------|--------|--------|--------|--------|--------|--------|
D|--------|--------|--------|--------|--------|--------|--------|--------|--------|
A|--------|--------|--------|--------|--------|--------|--------|--------|--------|
E|--------|--------|--------|--------|--------|--------|--------|--------|--------|


E|--------|--------|--------|--------|--------|--------|-------------|--------|--------|
B|--------|--------|--------|--------|--------|--------|-------------|--------|--------|
G|--------|--------|--------|--------|--------|--------|-------------|--------|--------|
D|--------|--------|--------|--------|--------|--------|-------------|--------|--------|
A|--------|--------|--------|--------|--------|--------|-------------|--------|--------|
E|--------|--------|--------|--------|--------|--------|-------------|--------|--------|


E|--------|--------|--------|--------|--------|--------|--------|--------|--------|
B|--------|--------|--------|--------|--------|--------|--------|--------|--------|
G|--------|--------|--------|--------|--------|--------|--------|--------|--------|
D|--------|--------|--------|--------|--------|--------|--------|--------|--------|
A|--------|--------|--------|--------|--------|--------|--------|--------|--------|
E|--------|--------|--------|--------|--------|--------|--------|--------|--------|


E|--------|--------|--------|--------|--------|--------|--------|--------|--------|
B|--------|--------|--------|--------|--------|--------|--------|--------|--------|
G|--------|--------|--------|--------|--------|--------|--------|--------|--------|
D|--------|--------|--------|--------|--------|--------|--------|--------|--------|
A|--------|--------|--------|--------|--------|--------|--------|--------|--------|
E|--------|--------|--------|--------|--------|--------|--------|--------|--------|


E|--------|--------|--------|--------|--------|--------|--------|--------|--------|
B|--------|--------|--------|--------|--------|--------|--------|--------|--------|
G|--------|--------|--------|--------|--------|--------|--------|--------|--------|
D|--------|--------|--------|--------|--------|--------|--------|--------|--------|
A|--------|--------|--------|--------|--------|--------|--------|--------|--------|
E|--------|--------|--------|--------|--------|--------|--------|--------|--------|


E|--------|--------|--------|--------|--------|--------|--------|--------|--------|
B|--------|--------|--------|--------|--------|--------|--------|--------|--------|
G|--------|--------|--------|--------|--------|--------|--------|--------|--------|
D|--------|--------|--------|--------|--------|--------|--------|--------|--------|
A|--------|--------|--------|--------|--------|--------|--------|--------|--------|
E|--------|--------|--------|--------|--------|--------|--------|--------|--------|


E|--------|--------|--------|--------|--------|--------|--------|--------|--------|
B|--------|--------|--------|--------|--------|--------|--------|--------|--------|
G|--------|--------|--------|--------|--------|--------|--------|--------|--------|
D|--------|--------|--------|--------|--------|--------|--------|--------|--------|
A|--------|--------|--------|--------|--------|--------|--------|--------|--------|
E|--------|--------|--------|--------|--------|--------|--------|--------|--------|


E|--------|--------|--------|--------|--------|--------|--------|--------|--------|
B|--------|--------|--------|--------|--------|--------|--------|--------|--------|
G|--------|--------|--------|--------|--------|--------|--------|--------|--------|
D|--------|--------|--------|--------|--------|--------|--------|--------|--------|
A|--------|--------|--------|--------|--------|--------|--------|--------|--------|
E|--------|--------|--------|--------|--------|--------|--------|--------|--------|


E|--------|--------|--------|--------|--------|--------|--------|--------|--------|
B|--------|--------|--------|--------|--------|--------|--------|--------|--------|
G|--------|--------|--------|--------|--------|--------|--------|--------|--------|
D|--------|--------|--------|--------|--------|--------|--------|--------|--------|
A|--------|--------|--------|--------|--------|--------|--------|--------|--------|
E|--------|--------|--------|--------|--------|--------|--------|--------|--------|


E|--------|--------|--------|--------|--------|--------|--------|--------|--------|
B|--------|--------|--------|--------|--------|--------|--------|--------|--------|
G|--------|--------|--------|--------|--------|--------|--------|--------|--------|
D|--------|--------|--------|--------|--------|--------|--------|--------|--------|
A|--------|--------|--------|--------|--------|--------|--------|--------|--------|
E|--------|--------|--------|--------|--------|--------|--------|--------|--------|


E|--------|--------|--------|--------|--------|--------|--------|--------|--------|
B|--------|--------|--------|--------|--------|--------|--------|--------|--------|
G|--------|--------|--------|--------|--------|--------|--------|--------|--------|
D|--------|--------|--------|--------|--------|--------|--------|--------|--------|
A|--------|--------|--------|--------|--------|--------|--------|--------|--------|
E|--------|--------|--------|--------|--------|--------|--------|--------|--------|


E|--------|--------|--------|--------|--------|--------|--------|--------|--------|
B|--------|--------|--------|--------|--------|--------|--------|--------|--------|
G|--------|--------|--------|--------|--------|--------|--------|--------|--------|
D|--------|--------|--------|--------|--------|--------|--------|--------|--------|
A|--------|--------|--------|--------|--------|--------|--------|--------|--------|
E|--------|--------|--------|--------|--------|--------|--------|--------|--------|


E|--------|--------|--------|--------|--------|--------|--------|--------|--------|
B|--------|--------|--------|--------|--------|--------|--------|--------|--------|
G|--------|--------|--------|--------|--------|--------|--------|--------|--------|
D|--------|--------|--------|--------|--------|--------|--------|--------|--------|
A|--------|--------|--------|--------|--------|--------|--------|--------|--------|
E|--------|--------|--------|--------|--------|--------|--------|--------|--------|


E|--------|--------|--------|--------|--------|--------|--------|--------|--------|
B|--------|--------|--------|--------|--------|--------|--------|--------|--------|
G|--------|--------|--------|--------|--------|--------|--------|--------|--------|
D|--------|--------|--------|--------|--------|--------|--------|--------|--------|
A|--------|--------|--------|--------|--------|--------|--------|--------|--------|
E|--------|--------|--------|--------|--------|--------|--------|--------|--------|


E|--------|--------|--------|--------|--------|
B|--------|--------|--------|--------|--------|
G|--------|--------|--------|--------|--------|
D|--------|--------|--------|--------|--------|
A|--------|--------|--------|--------|--------|
E|--------|--------|--------|--------|--------|





Track 6: Lead Guitar

E|--------|--------|--------|--------|--------|--------|--------|--------|--------|
B|--------|--------|--------|--------|--------|--------|--------|--------|--------|
G|--------|--------|--------|--------|--------|--------|--------|--------|--------|
D|--------|--------|--------|--------|--------|--------|--------|--------|--------|
A|--------|--------|--------|--------|--------|--------|--------|--------|--------|
E|--------|--------|--------|--------|--------|--------|--------|--------|--------|


E|--------|--------|--------|--------|--------|--------|--------|--------|--------|
B|--------|--------|--------|--------|--------|--------|--------|--------|--------|
G|--------|--------|--------|--------|--------|--------|--------|--------|--------|
D|--------|--------|--------|--------|--------|--------|--------|--------|--------|
A|--------|--------|--------|--------|--------|--------|--------|--------|--------|
E|--------|--------|--------|--------|--------|--------|--------|--------|--------|


E|--------|--------|--------|--------|--------|--------|--------|--------|--------|
B|--------|--------|--------|--------|--------|--------|--------|--------|--------|
G|--------|--------|--------|--------|--------|--------|--------|--------|--------|
D|--------|--------|--------|--------|--------|--------|--------|--------|--------|
A|--------|--------|--------|--------|--------|--------|--------|--------|--------|
E|--------|--------|--------|--------|--------|--------|--------|--------|--------|


E|--------|--------|--------|--------|--------|--------|--------|--------|--------|
B|--------|--------|--------|--------|--------|--------|--------|--------|--------|
G|--------|--------|--------|--------|--------|--------|--------|--------|--------|
D|--------|--------|--------|--------|--------|--------|--------|--------|--------|
A|--------|--------|--------|--------|--------|--------|--------|--------|--------|
E|--------|--------|--------|--------|--------|--------|--------|--------|--------|


E|--------|--------|--------|--------|--------|--------|--------|--------|--------|
B|--------|--------|--------|--------|--------|--------|--------|--------|--------|
G|--------|--------|--------|--------|--------|--------|--------|--------|--------|
D|--------|--------|--------|--------|--------|--------|--------|--------|--------|
A|--------|--------|--------|--------|--------|--------|--------|--------|--------|
E|--------|--------|--------|--------|--------|--------|--------|--------|--------|


E|--------|--------|--------|--------|--------|--------|--------|--------|--------|
B|--------|--------|--------|--------|--------|--------|--------|--------|--------|
G|--------|--------|--------|--------|--------|--------|--------|--------|--------|
D|--------|--------|--------|--------|--------|--------|--------|--------|--------|
A|--------|--------|--------|--------|--------|--------|--------|--------|--------|
E|--------|--------|--------|--------|--------|--------|--------|--------|--------|


E|--------|--------|--------|--------|--------|--------|--------|--------|--------|
B|--------|--------|--------|--------|--------|--------|--------|--------|--------|
G|--------|--------|--------|--------|--------|--------|--------|--------|--------|
D|--------|--------|--------|--------|--------|--------|--------|--------|--------|
A|--------|--------|--------|--------|--------|--------|--------|--------|--------|
E|--------|--------|--------|--------|--------|--------|--------|--------|--------|


E|--------|--------|--------|--------|--------|--------|--------|--------|--------|
B|--------|--------|--------|--------|--------|--------|--------|--------|--------|
G|--------|--------|--------|--------|--------|--------|--------|--------|--------|
D|--------|--------|--------|--------|--------|--------|--------|--------|--------|
A|--------|--------|--------|--------|--------|--------|--------|--------|--------|
E|--------|--------|--------|--------|--------|--------|--------|--------|--------|


E|--------|--------|--------|--------|--------|--------|--------|--------|--------|
B|--------|--------|--------|--------|--------|--------|--------|--------|--------|
G|--------|--------|--------|--------|--------|--------|--------|--------|--------|
D|--------|--------|--------|--------|--------|--------|--------|--------|--------|
A|--------|--------|--------|--------|--------|--------|--------|--------|--------|
E|--------|--------|--------|--------|--------|--------|--------|--------|--------|


E|--------|--------|--------|--------|--------|--------|--------|--------|--------|
B|--------|--------|--------|--------|--------|--------|--------|--------|--------|
G|--------|--------|--------|--------|--------|--------|--------|--------|--------|
D|--------|--------|--------|--------|--------|--------|--------|--------|--------|
A|--------|--------|--------|--------|--------|--------|--------|--------|--------|
E|--------|--------|--------|--------|--------|--------|--------|--------|--------|


E|--------|--------|--------|--------|--------|--------|--------|--------|--------|
B|--------|--------|--------|--------|--------|--------|--------|--------|--------|
G|--------|--------|--------|--------|--------|--------|--------|--------|--------|
D|--------|--------|--------|--------|--------|--------|--------|--------|--------|
A|--------|--------|--------|--------|--------|--------|--------|--------|--------|
E|--------|--------|--------|--------|--------|--------|--------|--------|--------|


E|--------|--------|--------|--------|--------|--------|--------|--------|--------|
B|--------|--------|--------|--------|--------|--------|--------|--------|--------|
G|--------|--------|--------|--------|--------|--------|--------|--------|--------|
D|--------|--------|--------|--------|--------|--------|--------|--------|--------|
A|--------|--------|--------|--------|--------|--------|--------|--------|--------|
E|--------|--------|--------|--------|--------|--------|--------|--------|--------|


E|--------|--------|--------|--------|--------|--------|--------|--------|--------|
B|--------|--------|--------|--------|--------|--------|--------|--------|--------|
G|--------|--------|--------|--------|--------|--------|--------|--------|--------|
D|--------|--------|--------|--------|--------|--------|--------|--------|--------|
A|--------|--------|--------|--------|--------|--------|--------|--------|--------|
E|--------|--------|--------|--------|--------|--------|--------|--------|--------|


E|--------|--------|--------|--------|--------|--------|--------|--------|--------|
B|--------|--------|--------|--------|--------|--------|--------|--------|--------|
G|--------|--------|--------|--------|--------|--------|--------|--------|--------|
D|--------|--------|--------|--------|--------|--------|--------|--------|--------|
A|--------|--------|--------|--------|--------|--------|--------|--------|--------|
E|--------|--------|--------|--------|--------|--------|--------|--------|--------|


E|--------|--------|--------|--------|--------|--------|--------|--------|--------|
B|--------|--------|--------|--------|--------|--------|--------|--------|--------|
G|--------|--------|--------|--------|--------|--------|--------|--------|--------|
D|--------|--------|--------|--------|--------|--------|--------|--------|--------|
A|--------|--------|--------|--------|--------|--------|--------|--------|--------|
E|--------|--------|--------|--------|--------|--------|--------|--------|--------|


E|--------|--------|--------|--------|--------|--------|--------|--------|--------|
B|--------|--------|--------|--------|--------|--------|--------|--------|--------|
G|--------|--------|--------|--------|--------|--------|--------|--------|--------|
D|--------|--------|--------|--------|--------|--------|--------|--------|--------|
A|--------|--------|--------|--------|--------|--------|--------|--------|--------|
E|--------|--------|--------|--------|--------|--------|--------|--------|--------|


E|--------|--------|--------|--------|--------|--------|--------|--------|--------|
B|--------|--------|--------|--------|--------|--------|--------|--------|--------|
G|--------|--------|--------|--------|--------|--------|--------|--------|--------|
D|--------|--------|--------|--------|--------|--------|--------|--------|--------|
A|--------|--------|--------|--------|--------|--------|--------|--------|--------|
E|--------|--------|--------|--------|--------|--------|--------|--------|--------|


E|--------|--------|--------|--------|--------|--------|--------|--------|--------|
B|--------|--------|--------|--------|--------|--------|--------|--------|--------|
G|--------|--------|--------|--------|--------|--------|--------|--------|--------|
D|--------|--------|--------|--------|--------|--------|--------|--------|--------|
A|--------|--------|--------|--------|--------|--------|--------|--------|--------|
E|--------|--------|--------|--------|--------|--------|--------|--------|--------|


E|--------|--------|--------|--------|--------|--------|--------|--------|--------|
B|--------|--------|--------|--------|--------|--------|--------|--------|--------|
G|--------|--------|--------|--------|--------|--------|--------|--------|--------|
D|--------|--------|--------|--------|--------|--------|--------|--------|--------|
A|--------|--------|--------|--------|--------|--------|--------|--------|--------|
E|--------|--------|--------|--------|--------|--------|--------|--------|--------|


E|--------|--------|--------|--------|--------|--------|--------|--------|--------|
B|--------|--------|--------|--------|--------|--------|--------|--------|--------|
G|--------|--------|--------|--------|--------|--------|--------|--------|--------|
D|--------|--------|--------|--------|--------|--------|--------|--------|--------|
A|--------|--------|--------|--------|--------|--------|--------|--------|--------|
E|--------|--------|--------|--------|--------|--------|--------|--------|--------|


E|--------|--------|--------|--------|--------|--------|--------|--------|--------|
B|--------|--------|--------|--------|--------|--------|--------|--------|--------|
G|--------|--------|--------|--------|--------|--------|--------|--------|--------|
D|--------|--------|--------|--------|--------|--------|--------|--------|--------|
A|--------|--------|--------|--------|--------|--------|--------|--------|--------|
E|--------|--------|--------|--------|--------|--------|--------|--------|--------|


E|--------|--------|--------|--------|--------|--------|--------|--------|--------|
B|--------|--------|--------|--------|--------|--------|--------|--------|--------|
G|--------|--------|--------|--------|--------|--------|--------|--------|--------|
D|--------|--------|--------|--------|--------|--------|--------|--------|--------|
A|--------|--------|--------|--------|--------|--------|--------|--------|--------|
E|--------|--------|--------|--------|--------|--------|--------|--------|--------|


E|--------|--------|--------|--------|--------|--------|--------|--------|--------|
B|--------|--------|--------|--------|--------|--------|--------|--------|--------|
G|--------|--------|--------|--------|--------|--------|--------|--------|--------|
D|--------|--------|--------|--------|--------|--------|--------|--------|--------|
A|--------|--------|--------|--------|--------|--------|--------|--------|--------|
E|--------|--------|--------|--------|--------|--------|--------|--------|--------|


E|--------|--------|--------|--------|--------|--------|--------|--------|--------|
B|--------|--------|--------|--------|--------|--------|--------|--------|--------|
G|--------|--------|--------|--------|--------|--------|--------|--------|--------|
D|--------|--------|--------|--------|--------|--------|--------|--------|--------|
A|--------|--------|--------|--------|--------|--------|--------|--------|--------|
E|--------|--------|--------|--------|--------|--------|--------|--------|--------|


E|--------|--------|--------|--------|--------|--------|--------|--------|--------|
B|--------|--------|--------|--------|--------|--------|--------|--------|--------|
G|--------|--------|--------|--------|--------|--------|--------|--------|--------|
D|--------|--------|--------|--------|--------|--------|--------|--------|--------|
A|--------|--------|--------|--------|--------|--------|--------|--------|--------|
E|--------|--------|--------|--------|--------|--------|--------|--------|--------|


E|--------|--------|--------|--------|--------|--------|--------|--------|--------|
B|--------|--------|--------|--------|--------|--------|--------|--------|--------|
G|--------|--------|--------|--------|--------|--------|--------|--------|--------|
D|--------|--------|--------|--------|--------|--------|--------|--------|--------|
A|--------|--------|--------|--------|--------|--------|--------|--------|--------|
E|--------|--------|--------|--------|--------|--------|--------|--------|--------|


E|--------|--------|--------|--------|--------|--------|--------|--------|--------|
B|--------|--------|--------|--------|--------|--------|--------|--------|--------|
G|--------|--------|--------|--------|--------|--------|--------|--------|--------|
D|--------|--------|--------|--------|--------|--------|--------|--------|--------|
A|--------|--------|--------|--------|--------|--------|--------|--------|--------|
E|--------|--------|--------|--------|--------|--------|--------|--------|--------|


E|--------|--------|--------|--------|--------|--------|--------|--------|--------|
B|--------|--------|--------|--------|--------|--------|--------|--------|--------|
G|--------|--------|--------|--------|--------|--------|--------|--------|--------|
D|--------|--------|--------|--------|--------|--------|--------|--------|--------|
A|--------|--------|--------|--------|--------|--------|--------|--------|--------|
E|--------|--------|--------|--------|--------|--------|--------|--------|--------|


E|------------------------------|---------------------------|--------|--------|--------|
B|------------------------------|---------------------------|--------|--------|--------|
G|------------------------------|---------------------------|--------|--------|--------|
D|---------4---5---5----4-------|---------------------------|--------|--------|--------|
A|-2---3--------------------5---|-2---2---2----2---2---0----|--------|--------|--------|
E|------------------------------|---------------------------|--------|--------|--------|


E|--------|--------|--------|--------|--------|--------|--------|--------|--------|
B|--------|--------|--------|--------|--------|--------|--------|--------|--------|
G|--------|--------|--------|--------|--------|--------|--------|--------|--------|
D|--------|--------|--------|--------|--------|--------|--------|--------|--------|
A|--------|--------|--------|--------|--------|--------|--------|--------|--------|
E|--------|--------|--------|--------|--------|--------|--------|--------|--------|


E|--------|--------|--------|--------|--------|--------|--------|--------|--------|
B|--------|--------|--------|--------|--------|--------|--------|--------|--------|
G|--------|--------|--------|--------|--------|--------|--------|--------|--------|
D|--------|--------|--------|--------|--------|--------|--------|--------|--------|
A|--------|--------|--------|--------|--------|--------|--------|--------|--------|
E|--------|--------|--------|--------|--------|--------|--------|--------|--------|


E|--------|--------|--------|--------|--------|--------|--------|--------|--------|
B|--------|--------|--------|--------|--------|--------|--------|--------|--------|
G|--------|--------|--------|--------|--------|--------|--------|--------|--------|
D|--------|--------|--------|--------|--------|--------|--------|--------|--------|
A|--------|--------|--------|--------|--------|--------|--------|--------|--------|
E|--------|--------|--------|--------|--------|--------|--------|--------|--------|


E|--------|--------|--------|--------|--------|--------|--------|--------|--------|
B|--------|--------|--------|--------|--------|--------|--------|--------|--------|
G|--------|--------|--------|--------|--------|--------|--------|--------|--------|
D|--------|--------|--------|--------|--------|--------|--------|--------|--------|
A|--------|--------|--------|--------|--------|--------|--------|--------|--------|
E|--------|--------|--------|--------|--------|--------|--------|--------|--------|


E|--------|--------|--------|--------|--------|--------|--------|--------|--------|
B|--------|--------|--------|--------|--------|--------|--------|--------|--------|
G|--------|--------|--------|--------|--------|--------|--------|--------|--------|
D|--------|--------|--------|--------|--------|--------|--------|--------|--------|
A|--------|--------|--------|--------|--------|--------|--------|--------|--------|
E|--------|--------|--------|--------|--------|--------|--------|--------|--------|





Track 7: Distortion Guitar I

E|--------|--------|--------|--------|--------|--------|--------|--------|--------|
B|--------|--------|--------|--------|--------|--------|--------|--------|--------|
G|--------|--------|--------|--------|--------|--------|--------|--------|--------|
D|--------|--------|--------|--------|--------|--------|--------|--------|--------|
A|--------|--------|--------|--------|--------|--------|--------|--------|--------|
E|--------|--------|--------|--------|--------|--------|--------|--------|--------|


E|--------|--------|--------|--------|--------|--------|--------|--------|--------|
B|--------|--------|--------|--------|--------|--------|--------|--------|--------|
G|--------|--------|--------|--------|--------|--------|--------|--------|--------|
D|--------|--------|--------|--------|--------|--------|--------|--------|--------|
A|--------|--------|--------|--------|--------|--------|--------|--------|--------|
E|--------|--------|--------|--------|--------|--------|--------|--------|--------|


E|--------|--------|--------|--------|--------|--------|--------|--------|--------|
B|--------|--------|--------|--------|--------|--------|--------|--------|--------|
G|--------|--------|--------|--------|--------|--------|--------|--------|--------|
D|--------|--------|--------|--------|--------|--------|--------|--------|--------|
A|--------|--------|--------|--------|--------|--------|--------|--------|--------|
E|--------|--------|--------|--------|--------|--------|--------|--------|--------|


E|--------|--------|--------|--------|--------|--------|--------|--------|--------|
B|--------|--------|--------|--------|--------|--------|--------|--------|--------|
G|--------|--------|--------|--------|--------|--------|--------|--------|--------|
D|--------|--------|--------|--------|--------|--------|--------|--------|--------|
A|--------|--------|--------|--------|--------|--------|--------|--------|--------|
E|--------|--------|--------|--------|--------|--------|--------|--------|--------|


E|--------|--------|--------|--------|--------|--------|--------|--------|--------|
B|--------|--------|--------|--------|--------|--------|--------|--------|--------|
G|--------|--------|--------|--------|--------|--------|--------|--------|--------|
D|--------|--------|--------|--------|--------|--------|--------|--------|--------|
A|--------|--------|--------|--------|--------|--------|--------|--------|--------|
E|--------|--------|--------|--------|--------|--------|--------|--------|--------|


E|--------|--------|--------|--------|--------|--------|--------|--------|--------|
B|--------|--------|--------|--------|--------|--------|--------|--------|--------|
G|--------|--------|--------|--------|--------|--------|--------|--------|--------|
D|--------|--------|--------|--------|--------|--------|--------|--------|--------|
A|--------|--------|--------|--------|--------|--------|--------|--------|--------|
E|--------|--------|--------|--------|--------|--------|--------|--------|--------|


E|--------|--------|--------|--------|--------|--------|--------|--------|--------|
B|--------|--------|--------|--------|--------|--------|--------|--------|--------|
G|--------|--------|--------|--------|--------|--------|--------|--------|--------|
D|--------|--------|--------|--------|--------|--------|--------|--------|--------|
A|--------|--------|--------|--------|--------|--------|--------|--------|--------|
E|--------|--------|--------|--------|--------|--------|--------|--------|--------|


E|--------|--------|--------|--------|--------|--------|--------|--------|--------|
B|--------|--------|--------|--------|--------|--------|--------|--------|--------|
G|--------|--------|--------|--------|--------|--------|--------|--------|--------|
D|--------|--------|--------|--------|--------|--------|--------|--------|--------|
A|--------|--------|--------|--------|--------|--------|--------|--------|--------|
E|--------|--------|--------|--------|--------|--------|--------|--------|--------|


E|--------|--------|--------|--------|--------|--------|--------|--------|--------|
B|--------|--------|--------|--------|--------|--------|--------|--------|--------|
G|--------|--------|--------|--------|--------|--------|--------|--------|--------|
D|--------|--------|--------|--------|--------|--------|--------|--------|--------|
A|--------|--------|--------|--------|--------|--------|--------|--------|--------|
E|--------|--------|--------|--------|--------|--------|--------|--------|--------|


E|--------|--------|--------|--------|--------|--------|--------|--------|--------|
B|--------|--------|--------|--------|--------|--------|--------|--------|--------|
G|--------|--------|--------|--------|--------|--------|--------|--------|--------|
D|--------|--------|--------|--------|--------|--------|--------|--------|--------|
A|--------|--------|--------|--------|--------|--------|--------|--------|--------|
E|--------|--------|--------|--------|--------|--------|--------|--------|--------|


E|--------|--------|--------|--------|--------|--------|--------|--------|--------|
B|--------|--------|--------|--------|--------|--------|--------|--------|--------|
G|--------|--------|--------|--------|--------|--------|--------|--------|--------|
D|--------|--------|--------|--------|--------|--------|--------|--------|--------|
A|--------|--------|--------|--------|--------|--------|--------|--------|--------|
E|--------|--------|--------|--------|--------|--------|--------|--------|--------|


E|--------|--------|--------|--------|--------|--------|--------|--------|--------|
B|--------|--------|--------|--------|--------|--------|--------|--------|--------|
G|--------|--------|--------|--------|--------|--------|--------|--------|--------|
D|--------|--------|--------|--------|--------|--------|--------|--------|--------|
A|--------|--------|--------|--------|--------|--------|--------|--------|--------|
E|--------|--------|--------|--------|--------|--------|--------|--------|--------|


E|--------|--------|--------|--------|--------|--------|--------|--------|--------|
B|--------|--------|--------|--------|--------|--------|--------|--------|--------|
G|--------|--------|--------|--------|--------|--------|--------|--------|--------|
D|--------|--------|--------|--------|--------|--------|--------|--------|--------|
A|--------|--------|--------|--------|--------|--------|--------|--------|--------|
E|--------|--------|--------|--------|--------|--------|--------|--------|--------|


E|--------|--------|--------|--------|--------|--------|--------|--------|--------|
B|--------|--------|--------|--------|--------|--------|--------|--------|--------|
G|--------|--------|--------|--------|--------|--------|--------|--------|--------|
D|--------|--------|--------|--------|--------|--------|--------|--------|--------|
A|--------|--------|--------|--------|--------|--------|--------|--------|--------|
E|--------|--------|--------|--------|--------|--------|--------|--------|--------|


E|--------|--------|--------|--------|--------|--------|--------|--------|--------|
B|--------|--------|--------|--------|--------|--------|--------|--------|--------|
G|--------|--------|--------|--------|--------|--------|--------|--------|--------|
D|--------|--------|--------|--------|--------|--------|--------|--------|--------|
A|--------|--------|--------|--------|--------|--------|--------|--------|--------|
E|--------|--------|--------|--------|--------|--------|--------|--------|--------|


E|--------|--------|--------|--------|--------|--------|--------|--------|--------|
B|--------|--------|--------|--------|--------|--------|--------|--------|--------|
G|--------|--------|--------|--------|--------|--------|--------|--------|--------|
D|--------|--------|--------|--------|--------|--------|--------|--------|--------|
A|--------|--------|--------|--------|--------|--------|--------|--------|--------|
E|--------|--------|--------|--------|--------|--------|--------|--------|--------|


E|--------|--------|--------|--------|--------|--------|--------|--------|--------|
B|--------|--------|--------|--------|--------|--------|--------|--------|--------|
G|--------|--------|--------|--------|--------|--------|--------|--------|--------|
D|--------|--------|--------|--------|--------|--------|--------|--------|--------|
A|--------|--------|--------|--------|--------|--------|--------|--------|--------|
E|--------|--------|--------|--------|--------|--------|--------|--------|--------|


E|--------|--------|--------|--------|--------|--------|--------|--------|--------|
B|--------|--------|--------|--------|--------|--------|--------|--------|--------|
G|--------|--------|--------|--------|--------|--------|--------|--------|--------|
D|--------|--------|--------|--------|--------|--------|--------|--------|--------|
A|--------|--------|--------|--------|--------|--------|--------|--------|--------|
E|--------|--------|--------|--------|--------|--------|--------|--------|--------|


E|--------|--------|--------|--------|--------|--------|--------|--------|--------|
B|--------|--------|--------|--------|--------|--------|--------|--------|--------|
G|--------|--------|--------|--------|--------|--------|--------|--------|--------|
D|--------|--------|--------|--------|--------|--------|--------|--------|--------|
A|--------|--------|--------|--------|--------|--------|--------|--------|--------|
E|--------|--------|--------|--------|--------|--------|--------|--------|--------|


E|--------|--------|--------|--------|--------|--------|--------|--------|--------|
B|--------|--------|--------|--------|--------|--------|--------|--------|--------|
G|--------|--------|--------|--------|--------|--------|--------|--------|--------|
D|--------|--------|--------|--------|--------|--------|--------|--------|--------|
A|--------|--------|--------|--------|--------|--------|--------|--------|--------|
E|--------|--------|--------|--------|--------|--------|--------|--------|--------|


E|--------|--------|--------|--------|--------|--------|--------|--------|--------|
B|--------|--------|--------|--------|--------|--------|--------|--------|--------|
G|--------|--------|--------|--------|--------|--------|--------|--------|--------|
D|--------|--------|--------|--------|--------|--------|--------|--------|--------|
A|--------|--------|--------|--------|--------|--------|--------|--------|--------|
E|--------|--------|--------|--------|--------|--------|--------|--------|--------|


E|--------|--------|--------|--------|--------|--------|--------|--------|--------|
B|--------|--------|--------|--------|--------|--------|--------|--------|--------|
G|--------|--------|--------|--------|--------|--------|--------|--------|--------|
D|--------|--------|--------|--------|--------|--------|--------|--------|--------|
A|--------|--------|--------|--------|--------|--------|--------|--------|--------|
E|--------|--------|--------|--------|--------|--------|--------|--------|--------|


E|--------|--------|--------|--------|--------|--------|--------|--------|--------|
B|--------|--------|--------|--------|--------|--------|--------|--------|--------|
G|--------|--------|--------|--------|--------|--------|--------|--------|--------|
D|--------|--------|--------|--------|--------|--------|--------|--------|--------|
A|--------|--------|--------|--------|--------|--------|--------|--------|--------|
E|--------|--------|--------|--------|--------|--------|--------|--------|--------|


E|--------|--------|--------|--------|--------|--------|--------|--------|--------|
B|--------|--------|--------|--------|--------|--------|--------|--------|--------|
G|--------|--------|--------|--------|--------|--------|--------|--------|--------|
D|--------|--------|--------|--------|--------|--------|--------|--------|--------|
A|--------|--------|--------|--------|--------|--------|--------|--------|--------|
E|--------|--------|--------|--------|--------|--------|--------|--------|--------|


E|--------|--------|--------|--------|--------|--------|--------|--------|--------|
B|--------|--------|--------|--------|--------|--------|--------|--------|--------|
G|--------|--------|--------|--------|--------|--------|--------|--------|--------|
D|--------|--------|--------|--------|--------|--------|--------|--------|--------|
A|--------|--------|--------|--------|--------|--------|--------|--------|--------|
E|--------|--------|--------|--------|--------|--------|--------|--------|--------|


E|--------|--------|--------|--------|--------|--------|--------|--------|--------|
B|--------|--------|--------|--------|--------|--------|--------|--------|--------|
G|--------|--------|--------|--------|--------|--------|--------|--------|--------|
D|--------|--------|--------|--------|--------|--------|--------|--------|--------|
A|--------|--------|--------|--------|--------|--------|--------|--------|--------|
E|--------|--------|--------|--------|--------|--------|--------|--------|--------|


E|--------|--------|--------|--------|--------|--------|--------|--------|--------|
B|--------|--------|--------|--------|--------|--------|--------|--------|--------|
G|--------|--------|--------|--------|--------|--------|--------|--------|--------|
D|--------|--------|--------|--------|--------|--------|--------|--------|--------|
A|--------|--------|--------|--------|--------|--------|--------|--------|--------|
E|--------|--------|--------|--------|--------|--------|--------|--------|--------|


E|--------|--------|--------|--------|--------|--------|--------|--------|--------|
B|--------|--------|--------|--------|--------|--------|--------|--------|--------|
G|--------|--------|--------|--------|--------|--------|--------|--------|--------|
D|--------|--------|--------|--------|--------|--------|--------|--------|--------|
A|--------|--------|--------|--------|--------|--------|--------|--------|--------|
E|--------|--------|--------|--------|--------|--------|--------|--------|--------|


E|---------------------0-----|-------------3---3-----|--------|--------|--------|--------|
B|-------------1---1---------|---------3-------------|--------|--------|--------|--------|
G|---------2-----------------|-----0-----------------|--------|--------|--------|--------|
D|-----2---------------------|-----------------------|--------|--------|--------|--------|
A|-0-------------------------|-----------------------|--------|--------|--------|--------|
E|---------------------------|-3---------------------|--------|--------|--------|--------|


E|--------|--------|--------|--------|--------|--------|--------|--------|--------|
B|--------|--------|--------|--------|--------|--------|--------|--------|--------|
G|--------|--------|--------|--------|--------|--------|--------|--------|--------|
D|--------|--------|--------|--------|--------|--------|--------|--------|--------|
A|--------|--------|--------|--------|--------|--------|--------|--------|--------|
E|--------|--------|--------|--------|--------|--------|--------|--------|--------|


E|--------|--------|--------|--------|--------|--------|--------|--------|--------|
B|--------|--------|--------|--------|--------|--------|--------|--------|--------|
G|--------|--------|--------|--------|--------|--------|--------|--------|--------|
D|--------|--------|--------|--------|--------|--------|--------|--------|--------|
A|--------|--------|--------|--------|--------|--------|--------|--------|--------|
E|--------|--------|--------|--------|--------|--------|--------|--------|--------|


E|--------|--------|--------|--------|--------|--------|--------|--------|--------|
B|--------|--------|--------|--------|--------|--------|--------|--------|--------|
G|--------|--------|--------|--------|--------|--------|--------|--------|--------|
D|--------|--------|--------|--------|--------|--------|--------|--------|--------|
A|--------|--------|--------|--------|--------|--------|--------|--------|--------|
E|--------|--------|--------|--------|--------|--------|--------|--------|--------|


E|--------|--------|--------|--------|--------|--------|--------|--------|--------|
B|--------|--------|--------|--------|--------|--------|--------|--------|--------|
G|--------|--------|--------|--------|--------|--------|--------|--------|--------|
D|--------|--------|--------|--------|--------|--------|--------|--------|--------|
A|--------|--------|--------|--------|--------|--------|--------|--------|--------|
E|--------|--------|--------|--------|--------|--------|--------|--------|--------|


E|--------|--------|--------|--------|--------|--------|--------|--------|
B|--------|--------|--------|--------|--------|--------|--------|--------|
G|--------|--------|--------|--------|--------|--------|--------|--------|
D|--------|--------|--------|--------|--------|--------|--------|--------|
A|--------|--------|--------|--------|--------|--------|--------|--------|
E|--------|--------|--------|--------|--------|--------|--------|--------|





Track 8: Distortion Guitar I

E|--------|--------|--------|--------|--------|--------|--------|--------|--------|
B|--------|--------|--------|--------|--------|--------|--------|--------|--------|
G|--------|--------|--------|--------|--------|--------|--------|--------|--------|
D|--------|--------|--------|--------|--------|--------|--------|--------|--------|
A|--------|--------|--------|--------|--------|--------|--------|--------|--------|
E|--------|--------|--------|--------|--------|--------|--------|--------|--------|


E|--------|--------|--------|--------|--------|--------|--------|--------|--------|
B|--------|--------|--------|--------|--------|--------|--------|--------|--------|
G|--------|--------|--------|--------|--------|--------|--------|--------|--------|
D|--------|--------|--------|--------|--------|--------|--------|--------|--------|
A|--------|--------|--------|--------|--------|--------|--------|--------|--------|
E|--------|--------|--------|--------|--------|--------|--------|--------|--------|


E|--------|--------|--------|--------|--------|--------|--------|--------|--------|
B|--------|--------|--------|--------|--------|--------|--------|--------|--------|
G|--------|--------|--------|--------|--------|--------|--------|--------|--------|
D|--------|--------|--------|--------|--------|--------|--------|--------|--------|
A|--------|--------|--------|--------|--------|--------|--------|--------|--------|
E|--------|--------|--------|--------|--------|--------|--------|--------|--------|


E|--------|--------|--------|--------|--------|--------|--------|--------|--------|
B|--------|--------|--------|--------|--------|--------|--------|--------|--------|
G|--------|--------|--------|--------|--------|--------|--------|--------|--------|
D|--------|--------|--------|--------|--------|--------|--------|--------|--------|
A|--------|--------|--------|--------|--------|--------|--------|--------|--------|
E|--------|--------|--------|--------|--------|--------|--------|--------|--------|


E|--------|--------|--------|--------|--------|--------|--------|--------|--------|
B|--------|--------|--------|--------|--------|--------|--------|--------|--------|
G|--------|--------|--------|--------|--------|--------|--------|--------|--------|
D|--------|--------|--------|--------|--------|--------|--------|--------|--------|
A|--------|--------|--------|--------|--------|--------|--------|--------|--------|
E|--------|--------|--------|--------|--------|--------|--------|--------|--------|


E|--------|--------|--------|--------|--------|--------|--------|--------|--------|
B|--------|--------|--------|--------|--------|--------|--------|--------|--------|
G|--------|--------|--------|--------|--------|--------|--------|--------|--------|
D|--------|--------|--------|--------|--------|--------|--------|--------|--------|
A|--------|--------|--------|--------|--------|--------|--------|--------|--------|
E|--------|--------|--------|--------|--------|--------|--------|--------|--------|


E|--------|--------|--------|--------|--------|--------|--------|--------|--------|
B|--------|--------|--------|--------|--------|--------|--------|--------|--------|
G|--------|--------|--------|--------|--------|--------|--------|--------|--------|
D|--------|--------|--------|--------|--------|--------|--------|--------|--------|
A|--------|--------|--------|--------|--------|--------|--------|--------|--------|
E|--------|--------|--------|--------|--------|--------|--------|--------|--------|


E|--------|--------|--------|--------|--------|--------|--------|--------|--------|
B|--------|--------|--------|--------|--------|--------|--------|--------|--------|
G|--------|--------|--------|--------|--------|--------|--------|--------|--------|
D|--------|--------|--------|--------|--------|--------|--------|--------|--------|
A|--------|--------|--------|--------|--------|--------|--------|--------|--------|
E|--------|--------|--------|--------|--------|--------|--------|--------|--------|


E|--------|--------|--------|--------|--------|--------|--------|--------|--------|
B|--------|--------|--------|--------|--------|--------|--------|--------|--------|
G|--------|--------|--------|--------|--------|--------|--------|--------|--------|
D|--------|--------|--------|--------|--------|--------|--------|--------|--------|
A|--------|--------|--------|--------|--------|--------|--------|--------|--------|
E|--------|--------|--------|--------|--------|--------|--------|--------|--------|


E|--------|--------|--------|--------|--------|--------|--------|--------|--------|
B|--------|--------|--------|--------|--------|--------|--------|--------|--------|
G|--------|--------|--------|--------|--------|--------|--------|--------|--------|
D|--------|--------|--------|--------|--------|--------|--------|--------|--------|
A|--------|--------|--------|--------|--------|--------|--------|--------|--------|
E|--------|--------|--------|--------|--------|--------|--------|--------|--------|


E|--------|--------|--------|--------|--------|--------|--------|--------|--------|
B|--------|--------|--------|--------|--------|--------|--------|--------|--------|
G|--------|--------|--------|--------|--------|--------|--------|--------|--------|
D|--------|--------|--------|--------|--------|--------|--------|--------|--------|
A|--------|--------|--------|--------|--------|--------|--------|--------|--------|
E|--------|--------|--------|--------|--------|--------|--------|--------|--------|


E|--------|--------|--------|--------|--------|--------|--------|--------|--------|
B|--------|--------|--------|--------|--------|--------|--------|--------|--------|
G|--------|--------|--------|--------|--------|--------|--------|--------|--------|
D|--------|--------|--------|--------|--------|--------|--------|--------|--------|
A|--------|--------|--------|--------|--------|--------|--------|--------|--------|
E|--------|--------|--------|--------|--------|--------|--------|--------|--------|


E|--------|--------|--------|--------|--------|--------|--------|--------|--------|
B|--------|--------|--------|--------|--------|--------|--------|--------|--------|
G|--------|--------|--------|--------|--------|--------|--------|--------|--------|
D|--------|--------|--------|--------|--------|--------|--------|--------|--------|
A|--------|--------|--------|--------|--------|--------|--------|--------|--------|
E|--------|--------|--------|--------|--------|--------|--------|--------|--------|


E|--------|--------|--------|--------|--------|--------|--------|--------|--------|
B|--------|--------|--------|--------|--------|--------|--------|--------|--------|
G|--------|--------|--------|--------|--------|--------|--------|--------|--------|
D|--------|--------|--------|--------|--------|--------|--------|--------|--------|
A|--------|--------|--------|--------|--------|--------|--------|--------|--------|
E|--------|--------|--------|--------|--------|--------|--------|--------|--------|


E|--------|--------|--------|--------|--------|--------|--------|--------|--------|
B|--------|--------|--------|--------|--------|--------|--------|--------|--------|
G|--------|--------|--------|--------|--------|--------|--------|--------|--------|
D|--------|--------|--------|--------|--------|--------|--------|--------|--------|
A|--------|--------|--------|--------|--------|--------|--------|--------|--------|
E|--------|--------|--------|--------|--------|--------|--------|--------|--------|


E|--------|--------|--------|--------|--------|--------|--------|--------|--------|
B|--------|--------|--------|--------|--------|--------|--------|--------|--------|
G|--------|--------|--------|--------|--------|--------|--------|--------|--------|
D|--------|--------|--------|--------|--------|--------|--------|--------|--------|
A|--------|--------|--------|--------|--------|--------|--------|--------|--------|
E|--------|--------|--------|--------|--------|--------|--------|--------|--------|


E|--------|--------|--------|--------|--------|--------|--------|--------|--------|
B|--------|--------|--------|--------|--------|--------|--------|--------|--------|
G|--------|--------|--------|--------|--------|--------|--------|--------|--------|
D|--------|--------|--------|--------|--------|--------|--------|--------|--------|
A|--------|--------|--------|--------|--------|--------|--------|--------|--------|
E|--------|--------|--------|--------|--------|--------|--------|--------|--------|


E|--------|--------|--------|--------|--------|--------|--------|--------|--------|
B|--------|--------|--------|--------|--------|--------|--------|--------|--------|
G|--------|--------|--------|--------|--------|--------|--------|--------|--------|
D|--------|--------|--------|--------|--------|--------|--------|--------|--------|
A|--------|--------|--------|--------|--------|--------|--------|--------|--------|
E|--------|--------|--------|--------|--------|--------|--------|--------|--------|


E|--------|--------|--------|--------|--------|--------|--------|--------|--------|
B|--------|--------|--------|--------|--------|--------|--------|--------|--------|
G|--------|--------|--------|--------|--------|--------|--------|--------|--------|
D|--------|--------|--------|--------|--------|--------|--------|--------|--------|
A|--------|--------|--------|--------|--------|--------|--------|--------|--------|
E|--------|--------|--------|--------|--------|--------|--------|--------|--------|


E|--------|--------|--------|--------|--------|--------|--------|--------|--------|
B|--------|--------|--------|--------|--------|--------|--------|--------|--------|
G|--------|--------|--------|--------|--------|--------|--------|--------|--------|
D|--------|--------|--------|--------|--------|--------|--------|--------|--------|
A|--------|--------|--------|--------|--------|--------|--------|--------|--------|
E|--------|--------|--------|--------|--------|--------|--------|--------|--------|


E|--------|--------|--------|--------|--------|--------|--------|--------|--------|
B|--------|--------|--------|--------|--------|--------|--------|--------|--------|
G|--------|--------|--------|--------|--------|--------|--------|--------|--------|
D|--------|--------|--------|--------|--------|--------|--------|--------|--------|
A|--------|--------|--------|--------|--------|--------|--------|--------|--------|
E|--------|--------|--------|--------|--------|--------|--------|--------|--------|


E|--------|--------|--------|--------|--------|--------|--------|--------|--------|
B|--------|--------|--------|--------|--------|--------|--------|--------|--------|
G|--------|--------|--------|--------|--------|--------|--------|--------|--------|
D|--------|--------|--------|--------|--------|--------|--------|--------|--------|
A|--------|--------|--------|--------|--------|--------|--------|--------|--------|
E|--------|--------|--------|--------|--------|--------|--------|--------|--------|


E|--------|--------|--------|--------|--------|--------|--------|--------|--------|
B|--------|--------|--------|--------|--------|--------|--------|--------|--------|
G|--------|--------|--------|--------|--------|--------|--------|--------|--------|
D|--------|--------|--------|--------|--------|--------|--------|--------|--------|
A|--------|--------|--------|--------|--------|--------|--------|--------|--------|
E|--------|--------|--------|--------|--------|--------|--------|--------|--------|


E|--------|--------|--------|--------|--------|--------|--------|--------|--------|
B|--------|--------|--------|--------|--------|--------|--------|--------|--------|
G|--------|--------|--------|--------|--------|--------|--------|--------|--------|
D|--------|--------|--------|--------|--------|--------|--------|--------|--------|
A|--------|--------|--------|--------|--------|--------|--------|--------|--------|
E|--------|--------|--------|--------|--------|--------|--------|--------|--------|


E|--------|--------|--------|--------|--------|--------|--------|--------|--------|
B|--------|--------|--------|--------|--------|--------|--------|--------|--------|
G|--------|--------|--------|--------|--------|--------|--------|--------|--------|
D|--------|--------|--------|--------|--------|--------|--------|--------|--------|
A|--------|--------|--------|--------|--------|--------|--------|--------|--------|
E|--------|--------|--------|--------|--------|--------|--------|--------|--------|


E|--------|--------|--------|--------|--------|--------|--------|--------|--------|
B|--------|--------|--------|--------|--------|--------|--------|--------|--------|
G|--------|--------|--------|--------|--------|--------|--------|--------|--------|
D|--------|--------|--------|--------|--------|--------|--------|--------|--------|
A|--------|--------|--------|--------|--------|--------|--------|--------|--------|
E|--------|--------|--------|--------|--------|--------|--------|--------|--------|


E|--------|--------|--------|--------|--------|--------|--------|--------|--------|
B|--------|--------|--------|--------|--------|--------|--------|--------|--------|
G|--------|--------|--------|--------|--------|--------|--------|--------|--------|
D|--------|--------|--------|--------|--------|--------|--------|--------|--------|
A|--------|--------|--------|--------|--------|--------|--------|--------|--------|
E|--------|--------|--------|--------|--------|--------|--------|--------|--------|


E|--------|--------|--------|--------|--------|--------|--------|--------|--------|
B|--------|--------|--------|--------|--------|--------|--------|--------|--------|
G|--------|--------|--------|--------|--------|--------|--------|--------|--------|
D|--------|--------|--------|--------|--------|--------|--------|--------|--------|
A|--------|--------|--------|--------|--------|--------|--------|--------|--------|
E|--------|--------|--------|--------|--------|--------|--------|--------|--------|


E|--------|--------|---------------------------|-----------------------|---------------------0-----|
B|--------|--------|---------------------------|-----------------------|-------------1---1---------|
G|--------|--------|-5----4-------2----0-------|-0---0-------2---2-----|---------2-----------------|
D|--------|--------|-0----0-------0----0-------|-0---0-------0---0-----|-----2---------------------|
A|--------|--------|---------------------------|-----------------------|-0-------------------------|
E|--------|--------|---------------------------|-----------------------|---------------------------|


E|-------------3---3-----|---------------------------|-----------------------|---------------------0-----|
B|---------3-------------|---------------------------|-----------------------|-------------1---1---------|
G|-----0-----------------|-5----4-------2----0-------|-0---0-------2---2-----|---------2-----------------|
D|-----------------------|-0----0-------0----0-------|-0---0-------0---0-----|-----2---------------------|
A|-----------------------|---------------------------|-----------------------|-0-------------------------|
E|-3---------------------|---------------------------|-----------------------|---------------------------|


E|-------------3---3-----|---------------------------|-----------------------|---------------------0-----|
B|---------3-------------|---------------------------|-----------------------|-------------1---1---------|
G|-----0-----------------|-5----4-------2----0-------|-0---0-------2---2-----|---------2-----------------|
D|-----------------------|-0----0-------0----0-------|-0---0-------0---0-----|-----2---------------------|
A|-----------------------|---------------------------|-----------------------|-0-------------------------|
E|-3---------------------|---------------------------|-----------------------|---------------------------|


E|-------------3---3-----|---------------------------|-----------------------|---------------------0-----|
B|---------3-------------|---------------------------|-----------------------|-------------1---1---------|
G|-----0-----------------|-5----4-------2----0-------|-0---0-------2---2-----|---------2-----------------|
D|-----------------------|-0----0-------0----0-------|-0---0-------0---0-----|-----2---------------------|
A|-----------------------|---------------------------|-----------------------|-0-------------------------|
E|-3---------------------|---------------------------|-----------------------|---------------------------|


E|-------------3---3-----|---------------------------|-----------------------|---------------------0-----|
B|---------3-------------|---------------------------|-----------------------|-------------1---1---------|
G|-----0-----------------|-5----4-------2----0-------|-0---0-------2---2-----|---------2-----------------|
D|-----------------------|-0----0-------0----0-------|-0---0-------0---0-----|-----2---------------------|
A|-----------------------|---------------------------|-----------------------|-0-------------------------|
E|-3---------------------|---------------------------|-----------------------|---------------------------|


E|-------------3---3-----|---------------------------|-----------------------|---------------------0-----|
B|---------3-------------|---------------------------|-----------------------|-------------1---1---------|
G|-----0-----------------|-5----4-------2----0-------|-0---0-------2---2-----|---------2-----------------|
D|-----------------------|-0----0-------0----0-------|-0---0-------0---0-----|-----2---------------------|
A|-----------------------|---------------------------|-----------------------|-0-------------------------|
E|-3---------------------|---------------------------|-----------------------|---------------------------|


E|-------------3---3-----|---------------------------|-----------------------|---------------------0-----|
B|---------3-------------|---------------------------|-----------------------|-------------1---1---------|
G|-----0-----------------|-5----4-------2----0-------|-0---0-------2---2-----|---------2-----------------|
D|-----------------------|-0----0-------0----0-------|-0---0-------0---0-----|-----2---------------------|
A|-----------------------|---------------------------|-----------------------|-0-------------------------|
E|-3---------------------|---------------------------|-----------------------|---------------------------|


E|-------------3---3-----|---------------------------|-----------------------|---------------------0-----|
B|---------3-------------|---------------------------|-----------------------|-------------1---1---------|
G|-----0-----------------|-5----4-------2----0-------|-0---0-------2---2-----|---------2-----------------|
D|-----------------------|-0----0-------0----0-------|-0---0-------0---0-----|-----2---------------------|
A|-----------------------|---------------------------|-----------------------|-0-------------------------|
E|-3---------------------|---------------------------|-----------------------|---------------------------|


E|-------------3---3-----|---------------------------|-----------------------|---------------------0-----|
B|---------3-------------|---------------------------|-----------------------|-------------1---1---------|
G|-----0-----------------|-5----4-------2----0-------|-0---0-------2---2-----|---------2-----------------|
D|-----------------------|-0----0-------0----0-------|-0---0-------0---0-----|-----2---------------------|
A|-----------------------|---------------------------|-----------------------|-0-------------------------|
E|-3---------------------|---------------------------|-----------------------|---------------------------|


E|-------------3---3-----|---------------------------|-----------------------|---------------------0-----|
B|---------3-------------|---------------------------|-----------------------|-------------1---1---------|
G|-----0-----------------|-5----4-------2----0-------|-0---0-------2---2-----|---------2-----------------|
D|-----------------------|-0----0-------0----0-------|-0---0-------0---0-----|-----2---------------------|
A|-----------------------|---------------------------|-----------------------|-0-------------------------|
E|-3---------------------|---------------------------|-----------------------|---------------------------|


E|-------------3---3-----|---------------------------|-----------------------|---------------------0-----|
B|---------3-------------|---------------------------|-----------------------|-------------1---1---------|
G|-----0-----------------|-5----4-------2----0-------|-0---0-------2---2-----|---------2-----------------|
D|-----------------------|-0----0-------0----0-------|-0---0-------0---0-----|-----2---------------------|
A|-----------------------|---------------------------|-----------------------|-0-------------------------|
E|-3---------------------|---------------------------|-----------------------|---------------------------|


E|-------------3---3-----|---------------------------|-----------------------|---------------------0-----|
B|---------3-------------|---------------------------|-----------------------|-------------1---1---------|
G|-----0-----------------|-5----4-------2----0-------|-0---0-------2---2-----|---------2-----------------|
D|-----------------------|-0----0-------0----0-------|-0---0-------0---0-----|-----2---------------------|
A|-----------------------|---------------------------|-----------------------|-0-------------------------|
E|-3---------------------|---------------------------|-----------------------|---------------------------|


E|-------------3---3-----|
B|---------3-------------|
G|-----0-----------------|
D|-----------------------|
A|-----------------------|
E|-3---------------------|





Track 9: Untitled

G|---------------------------------|---------------------------------|---------------------------------|
D|---------------------------------|---------------------------------|---------------------------------|
A|-5---5---5---5---5---5---5---5---|-5---5---5---5---5---5---5---5---|-5---5---5---5---5---5---5---5---|
E|---------------------------------|---------------------------------|---------------------------------|


G|---------------------------------|---------------------------------|---------------------------------|
D|---------------------------------|---------------------------------|---------------------------------|
A|-5---5---5---5---5---5---5---5---|-5---5---5---5---5---5---5---5---|-5---5---5---5---5---5---5---5---|
E|---------------------------------|---------------------------------|---------------------------------|


G|---------------------------------|---------------------------------|---------------------------------|
D|---------------------------------|---------------------------------|---------------------------------|
A|-5---5---5---5---5---5---5---5---|-5---5---5---5---5---5---5---5---|-5---5---5---5---5---5---5---5---|
E|---------------------------------|---------------------------------|---------------------------------|


G|---------------------------------|---------------------------------|---------------------------------|
D|---------------------------------|---------------------------------|---------------------------------|
A|-5---5---5---5---5---5---5---5---|-5---5---5---5---5---5---5---5---|-5---5---5---5---5---5---5---5---|
E|---------------------------------|---------------------------------|---------------------------------|


G|---------------------------------|---------------------------------|---------------------------------|
D|---------------------------------|---------------------------------|---------------------------------|
A|-5---5---5---5---5---5---5---5---|-5---5---5---5---5---5---5---5---|-3---3---3---3---3---3---3---3---|
E|---------------------------------|---------------------------------|---------------------------------|


G|---------------------------------|---------------------------------|---------------------------------|
D|---------------------------------|---------------------------------|---------------------------------|
A|---------------------------------|-5---5---5---5---5---5---5---5---|-5---5---5---5---5---5---5---5---|
E|-3---3---3---3---3---3---3---3---|---------------------------------|---------------------------------|


G|---------------------------------|---------------------------------|---------------------------------|
D|---------------------------------|---------------------------------|---------------------------------|
A|-5---5---5---5---5---5---5---5---|-5---5---5---5---5---5---5---5---|-5---5---5---5---5---5---5---5---|
E|---------------------------------|---------------------------------|---------------------------------|


G|---------------------------------|---------------------------------|---------------------------------|
D|---------------------------------|---------------------------------|---------------------------------|
A|-5---5---5---5---5---5---5---5---|-3---3---3---3---3---3---3---3---|---------------------------------|
E|---------------------------------|---------------------------------|-3---3---3---3---3---3---3---3---|


G|---------------------------------|---------------------------------|---------------------------------|
D|---------------------------------|---------------------------------|---------------------------------|
A|---------------------------------|-3---3---3---3---3---3---3---3---|---------------------------------|
E|-5---5---5---5---5---5---5---5---|---------------------------------|-0---0---0---0---0---0---0---0---|


G|---------------------------------|---------------------------------|---------------------------------|
D|---------------------------------|---------------------------------|---------------------------------|
A|---------------------------------|---------------------------------|-3---3---3---3---3---3---3---3---|
E|-0---0---0---0---0---0---0---0---|-5---5---5---5---5---5---5---5---|---------------------------------|


G|---------------------------------|---------------------------------|---------------------------------|
D|---------------------------------|---------------------------------|---------------------------------|
A|---------------------------------|---------------------------------|---------------------------------|
E|-0---0---0---0---0---0---0---0---|-2---3---2---0---0---0---0---0---|-5---5---5---5---5---5---5---5---|


G|---------------------------------|---------------------------------|---------------------------------|
D|---------------------------------|---------------------------------|---------------------------------|
A|-3---3---3---3---3---3---3---3---|---------------------------------|---------------------------------|
E|---------------------------------|-0---0---0---0---0---0---0---0---|-0---0---0---0---0---0---0---0---|


G|---------------------------------|---------------------------------|---------------------------------|
D|---------------------------------|---------------------------------|---------------------------------|
A|---------------------------------|-3---3---3---3---3---3---3---3---|---------------------------------|
E|-5---5---5---5---5---5---5---5---|---------------------------------|-3---3---3---3---3---3---3---3---|


G|---------------------------------|---------------------------------|---------------------------------|
D|---------------------------------|---------------------------------|---------------------------------|
A|-------------2---2---3---3---4---|-5---5---5---5---5---5---5---5---|-5---5---5---5---5---5---5---5---|
E|-3---3---3-----------------------|---------------------------------|---------------------------------|


G|---------------------------------|---------------------------------|---------------------------------|
D|---------------------------------|---------------------------------|---------------------------------|
A|-5---5---5---5---5---5---5---5---|-5---5---5---5---5---5---5---5---|-5---5---5---5---5---5---5---5---|
E|---------------------------------|---------------------------------|---------------------------------|


G|---------------------------------|---------------------------------|---------------------------------|
D|---------------------------------|---------------------------------|---------------------------------|
A|-5---5---5---5---5---5---5---5---|-5---5---5---5---5---5---5---5---|-5---5---5---5---5---5---5---5---|
E|---------------------------------|---------------------------------|---------------------------------|


G|---------------------------------|---------------------------------|---------------------------------|
D|---------------------------------|---------------------------------|---------------------------------|
A|-5---5---5---5---5---5---5---5---|-5---5---5---5---5---5---5---5---|-3---3---3---3---3---3---3---3---|
E|---------------------------------|---------------------------------|---------------------------------|


G|---------------------------------|---------------------------------|---------------------------------|
D|---------------------------------|---------------------------------|---------------------------------|
A|---------------------------------|-5---5---5---5---5---5---5---5---|-5---5---5---5---5---5---5---5---|
E|-3---3---3---3---3---3---3---3---|---------------------------------|---------------------------------|


G|---------------------------------|---------------------------------|---------------------------------|
D|---------------------------------|---------------------------------|---------------------------------|
A|-5---5---5---5---5---5---5---5---|-5---5---5---5---5---5---5---5---|-5---5---5---5---5---5---5---5---|
E|---------------------------------|---------------------------------|---------------------------------|


G|---------------------------------|---------------------------------|---------------------------------|
D|---------------------------------|---------------------------------|---------------------------------|
A|-5---5---5---5---5---5---5---5---|-3---3---3---3---3---3---3---3---|---------------------------------|
E|---------------------------------|---------------------------------|-3---3---3---3---3---3---3---3---|


G|---------------------------------|---------------------------------|---------------------------------|
D|---------------------------------|---------------------------------|---------------------------------|
A|---------------------------------|-3---3---3---3---3---3---3---3---|---------------------------------|
E|-5---5---5---5---5---5---5---5---|---------------------------------|-0---0---0---0---0---0---0---0---|


G|---------------------------------|---------------------------------|---------------------------------|
D|---------------------------------|---------------------------------|---------------------------------|
A|---------------------------------|---------------------------------|-3---3---3---3---3---3---3---3---|
E|-0---0---0---0---0---0---0---0---|-5---5---5---5---5---5---5---5---|---------------------------------|


G|---------------------------------|---------------------------------|---------------------------------|
D|---------------------------------|---------------------------------|---------------------------------|
A|---------------------------------|---------------------------------|---------------------------------|
E|-0---0---0---0---0---0---0---0---|-2---3---2---0---0---0---0---0---|-5---5---5---5---5---5---5---5---|


G|---------------------------------|---------------------------------|---------------------------------|
D|---------------------------------|---------------------------------|---------------------------------|
A|-3---3---3---3---3---3---3---3---|---------------------------------|---------------------------------|
E|---------------------------------|-0---0---0---0---0---0---0---0---|-0---0---0---0---0---0---0---0---|


G|---------------------------------|---------------------------------|---------------------------------|
D|---------------------------------|---------------------------------|---------------------------------|
A|---------------------------------|-3---3---3---3---3---3---3---3---|---------------------------------|
E|-5---5---5---5---5---5---5---5---|---------------------------------|-3---3---3---3---3---3---3---3---|


G|---------------------------------|---------------------------------|---------------------------------|
D|---------------------------------|---------------------------------|---------------------------------|
A|-------------2---2---3---3---4---|-5---5---5---5---5---5---5---5---|-5---5---5---5---5---5---5---5---|
E|-3---3---3-----------------------|---------------------------------|---------------------------------|


G|---------------------------------|---------------------------------|---------------------------------|
D|---------------------------------|---------------------------------|---------------------------------|
A|-5---5---5---5---5---5---5---5---|-5---5---5---5---5---5---5---5---|-2---2---2---2---2---2---2---2---|
E|---------------------------------|---------------------------------|---------------------------------|


G|---------------------------------|---------------------------------|---------------------------------|
D|---------------------------------|---------------------------------|---------------------------------|
A|-2---2---2---2---2---2---2---2---|-2---2---2---2---2---2---2---2---|-2---2---2---2---2---2---2---2---|
E|---------------------------------|---------------------------------|---------------------------------|


G|---------------------------------|---------------------------------|---------------------------------|
D|---------------------------------|---------------------------------|---------------------------------|
A|-2---2---2---2---2---2---2---2---|-2---2---2---2---2---2---2---2---|-2---2---2---2---2---2---2---2---|
E|---------------------------------|---------------------------------|---------------------------------|


G|---------------------------------|---------------------------------|---------------------------------|
D|---------------------------------|---------------------------------|---------------------------------|
A|-2---2---2---2---2---2---2---2---|-5---5---5---5---5---5---5---5---|-5---5---5---5---5---5---5---5---|
E|---------------------------------|---------------------------------|---------------------------------|


G|---------------------------------|---------------------------------|---------------------------------|
D|---------------------------------|---------------------------------|---------------------------------|
A|-5---5---5---5---5---5---5---5---|-5---5---5---5---5---5---5---5---|-5---5---5---5---5---5---5---5---|
E|---------------------------------|---------------------------------|---------------------------------|


G|---------------------------------|---------------------------------|---------------------------------|
D|---------------------------------|---------------------------------|---------------------------------|
A|-5---5---5---5---5---5---5---5---|-5---5---5---5---5---5---5---5---|-5---5---5---5---5---5---5---5---|
E|---------------------------------|---------------------------------|---------------------------------|


G|---------------------------------|---------------------------------|---------------------------------|
D|---------------------------------|---------------------------------|---------------------------------|
A|-2---2---2---2---2---2---2---2---|-2---2---2---2---2---2---2---2---|-2---2---2---2---2---2---2---2---|
E|---------------------------------|---------------------------------|---------------------------------|


G|---------------------------------|---------------------------------|---------------------------------|
D|---------------------------------|---------------------------------|---------------------------------|
A|-2---2---2---2---2---2---2---2---|-2---2---2---2---2---2---2---2---|-2---2---2---2---2---2---2---2---|
E|---------------------------------|---------------------------------|---------------------------------|


G|---------------------------------|---------------------------------|---------------------------------|
D|---------------------------------|---------------------------------|---------------------------------|
A|-2---2---2---2---2---2---2---2---|-2---2---2---2---2---2---2---2---|-5---5---5---5---5---5---5---5---|
E|---------------------------------|---------------------------------|---------------------------------|


G|---------------------------------|---------------------------------|---------------------------------|
D|---------------------------------|---------------------------------|---------------------------------|
A|-5---5---5---5---5---5---5---5---|-5---5---5---5---5---5---5---5---|-5---5---5---5---5---5---5---5---|
E|---------------------------------|---------------------------------|---------------------------------|


G|---------------------------------|---------------------------------|---------------------------------|
D|---------------------------------|---------------------------------|---------------------------------|
A|-5---5---5---5---5---5---5---5---|-5---5---5---5---5---5---5---5---|-5---5---5---5---5---5---5---5---|
E|---------------------------------|---------------------------------|---------------------------------|


G|---------------------------------|---------------------------------|---------------------------------|
D|---------------------------------|---------------------------------|---------------------------------|
A|-5---5---5---5---5---5---5---5---|-5---5---5---5---5---5---5---5---|-5---5---5---5---5---5---5---5---|
E|---------------------------------|---------------------------------|---------------------------------|


G|---------------------------------|---------------------------------|---------------------------------|
D|---------------------------------|---------------------------------|---------------------------------|
A|-5---5---5---5---5---5---5---5---|-5---5---5---5---5---5---5---5---|-5---5---5---5---5---5---5---5---|
E|---------------------------------|---------------------------------|---------------------------------|


G|---------------------------------|---------------------------------|---------------------------------|
D|---------------------------------|---------------------------------|---------------------------------|
A|-5---5---5---5---5---5---5---5---|-3---3---3---3---3---3---3---3---|---------------------------------|
E|---------------------------------|---------------------------------|-3---3---3---3---3---3---3---3---|


G|---------------------------------|---------------------------------|---------------------------------|
D|---------------------------------|---------------------------------|---------------------------------|
A|-5---5---5---5---5---5---5---5---|-5---5---5---5---5---5---5---5---|-5---5---5---5---5---5---5---5---|
E|---------------------------------|---------------------------------|---------------------------------|


G|---------------------------------|---------------------------------|---------------------------------|
D|---------------------------------|---------------------------------|---------------------------------|
A|-5---5---5---5---5---5---5---5---|-5---5---5---5---5---5---5---5---|-5---5---5---5---5---5---5---5---|
E|---------------------------------|---------------------------------|---------------------------------|


G|---------------------------------|---------------------------------|---------------------------------|
D|---------------------------------|---------------------------------|---------------------------------|
A|-3---3---3---3---3---3---3---3---|---------------------------------|---------------------------------|
E|---------------------------------|-3---3---3---3---3---3---3---3---|-5---5---5---5---5---5---5---5---|


G|---------------------------------|---------------------------------|---------------------------------|
D|---------------------------------|---------------------------------|---------------------------------|
A|-3---3---3---3---3---3---3---3---|---------------------------------|---------------------------------|
E|---------------------------------|-0---0---0---0---0---0---0---0---|-0---0---0---0---0---0---0---0---|


G|---------------------------------|---------------------------------|---------------------------------|
D|---------------------------------|---------------------------------|---------------------------------|
A|---------------------------------|-3---3---3---3---3---3---3---3---|---------------------------------|
E|-5---5---5---5---5---5---5---5---|---------------------------------|-0---0---0---0---0---0---0---0---|


G|---------------------------------|---------------------------------|---------------------------------|
D|---------------------------------|---------------------------------|---------------------------------|
A|---------------------------------|---------------------------------|-3---3---3---3---3---3---3---3---|
E|-2---3---2---0---0---0---0---0---|-5---5---5---5---5---5---5---5---|---------------------------------|


G|---------------------------------|---------------------------------|---------------------------------|
D|---------------------------------|---------------------------------|---------------------------------|
A|---------------------------------|---------------------------------|---------------------------------|
E|-0---0---0---0---0---0---0---0---|-0---0---0---0---0---0---0---0---|-5---5---5---5---5---5---5---5---|


G|---------------------------------|---------------------------------|---------------------------------|
D|---------------------------------|---------------------------------|---------------------------------|
A|-3---3---3---3---3---3---3---3---|---------------------------------|-------------2---2---3---3---4---|
E|---------------------------------|-3---3---3---3---3---3---3---3---|-3---3---3-----------------------|


G|---------------------------------|---------------------------------|---------------------------------|
D|---------------------------------|---------------------------------|---------------------------------|
A|-5---5---5---5---5---5---5---5---|-5---5---5---5---5---5---5---5---|-5---5---5---5---5---5---5---5---|
E|---------------------------------|---------------------------------|---------------------------------|


G|---------------------------------|---------------------------------|---------------------------------|
D|---------------------------------|---------------------------------|---------------------------------|
A|-5---5---5---5---5---5---5---5---|-5---5---5---5---5---5---5---5---|-5---5---5---5---5---5---5---5---|
E|---------------------------------|---------------------------------|---------------------------------|


G|---------------------------------|---------------------------------|---------------------------------|
D|---------------------------------|---------------------------------|---------------------------------|
A|---------------------------------|---------------------------------|-5---5---5---5---5---5---5---5---|
E|-5---5---5---5---5---5---5---5---|-3---3---3---3---3---3---3---3---|---------------------------------|


G|---------------------------------|---------------------------------|---------------------------------|
D|---------------------------------|---------------------------------|---------------------------------|
A|-5---5---5---5---5---5---5---5---|---------------------------------|---------------------------------|
E|---------------------------------|-5---5---5---5---5---5---5---5---|-3---3---3---3---3---3---3---3---|


G|---------------------------------|---------------------------------|---------------------------------|
D|---------------------------------|---------------------------------|---------------------------------|
A|-5---5---5---5---5---5---5---5---|-5---5---5---5---5---5---5---5---|---------------------------------|
E|---------------------------------|---------------------------------|-5---5---5---5---5---5---5---5---|


G|---------------------------------|---------------------------------|---------------------------------|
D|---------------------------------|---------------------------------|---------------------------------|
A|---------------------------------|-5---5---5---5---5---5---5---5---|-5---5---5---5---5---5---5---5---|
E|-3---3---3---3---3---3---3---3---|---------------------------------|---------------------------------|


G|---------------------------------|---------------------------------|---------------------------------|
D|---------------------------------|---------------------------------|---------------------------------|
A|---------------------------------|---------------------------------|-5---5---5---5---5---5---5---5---|
E|-5---5---5---5---5---5---5---5---|-3---3---3---3---3---3---3---3---|---------------------------------|


G|---------------------------------|---------------------------------|---------------------------------|
D|---------------------------------|---------------------------------|---------------------------------|
A|-5---5---5---5---5---5---5---5---|---------------------------------|---------------------------------|
E|---------------------------------|-5---5---5---5---5---5---5---5---|-3---3---3---3---3---3---3---3---|


G|---------------------------------|---------------------------------|---------------------------------|
D|---------------------------------|---------------------------------|---------------------------------|
A|-5---5---5---5---5---5---5---5---|-5---5---5---5---5---5---5---5---|---------------------------------|
E|---------------------------------|---------------------------------|-5---5---5---5---5---5---5---5---|


G|---------------------------------|---------------------------------|---------------------------------|
D|---------------------------------|---------------------------------|---------------------------------|
A|---------------------------------|-5---5---5---5---5---5---5---5---|-5---5---5---5---5---5---5---5---|
E|-3---3---3---3---3---3---3---3---|---------------------------------|---------------------------------|


G|---------------------------------|---------------------------------|---------------------------------|
D|---------------------------------|---------------------------------|---------------------------------|
A|---------------------------------|---------------------------------|-5---5---5---5---5---5---5---5---|
E|-5---5---5---5---5---5---5---5---|-3---3---3---3---3---3---3---3---|---------------------------------|


G|---------------------------------|---------------------------------|---------------------------------|
D|---------------------------------|---------------------------------|---------------------------------|
A|-5---5---5---5---5---5---5---5---|---------------------------------|---------------------------------|
E|---------------------------------|-5---5---5---5---5---5---5---5---|-3---3---3---3---3---3---3---3---|


G|---------------------------------|---------------------------------|---------------------------------|
D|---------------------------------|---------------------------------|---------------------------------|
A|-5---5---5---5---5---5---5---5---|-5---5---5---5---5---5---5---5---|---------------------------------|
E|---------------------------------|---------------------------------|-5---5---5---5---5---5---5---5---|


G|---------------------------------|---------------------------------|---------------------------------|
D|---------------------------------|---------------------------------|---------------------------------|
A|---------------------------------|-5---5---5---5---5---5---5---5---|-5---5---5---5---5---5---5---5---|
E|-3---3---3---3---3---3---3---3---|---------------------------------|---------------------------------|


G|---------------------------------|---------------------------------|---------------------------------|
D|---------------------------------|---------------------------------|---------------------------------|
A|---------------------------------|---------------------------------|-5---5---5---5---5---5---5---5---|
E|-5---5---5---5---5---5---5---5---|-3---3---3---3---3---3---3---3---|---------------------------------|


G|---------------------------------|---------------------------------|---------------------------------|
D|---------------------------------|---------------------------------|---------------------------------|
A|-5---5---5---5---5---5---5---5---|---------------------------------|---------------------------------|
E|---------------------------------|-5---5---5---5---5---5---5---5---|-3---3---3---3---3---3---3---3---|


G|---------------------------------|---------------------------------|---------------------------------|
D|---------------------------------|---------------------------------|---------------------------------|
A|-5---5---5---5---5---5---5---5---|-5---5---5---5---5---5---5---5---|---------------------------------|
E|---------------------------------|---------------------------------|-5---5---5---5---5---5---5---5---|


G|---------------------------------|---------------------------------|---------------------------------|
D|---------------------------------|---------------------------------|---------------------------------|
A|---------------------------------|-5---5---5---5---5---5---5---5---|-5---5---5---5---5---5---5---5---|
E|-3---3---3---3---3---3---3---3---|---------------------------------|---------------------------------|


G|---------------------------------|---------------------------------|---------------------------------|
D|---------------------------------|---------------------------------|---------------------------------|
A|---------------------------------|---------------------------------|-5---5---5---5---5---5---5---5---|
E|-5---5---5---5---5---5---5---5---|-3---3---3---3---3---3---3---3---|---------------------------------|


G|---------------------------------|---------------------------------|---------------------------------|
D|---------------------------------|---------------------------------|---------------------------------|
A|-5---5---5---5---5---5---5---5---|---------------------------------|---------------------------------|
E|---------------------------------|-5---5---5---5---5---5---5---5---|-3---3---3---3---3---3---3---3---|


G|---------------------------------|---------------------------------|---------------------------------|
D|---------------------------------|---------------------------------|---------------------------------|
A|-5---5---5---5---5---5---5---5---|-5---5---5---5---5---5---5---5---|---------------------------------|
E|---------------------------------|---------------------------------|-5---5---5---5---5---5---5---5---|


G|---------------------------------|---------------------------------|---------------------------------|
D|---------------------------------|---------------------------------|---------------------------------|
A|---------------------------------|-5---5---5---5---5---5---5---5---|-5---5---5---5---5---5---5---5---|
E|-3---3---3---3---3---3---3---3---|---------------------------------|---------------------------------|


G|---------------------------------|---------------------------------|---------------------------------|
D|---------------------------------|---------------------------------|---------------------------------|
A|---------------------------------|---------------------------------|-5---5---5---5---5---5---5---5---|
E|-5---5---5---5---5---5---5---5---|-3---3---3---3---3---3---3---3---|---------------------------------|


G|---------------------------------|---------------------------------|---------------------------------|
D|---------------------------------|---------------------------------|---------------------------------|
A|-5---5---5---5---5---5---5---5---|---------------------------------|---------------------------------|
E|---------------------------------|-5---5---5---5---5---5---5---5---|-3---3---3---3---3---3---3---3---|


G|---------------------------------|---------------------------------|---------------------------------|
D|---------------------------------|---------------------------------|---------------------------------|
A|-5---5---5---5---5---5---5---5---|-5---5---5---5---5---5---5---5---|---------------------------------|
E|---------------------------------|---------------------------------|-5---5---5---5---5---5---5---5---|


G|---------------------------------|---------------------------------|---------------------------------|
D|---------------------------------|---------------------------------|---------------------------------|
A|---------------------------------|-5---5---5---5---5---5---5---5---|-5---5---5---5---5---5---5---5---|
E|-3---3---3---3---3---3---3---3---|---------------------------------|---------------------------------|


G|---------------------------------|---------------------------------|--------|--------|
D|---------------------------------|---------------------------------|--------|--------|
A|---------------------------------|---------------------------------|--------|--------|
E|-5---5---5---5---5---5---5---5---|-3---3---3---3---3---3---3---3---|--------|--------|


G|--------|--------|--------|--------|--------|--------|--------|--------|--------|
D|--------|--------|--------|--------|--------|--------|--------|--------|--------|
A|--------|--------|--------|--------|--------|--------|--------|--------|--------|
E|--------|--------|--------|--------|--------|--------|--------|--------|--------|


G|--------|--------|--------|--------|--------|--------|--------|--------|--------|
D|--------|--------|--------|--------|--------|--------|--------|--------|--------|
A|--------|--------|--------|--------|--------|--------|--------|--------|--------|
E|--------|--------|--------|--------|--------|--------|--------|--------|--------|


G|--------|--------|--------|--------|--------|--------|--------|--------|--------|
D|--------|--------|--------|--------|--------|--------|--------|--------|--------|
A|--------|--------|--------|--------|--------|--------|--------|--------|--------|
E|--------|--------|--------|--------|--------|--------|--------|--------|--------|


G|--------|--------|--------|--------|--------|--------|--------|--------|--------|
D|--------|--------|--------|--------|--------|--------|--------|--------|--------|
A|--------|--------|--------|--------|--------|--------|--------|--------|--------|
E|--------|--------|--------|--------|--------|--------|--------|--------|--------|


G|--------|--------|--------|--------|--------|--------|--------|--------|--------|
D|--------|--------|--------|--------|--------|--------|--------|--------|--------|
A|--------|--------|--------|--------|--------|--------|--------|--------|--------|
E|--------|--------|--------|--------|--------|--------|--------|--------|--------|


G|--------|--------|--------|--------|--------|--------|--------|--------|--------|
D|--------|--------|--------|--------|--------|--------|--------|--------|--------|
A|--------|--------|--------|--------|--------|--------|--------|--------|--------|
E|--------|--------|--------|--------|--------|--------|--------|--------|--------|


G|--------|--------|--------|--------|--------|--------|--------|--------|--------|
D|--------|--------|--------|--------|--------|--------|--------|--------|--------|
A|--------|--------|--------|--------|--------|--------|--------|--------|--------|
E|--------|--------|--------|--------|--------|--------|--------|--------|--------|


G|--------|--------|--------|--------|--------|--------|--------|--------|--------|
D|--------|--------|--------|--------|--------|--------|--------|--------|--------|
A|--------|--------|--------|--------|--------|--------|--------|--------|--------|
E|--------|--------|--------|--------|--------|--------|--------|--------|--------|


G|--------|--------|--------|--------|
D|--------|--------|--------|--------|
A|--------|--------|--------|--------|
E|--------|--------|--------|--------|