Site menu:

    

Browse: 0-9 A B C D E F G H I J K L N O P Q R S T U V W X Y Z

infliction of need - tribute to dead to fall:



Title: Tribute To Dead To Fall
Artist: 
Album: 
Author: Josh Sullivan And Ben Robinson


Track 1: Distorted 1

D|---------------------------------|------------------------------|---------------------------------|
A|---------------------------------|------------------------------|---------------------------------|
F|---------------------------------|------------------------------|---------------------------------|
C|---------------------------------|------------------------------|---------------------------------|
G|-2---0-------8-------7-------5---|---------5---0-------12--10---|-8---0-------15------14------12--|
C|---------0-------0-------0-------|-0---0-----------0------------|---------0-------0-------0-------|


D|------------------------------|---------------------------------|------------------------------|
A|------------------------------|---------------------------------|------------------------------|
F|------------------------------|---------------------------------|------------------------------|
C|------------------------------|---------------------------------|------------------------------|
G|---------10--0-------14--12---|-2---0-------8-------7-------5---|---------5---0-------12--10---|
C|-0---0-----------0------------|---------0-------0-------0-------|-0---0-----------0------------|


D|---------------------------------|------------------------------|---------------------------------|
A|---------------------------------|------------------------------|---------------------------------|
F|---------------------------------|------------------------------|-4---2-------10------9-------7---|
C|---------------------------------|------------------------------|---------0-------0-------0-------|
G|-8---0-------15------14------12--|---------10--0-------14--12---|---------------------------------|
C|---------0-------0-------0-------|-0---0-----------0------------|---------------------------------|


D|------------------------------|---------------------------------|------------------------------|
A|---------3--------------------|-6-------------------------------|---------8--------------------|
F|-------------2-------14--12---|-----2-------17------16------14--|---------------------16--14---|
C|-0---0-----------0------------|---------0-------0-------0-------|-0---0-------7---0------------|
G|------------------------------|---------------------------------|------------------------------|
C|------------------------------|---------------------------------|------------------------------|


D|---------------------------------|------------------------------|---------------------------------|
A|---------------------------------|---------3--------------------|-6-------------------------------|
F|-4---2-------10------9-------7---|-------------2-------14--12---|-----2-------17------16------14--|
C|---------0-------0-------0-------|-0---0-----------0------------|---------0-------0-------0-------|
G|---------------------------------|------------------------------|---------------------------------|
C|---------------------------------|------------------------------|---------------------------------|


D|------------------------------|--------------------------------------|--------------------------------------|
A|---------8--------------------|--------------------------------------|--------------------------------------|
F|---------------------16--14---|-----------------------------14--12---|-----------------------------16--14---|
C|-0---0-------7---0------------|--------------------------------------|--------------------------------------|
G|------------------------------|-0--0--0--0--0--0--0--0---------------|-0--0--0--0--0--0--0--0---------------|
C|------------------------------|-0--0--0--0--0--0--0--0---------------|-0--0--0--0--0--0--0--0---------------|


D|-------------------------------------|------------------------------|--------------------------------------|
A|-------------------------------------|------------------------------|--------------------------------------|
F|---------------------16--14------14--|-12---------------------------|-----------------------------14--12---|
C|-----------------------------16------|-----14--12--10--10--12--12---|--------------------------------------|
G|-0--0--0--0--0---0-------------------|------------------------------|-0--0--0--0--0--0--0--0---------------|
C|-0--0--0--0--0---0-------------------|------------------------------|-0--0--0--0--0--0--0--0---------------|


D|--------------------------------------|-------------------------------------|------------------------------|
A|--------------------------------------|-------------------------------------|------------------------------|
F|-----------------------------16--14---|---------------------16--14------14--|-12---------------------------|
C|--------------------------------------|-----------------------------16------|-----14--12--10--10--12--12---|
G|-0--0--0--0--0--0--0--0---------------|-0--0--0--0--0---0-------------------|------------------------------|
C|-0--0--0--0--0--0--0--0---------------|-0--0--0--0--0---0-------------------|------------------------------|


D|-------------------------------|-------------------------------|-------------------------------------------------|
A|-------------------------------|-------------------------------|-------------------------------------------------|
F|-------------------------------|-------------------------------|-------------------------------------------------|
C|-------------------------------|-------------------------------|-------------------------------------------------|
G|-0--0--0--0--0--0--0--0--------|-0--0--0--0--0--0--0--0--------|-------------------------------------------------|
C|-0--0--0--0--0--0--0--0--------|-0--0--0--0--0--0--0--0--------|-6--6--6--6--6--6--6--6--6--6--6--6--8--8--8--8--|


D|-------------------------------------------------|-------------------------------|
A|-------------------------------------------------|-------------------------------|
F|-------------------------------------------------|-------------------------------|
C|-------------------------------------------------|-------------------------------|
G|-------------------------------------------------|-0--0--0--0--0--0--0--0--------|
C|-4--4--4--4--4--4--4--4--7--7--7--7--9--9--9--9--|-0--0--0--0--0--0--0--0--------|


D|-------------------------------|-------------------------------------------------|
A|-------------------------------|-------------------------------------------------|
F|-------------------------------|-------------------------------------------------|
C|-------------------------------|-------------------------------------------------|
G|-0--0--0--0--0--0--0--0--------|-------------------------------------------------|
C|-0--0--0--0--0--0--0--0--------|-6--6--6--6--6--6--6--6--6--6--6--6--8--8--8--8--|


D|-------------------------------------------------|---------------------------------|
A|-------------------------------------------------|---------------------------------|
F|-------------------------------------------------|-4---2-------10------9-------7---|
C|-------------------------------------------------|---------0-------0-------0-------|
G|-------------------------------------------------|---------------------------------|
C|-4--4--4--4--4--4--4--4--7--7--7--7--9--9--9--9--|---------------------------------|


D|------------------------------|---------------------------------|------------------------------|
A|---------3--------------------|-6-------------------------------|---------8--------------------|
F|-------------2-------14--12---|-----2-------17------16------14--|---------------------16--14---|
C|-0---0-----------0------------|---------0-------0-------0-------|-0---0-------7---0------------|
G|------------------------------|---------------------------------|------------------------------|
C|------------------------------|---------------------------------|------------------------------|


D|---------------------------------|------------------------------|---------------------------------|
A|---------------------------------|---------3--------------------|-6-------------------------------|
F|-4---2-------10------9-------7---|-------------2-------14--12---|-----2-------17------16------14--|
C|---------0-------0-------0-------|-0---0-----------0------------|---------0-------0-------0-------|
G|---------------------------------|------------------------------|---------------------------------|
C|---------------------------------|------------------------------|---------------------------------|


D|------------------------------|--------------------------------------|--------------------------------------|
A|---------8--------------------|--------------------------------------|--------------------------------------|
F|---------------------16--14---|-----------------------------14--12---|-----------------------------16--14---|
C|-0---0-------7---0------------|--------------------------------------|--------------------------------------|
G|------------------------------|-0--0--0--0--0--0--0--0---------------|-0--0--0--0--0--0--0--0---------------|
C|------------------------------|-0--0--0--0--0--0--0--0---------------|-0--0--0--0--0--0--0--0---------------|


D|-------------------------------------|------------------------------|--------------------------------------|
A|-------------------------------------|------------------------------|--------------------------------------|
F|---------------------16--14------14--|-12---------------------------|-----------------------------14--12---|
C|-----------------------------16------|-----14--12--10--10--12--12---|--------------------------------------|
G|-0--0--0--0--0---0-------------------|------------------------------|-0--0--0--0--0--0--0--0---------------|
C|-0--0--0--0--0---0-------------------|------------------------------|-0--0--0--0--0--0--0--0---------------|


D|--------------------------------------|-------------------------------------|------------------------------|
A|--------------------------------------|-------------------------------------|------------------------------|
F|-----------------------------16--14---|---------------------16--14------14--|-12---------------------------|
C|--------------------------------------|-----------------------------16------|-----14--12--10--10--12--12---|
G|-0--0--0--0--0--0--0--0---------------|-0--0--0--0--0---0-------------------|------------------------------|
C|-0--0--0--0--0--0--0--0---------------|-0--0--0--0--0---0-------------------|------------------------------|


D|-------------------------------|-------------------------------|-------------------------------------------------|
A|-------------------------------|-------------------------------|-------------------------------------------------|
F|-------------------------------|-------------------------------|-------------------------------------------------|
C|-------------------------------|-------------------------------|-------------------------------------------------|
G|-0--0--0--0--0--0--0--0--------|-0--0--0--0--0--0--0--0--------|-------------------------------------------------|
C|-0--0--0--0--0--0--0--0--------|-0--0--0--0--0--0--0--0--------|-6--6--6--6--6--6--6--6--6--6--6--6--8--8--8--8--|


D|-------------------------------------------------|-------------------------------|
A|-------------------------------------------------|-------------------------------|
F|-------------------------------------------------|-------------------------------|
C|-------------------------------------------------|-------------------------------|
G|-------------------------------------------------|-0--0--0--0--0--0--0--0--------|
C|-4--4--4--4--4--4--4--4--7--7--7--7--9--9--9--9--|-0--0--0--0--0--0--0--0--------|


D|-------------------------------|-------------------------------------------------|
A|-------------------------------|-------------------------------------------------|
F|-------------------------------|-------------------------------------------------|
C|-------------------------------|-------------------------------------------------|
G|-0--0--0--0--0--0--0--0--------|-------------------------------------------------|
C|-0--0--0--0--0--0--0--0--------|-6--6--6--6--6--6--6--6--6--6--6--6--8--8--8--8--|


D|-------------------------------------------------|-------------------------------------------------|
A|-------------------------------------------------|-------------------------------------------------|
F|-------------------------------------------------|-------------------------------------------------|
C|-------------------------------------------------|-------------------------------------------------|
G|-------------------------------------------------|-------------------------------------------------|
C|-4--4--4--4--4--4--4--4--7--7--7--7--9--9--9--9--|-11-11-11-11-11-11-11-11-11-11-11-11-13-13-13-13-|


D|-------------------------------------------------|-------------------------------------------------|
A|-------------------------------------------------|-------------------------------------------------|
F|-------------------------------------------------|-------------------------------------------------|
C|-------------------------------------------------|-------------------------------------------------|
G|-------------------------------------------------|-------------------------5--5--5--5--4--4--4--4--|
C|-9--9--9--9--9--9--9--9--0--0--0--0--1--1--1--1--|-3--3--3--3--3--3--3--3--------------------------|


D|-------------------------------------------------|-------------------------------------------------|
A|-------------------------------------------------|-------------------------------------------------|
F|-------------------------------------------------|-------------------------7--7--7--7--6--6--6--6--|
C|-------------------------------------------------|-3--3--3--3--3--3--3--3--------------------------|
G|-3--3--3--3--3--3--3--3--------------------------|-------------------------------------------------|
C|-------------------------0--0--0--0--1--1--1--1--|-------------------------------------------------|


D|-------------------------------------------------|-------------------------------------------------|
A|-------------------------------------------------|-------------------------------------------------|
F|-5--5--5--5--5--5--5--5--------------------------|-------------------------7--7--7--7--6--6--6--6--|
C|-------------------------0--0--0--0--1--1--1--1--|-3--3--3--3--3--3--3--3--------------------------|
G|-------------------------------------------------|-------------------------------------------------|
C|-------------------------------------------------|-------------------------------------------------|


D|-------------------------------------------------|-------------------------------------------------|
A|-------------------------------------------------|-------------------------------------------------|
F|-5--5--5--5--5--5--5--5--------------------------|-------------------------7--7--7--7--6--6--6--6--|
C|-------------------------0--0--0--0--1--1--1--1--|-3--3--3--3--3--3--3--3--------------------------|
G|-------------------------------------------------|-------------------------------------------------|
C|-------------------------------------------------|-------------------------------------------------|


D|-----------------------------------------|---------------------------------|------------------------------|
A|-----------------------------------------|---------------------------------|---------3--------------------|
F|-5--5--5--5--5--5--5--5------------------|-4---2-------10------9-------7---|-------------2-------14--12---|
C|-----------------------------------------|---------0-------0-------0-------|-0---0-----------0------------|
G|-------------------------0---0---1---1---|---------------------------------|------------------------------|
C|-------------------------0---0---1---1---|---------------------------------|------------------------------|


D|---------------------------------|------------------------------|---------------------------------|
A|-6-------------------------------|---------8--------------------|---------------------------------|
F|-----2-------17------16------14--|---------------------16--14---|-4---2-------10------9-------7---|
C|---------0-------0-------0-------|-0---0-------7---0------------|---------0-------0-------0-------|
G|---------------------------------|------------------------------|---------------------------------|
C|---------------------------------|------------------------------|---------------------------------|


D|------------------------------|---------------------------------|------------------------------|
A|---------3--------------------|-6-------------------------------|---------8--------------------|
F|-------------2-------14--12---|-----2-------17------16------14--|---------------------16--14---|
C|-0---0-----------0------------|---------0-------0-------0-------|-0---0-------7---0------------|
G|------------------------------|---------------------------------|------------------------------|
C|------------------------------|---------------------------------|------------------------------|


D|--------------------------------------|--------------------------------------|-------------------------------------|
A|--------------------------------------|--------------------------------------|-------------------------------------|
F|-----------------------------14--12---|-----------------------------16--14---|---------------------16--14------14--|
C|--------------------------------------|--------------------------------------|-----------------------------16------|
G|-0--0--0--0--0--0--0--0---------------|-0--0--0--0--0--0--0--0---------------|-0--0--0--0--0---0-------------------|
C|-0--0--0--0--0--0--0--0---------------|-0--0--0--0--0--0--0--0---------------|-0--0--0--0--0---0-------------------|


D|------------------------------|--------------------------------------|--------------------------------------|
A|------------------------------|--------------------------------------|--------------------------------------|
F|-12---------------------------|-----------------------------14--12---|-----------------------------16--14---|
C|-----14--12--10--10--12--12---|--------------------------------------|--------------------------------------|
G|------------------------------|-0--0--0--0--0--0--0--0---------------|-0--0--0--0--0--0--0--0---------------|
C|------------------------------|-0--0--0--0--0--0--0--0---------------|-0--0--0--0--0--0--0--0---------------|


D|-------------------------------------|------------------------------|-------------------------------|
A|-------------------------------------|------------------------------|-------------------------------|
F|---------------------16--14------14--|-12---------------------------|-------------------------------|
C|-----------------------------16------|-----14--12--10--10--12--12---|-------------------------------|
G|-0--0--0--0--0---0-------------------|------------------------------|-0--0--0--0--0--0--0--0--------|
C|-0--0--0--0--0---0-------------------|------------------------------|-0--0--0--0--0--0--0--0--------|


D|-------------------------------|--------|---------------------|---------------------|
A|-------------------------------|--------|---------------------|---------------------|
F|-------------------------------|--------|---------------------|---------------------|
C|-------------------------------|--------|---------------------|---------------------|
G|-0--0--0--0--0--0--0--0--------|--------|-0----3----2----1----|-3----6----5----4----|
C|-0--0--0--0--0--0--0--0--------|--------|-0----3----2----1----|-3----6----5----4----|


D|---------------------|---------------------------|---------------------|---------------------|
A|---------------------|---------------------------|---------------------|---------------------|
F|---------------------|---------------------------|---------------------|---------------------|
C|---------------------|---------6------------4----|---------------------|---------------------|
G|-6----9----8----7----|-0---5--------0---3--------|-0----3----2----1----|-3----6----5----4----|
C|-6----9----8----7----|-0---5--------0---3--------|-0----3----2----1----|-3----6----5----4----|


D|---------------------|---------------------------|---------------------------------|
A|---------------------|---------------------------|---------------------------------|
F|---------------------|---------------------------|---------------------------------|
C|---------------------|---------6------------4----|---------------------------------|
G|-6----9----8----7----|-0---5--------0---3--------|-0---0---3---3---2---2---1---1---|
C|-6----9----8----7----|-0---5--------0---3--------|-0---0---3---3---2---2---1---1---|


D|---------------------------------|---------------------------------|---------------------------|
A|---------------------------------|---------------------------------|---------------------------|
F|---------------------------------|---------------------------------|---------------------------|
C|---------------------------------|---------------------------------|---------6------------4----|
G|-3---3---6---6---5---5---4---4---|-6---6---9---9---8---8---7---7---|-0---5--------0---3--------|
C|-3---3---6---6---5---5---4---4---|-6---6---9---9---8---8---7---7---|-0---5--------0---3--------|


D|---------------------------------|---------------------------------|---------------------------------|
A|---------------------------------|---------------------------------|---------------------------------|
F|---------------------------------|---------------------------------|---------------------------------|
C|---------------------------------|---------------------------------|---------------------------------|
G|-0---0---3---3---2---2---1---1---|-3---3---6---6---5---5---4---4---|-6---6---9---9---8---8---7---7---|
C|-0---0---3---3---2---2---1---1---|-3---3---6---6---5---5---4---4---|-6---6---9---9---8---8---7---7---|


D|---------------------------|---------------------|--------|---------------------|
A|---------------------------|---------------------|--------|---------------------|
F|---------------------------|---------------------|--------|---------------------|
C|---------6------------4----|---------------------|--------|---------------------|
G|-0---5--------0---3--------|-0----3----2----1----|--------|-6----9----8----7----|
C|-0---5--------0---3--------|-0----3----2----1----|--------|-6----9----8----7----|


D|--------|---------------------|--------|---------------------------|---------------------------|
A|--------|---------------------|--------|---------------------------|---------------------------|
F|--------|---------------------|--------|---------------------------|---------------------------|
C|--------|---------------------|--------|---------6------------4----|---------2------------8----|
G|--------|-3----6----5----4----|--------|-0---5--------0---3--------|-0---1--------0---7--------|
C|--------|-3----6----5----4----|--------|-0---5--------0---3--------|-0---1--------0---7--------|


D|--------|--------|-------------------------------------------------|-------------------------------------------------|
A|--------|--------|-------------------------------------------------|-------------------------------------------------|
F|--------|--------|-------------9--9--9--9--------------------------|-------------------------6--6--6--6--7--7--7--7--|
C|--------|--------|-0--0--0--0--------------8--8--8--8--7--7--7--7--|-3--3--3--3--3--3--3--3--------------------------|
G|--------|--------|-------------------------------------------------|-------------------------------------------------|
C|--------|--------|-------------------------------------------------|-------------------------------------------------|


D|-------------------------------------------------|-------------------------------------------------|
A|-------------------------------------------------|-------------------------------------------------|
F|-------------9--9--9--9--------------------------|-------------------------6--6--6--6--7--7--7--7--|
C|-0--0--0--0--------------8--8--8--8--7--7--7--7--|-3--3--3--3--3--3--3--3--------------------------|
G|-------------------------------------------------|-------------------------------------------------|
C|-------------------------------------------------|-------------------------------------------------|


D|-------------------------------------------------|-------------------------------------------------|
A|-------------------------------------------------|-------------------------------------------------|
F|-------------------------------------------------|-------------------------------------------------|
C|-0--0--0--0--0--0--0--0--4--4--3--3--3--3--3--3--|-4--4--6--6--6--6--4--4--3--3--0--0--0--0--0--0--|
G|-------------------------------------------------|-------------------------------------------------|
C|-------------------------------------------------|-------------------------------------------------|


D|-------------------------------------------------|-------------------------------------------------|
A|-------------------------------------------------|-------------------------------------------------|
F|-------------------------------------------------|-------------------------------------------------|
C|-0--0--0--0--0--0--0--0--4--4--3--3--3--3--3--3--|-4--4--6--6--6--6--4--4--3--3--0--0--0--0--0--0--|
G|-------------------------------------------------|-------------------------------------------------|
C|-------------------------------------------------|-------------------------------------------------|


D|-------------------------------------------------|-------------------------------------------------|
A|-------------------------------------------------|-------------------------------------------------|
F|-------------------------------------------------|-------------------------------------------------|
C|-0--0--0--0--0--0--0--0--4--4--3--3--3--3--3--3--|-4--4--6--6--6--6--4--4--3--3--0--0--0--0--0--0--|
G|-------------------------------------------------|-------------------------------------------------|
C|-------------------------------------------------|-------------------------------------------------|


D|-------------------------------------------------|-------------------------------------------------|
A|-------------------------------------------------|-------------------------------------------------|
F|-------------------------------------------------|-------------------------------------------------|
C|-0--0--0--0--0--0--0--0--4--4--3--3--3--3--3--3--|-4--4--6--6--6--6--4--4--3--3--0--0--0--0--0--0--|
G|-------------------------------------------------|-------------------------------------------------|
C|-------------------------------------------------|-------------------------------------------------|


D|-------------------------------------------------|-------------------------------------------------|
A|-------------------------------------------------|-------------------------------------------------|
F|-------------9--9--9--9--------------------------|-------------------------6--6--6--6--7--7--7--7--|
C|-0--0--0--0--------------8--8--8--8--7--7--7--7--|-3--3--3--3--3--3--3--3--------------------------|
G|-------------------------------------------------|-------------------------------------------------|
C|-------------------------------------------------|-------------------------------------------------|


D|-------------------------------------------------|-----------------------------------|
A|-------------------------------------------------|-----------------------------------|
F|-------------9--9--9--9--------------------------|-------------------------6---------|
C|-0--0--0--0--------------8--8--8--8--7--7--7--7--|-3--3--3--3--3--3--3--3--6----0----|
G|-------------------------------------------------|-------------------------4----0----|
C|-------------------------------------------------|------------------------------0----|


D|---------------------------------|------------------------------|---------------------------------|
A|---------------------------------|---------3--------------------|-6-------------------------------|
F|-4---2-------10------9-------7---|-------------2-------14--12---|-----2-------17------16------14--|
C|---------0-------0-------0-------|-0---0-----------0------------|---------0-------0-------0-------|
G|---------------------------------|------------------------------|---------------------------------|
C|---------------------------------|------------------------------|---------------------------------|


D|------------------------------|---------------------------------|------------------------------|
A|---------8--------------------|---------------------------------|---------3--------------------|
F|---------------------16--14---|-4---2-------10------9-------7---|-------------2-------14--12---|
C|-0---0-------7---0------------|---------0-------0-------0-------|-0---0-----------0------------|
G|------------------------------|---------------------------------|------------------------------|
C|------------------------------|---------------------------------|------------------------------|


D|---------------------------------|------------------------------|--------------------------------------|
A|-6-------------------------------|---------8--------------------|--------------------------------------|
F|-----2-------17------16------14--|---------------------16--14---|-----------------------------14--12---|
C|---------0-------0-------0-------|-0---0-------7---0------------|--------------------------------------|
G|---------------------------------|------------------------------|-0--0--0--0--0--0--0--0---------------|
C|---------------------------------|------------------------------|-0--0--0--0--0--0--0--0---------------|


D|--------------------------------------|-------------------------------------|------------------------------|
A|--------------------------------------|-------------------------------------|------------------------------|
F|-----------------------------16--14---|---------------------16--14------14--|-12---------------------------|
C|--------------------------------------|-----------------------------16------|-----14--12--10--10--12--12---|
G|-0--0--0--0--0--0--0--0---------------|-0--0--0--0--0---0-------------------|------------------------------|
C|-0--0--0--0--0--0--0--0---------------|-0--0--0--0--0---0-------------------|------------------------------|


D|--------------------------------------|--------------------------------------|-------------------------------------|
A|--------------------------------------|--------------------------------------|-------------------------------------|
F|-----------------------------14--12---|-----------------------------16--14---|---------------------16--14------14--|
C|--------------------------------------|--------------------------------------|-----------------------------16------|
G|-0--0--0--0--0--0--0--0---------------|-0--0--0--0--0--0--0--0---------------|-0--0--0--0--0---0-------------------|
C|-0--0--0--0--0--0--0--0---------------|-0--0--0--0--0--0--0--0---------------|-0--0--0--0--0---0-------------------|


D|------------------------------|-------------------------------|-------------------------------|
A|------------------------------|-------------------------------|-------------------------------|
F|-12---------------------------|-------------------------------|-------------------------------|
C|-----14--12--10--10--12--12---|-------------------------------|-------------------------------|
G|------------------------------|-0--0--0--0--0--0--0--0--------|-0--0--0--0--0--0--0--0--------|
C|------------------------------|-0--0--0--0--0--0--0--0--------|-0--0--0--0--0--0--0--0--------|


D|-------------------------------------------------|-------------------------------------------------|
A|-------------------------------------------------|-------------------------------------------------|
F|-------------------------------------------------|-------------------------------------------------|
C|-------------------------------------------------|-------------------------------------------------|
G|-------------------------------------------------|-------------------------------------------------|
C|-6--6--6--6--6--6--6--6--6--6--6--6--8--8--8--8--|-4--4--4--4--4--4--4--4--7--7--7--7--9--9--9--9--|


D|-------------------------------|-------------------------------|-------------------------------------------------|
A|-------------------------------|-------------------------------|-------------------------------------------------|
F|-------------------------------|-------------------------------|-------------------------------------------------|
C|-------------------------------|-------------------------------|-------------------------------------------------|
G|-0--0--0--0--0--0--0--0--------|-0--0--0--0--0--0--0--0--------|-------------------------------------------------|
C|-0--0--0--0--0--0--0--0--------|-0--0--0--0--0--0--0--0--------|-6--6--6--6--6--6--6--6--6--6--6--6--8--8--8--8--|


D|-------------------------------------------------|-------------------------------|
A|-------------------------------------------------|-------------------------------|
F|-------------------------------------------------|-------------------------------|
C|-------------------------------------------------|-------------------------------|
G|-------------------------------------------------|-0--0--0--0--0--0--0--0--------|
C|-4--4--4--4--4--4--4--4--7--7--7--7--9--9--9--9--|-0--0--0--0--0--0--0--0--------|


D|-------------------------------|
A|-------------------------------|
F|-------------------------------|
C|-------------------------------|
G|-0--0--0--0--0--0--0--0--------|
C|-0--0--0--0--0--0--0--0--------|





Track 2: Distorted 2

D|--------|--------|--------|--------|--------|--------|--------|--------|---------------------------------|
A|--------|--------|--------|--------|--------|--------|--------|--------|---------------------------------|
F|--------|--------|--------|--------|--------|--------|--------|--------|---------------------------------|
C|--------|--------|--------|--------|--------|--------|--------|--------|---------------------------------|
G|--------|--------|--------|--------|--------|--------|--------|--------|-2---0-------8-------7-------5---|
C|--------|--------|--------|--------|--------|--------|--------|--------|---------0-------0-------0-------|


D|------------------------------|---------------------------------|------------------------------|
A|------------------------------|---------------------------------|------------------------------|
F|------------------------------|---------------------------------|------------------------------|
C|------------------------------|---------------------------------|------------------------------|
G|---------5---0-------12--10---|-8---0-------15------14------12--|---------10--0-------14--12---|
C|-0---0-----------0------------|---------0-------0-------0-------|-0---0-----------0------------|


D|---------------------------------|------------------------------|---------------------------------|
A|---------------------------------|------------------------------|---------------------------------|
F|---------------------------------|------------------------------|---------------------------------|
C|---------------------------------|------------------------------|---------------------------------|
G|-2---0-------8-------7-------5---|---------5---0-------12--10---|-8---0-------15------14------12--|
C|---------0-------0-------0-------|-0---0-----------0------------|---------0-------0-------0-------|


D|------------------------------|--------------------------------------|--------------------------------------|
A|------------------------------|--------------------------------------|--------------------------------------|
F|------------------------------|--------------------------------------|--------------------------------------|
C|------------------------------|--------------------------------------|--------------------------------------|
G|---------10--0-------14--12---|-0--0--0--0--0--0--0--0------12--10---|-0--0--0--0--0--0--0--0------14--12---|
C|-0---0-----------0------------|-0--0--0--0--0--0--0--0---------------|-0--0--0--0--0--0--0--0---------------|


D|-------------------------------------|------------------------------|--------------------------------------|
A|-------------------------------------|------------------------------|--------------------------------------|
F|-------------------------------------|------------------------------|--------------------------------------|
C|-------------------------------------|------------------------------|--------------------------------------|
G|-0--0--0--0--0---0---14--12------12--|-10---------------------------|-0--0--0--0--0--0--0--0------12--10---|
C|-0--0--0--0--0---0-----------16------|-----14--12--10--10--12--12---|-0--0--0--0--0--0--0--0---------------|


D|--------------------------------------|-------------------------------------|------------------------------|
A|--------------------------------------|-------------------------------------|------------------------------|
F|--------------------------------------|-------------------------------------|------------------------------|
C|--------------------------------------|-------------------------------------|------------------------------|
G|-0--0--0--0--0--0--0--0------14--12---|-0--0--0--0--0---0---14--12------12--|-10---------------------------|
C|-0--0--0--0--0--0--0--0---------------|-0--0--0--0--0---0-----------16------|-----14--12--10--10--12--12---|


D|--------|--------|--------|--------|--------|--------|--------|--------|---------------------------------|
A|--------|--------|--------|--------|--------|--------|--------|--------|---------------------------------|
F|--------|--------|--------|--------|--------|--------|--------|--------|---------------------------------|
C|--------|--------|--------|--------|--------|--------|--------|--------|---------------------------------|
G|--------|--------|--------|--------|--------|--------|--------|--------|-2---0-------8-------7-------5---|
C|--------|--------|--------|--------|--------|--------|--------|--------|---------0-------0-------0-------|


D|------------------------------|---------------------------------|------------------------------|
A|------------------------------|---------------------------------|------------------------------|
F|------------------------------|---------------------------------|------------------------------|
C|------------------------------|---------------------------------|------------------------------|
G|---------5---0-------12--10---|-8---0-------15------14------12--|---------10--0-------14--12---|
C|-0---0-----------0------------|---------0-------0-------0-------|-0---0-----------0------------|


D|---------------------------------|------------------------------|---------------------------------|
A|---------------------------------|------------------------------|---------------------------------|
F|---------------------------------|------------------------------|---------------------------------|
C|---------------------------------|------------------------------|---------------------------------|
G|-2---0-------8-------7-------5---|---------5---0-------12--10---|-8---0-------15------14------12--|
C|---------0-------0-------0-------|-0---0-----------0------------|---------0-------0-------0-------|


D|------------------------------|--------------------------------------|--------------------------------------|
A|------------------------------|--------------------------------------|--------------------------------------|
F|------------------------------|--------------------------------------|--------------------------------------|
C|------------------------------|--------------------------------------|--------------------------------------|
G|---------10--0-------14--12---|-0--0--0--0--0--0--0--0------12--10---|-0--0--0--0--0--0--0--0------14--12---|
C|-0---0-----------0------------|-0--0--0--0--0--0--0--0---------------|-0--0--0--0--0--0--0--0---------------|


D|-------------------------------------|------------------------------|--------------------------------------|
A|-------------------------------------|------------------------------|--------------------------------------|
F|-------------------------------------|------------------------------|--------------------------------------|
C|-------------------------------------|------------------------------|--------------------------------------|
G|-0--0--0--0--0---0---14--12------12--|-10---------------------------|-0--0--0--0--0--0--0--0------12--10---|
C|-0--0--0--0--0---0-----------16------|-----14--12--10--10--12--12---|-0--0--0--0--0--0--0--0---------------|


D|--------------------------------------|-------------------------------------|------------------------------|
A|--------------------------------------|-------------------------------------|------------------------------|
F|--------------------------------------|-------------------------------------|------------------------------|
C|--------------------------------------|-------------------------------------|------------------------------|
G|-0--0--0--0--0--0--0--0------14--12---|-0--0--0--0--0---0---14--12------12--|-10---------------------------|
C|-0--0--0--0--0--0--0--0---------------|-0--0--0--0--0---0-----------16------|-----14--12--10--10--12--12---|


D|--------|--------|--------|--------|--------|--------|--------|--------|--------|
A|--------|--------|--------|--------|--------|--------|--------|--------|--------|
F|--------|--------|--------|--------|--------|--------|--------|--------|--------|
C|--------|--------|--------|--------|--------|--------|--------|--------|--------|
G|--------|--------|--------|--------|--------|--------|--------|--------|--------|
C|--------|--------|--------|--------|--------|--------|--------|--------|--------|


D|--------|--------|--------|-------------------------------------------------|-------------------------------------------------|
A|--------|--------|--------|-------------------------------------------------|-------------------------------------------------|
F|--------|--------|--------|-------------------------------------------------|-------------------------------------------------|
C|--------|--------|--------|-------------------------------------------------|-------------------------------------------------|
G|--------|--------|--------|-------------------------5--5--5--5--4--4--4--4--|-3--3--3--3--3--3--3--3--------------------------|
C|--------|--------|--------|-3--3--3--3--3--3--3--3--------------------------|-------------------------0--0--0--0--1--1--1--1--|


D|-------------------------------------------------|-------------------------------------------------|
A|-------------------------------------------------|-------------------------------------------------|
F|-------------------------------------------------|-------------------------------------------------|
C|-------------------------------------------------|-------------------------------------------------|
G|-------------------------5--5--5--5--4--4--4--4--|-3--3--3--3--3--3--3--3--------------------------|
C|-3--3--3--3--3--3--3--3--------------------------|-------------------------0--0--0--0--1--1--1--1--|


D|-------------------------------------------------|-----------------------------------------|
A|-------------------------------------------------|-----------------------------------------|
F|-------------------------------------------------|-----------------------------------------|
C|-------------------------------------------------|-----------------------------------------|
G|-------------------------5--5--5--5--4--4--4--4--|-3--3--3--3--3--3--3--3--0---0---1---1---|
C|-3--3--3--3--3--3--3--3--------------------------|-------------------------0---0---1---1---|


D|---------------------------------|------------------------------|---------------------------------|
A|---------------------------------|------------------------------|---------------------------------|
F|---------------------------------|------------------------------|---------------------------------|
C|---------------------------------|------------------------------|---------------------------------|
G|-2---0-------8-------7-------5---|---------5---0-------12--10---|-8---0-------15------14------12--|
C|---------0-------0-------0-------|-0---0-----------0------------|---------0-------0-------0-------|


D|------------------------------|---------------------------------|------------------------------|
A|------------------------------|---------------------------------|------------------------------|
F|------------------------------|---------------------------------|------------------------------|
C|------------------------------|---------------------------------|------------------------------|
G|---------10--0-------14--12---|-2---0-------8-------7-------5---|---------5---0-------12--10---|
C|-0---0-----------0------------|---------0-------0-------0-------|-0---0-----------0------------|


D|---------------------------------|------------------------------|--------------------------------------|
A|---------------------------------|------------------------------|--------------------------------------|
F|---------------------------------|------------------------------|--------------------------------------|
C|---------------------------------|------------------------------|--------------------------------------|
G|-8---0-------15------14------12--|---------10--0-------14--12---|-0--0--0--0--0--0--0--0------12--10---|
C|---------0-------0-------0-------|-0---0-----------0------------|-0--0--0--0--0--0--0--0---------------|


D|--------------------------------------|-------------------------------------|------------------------------|
A|--------------------------------------|-------------------------------------|------------------------------|
F|--------------------------------------|-------------------------------------|------------------------------|
C|--------------------------------------|-------------------------------------|------------------------------|
G|-0--0--0--0--0--0--0--0------14--12---|-0--0--0--0--0---0---14--12------12--|-10---------------------------|
C|-0--0--0--0--0--0--0--0---------------|-0--0--0--0--0---0-----------16------|-----14--12--10--10--12--12---|


D|--------------------------------------|--------------------------------------|-------------------------------------|
A|--------------------------------------|--------------------------------------|-------------------------------------|
F|--------------------------------------|--------------------------------------|-------------------------------------|
C|--------------------------------------|--------------------------------------|-------------------------------------|
G|-0--0--0--0--0--0--0--0------12--10---|-0--0--0--0--0--0--0--0------14--12---|-0--0--0--0--0---0---14--12------12--|
C|-0--0--0--0--0--0--0--0---------------|-0--0--0--0--0--0--0--0---------------|-0--0--0--0--0---0-----------16------|


D|------------------------------|--------|--------|--------|--------|--------|--------|
A|------------------------------|--------|--------|--------|--------|--------|--------|
F|------------------------------|--------|--------|--------|--------|--------|--------|
C|------------------------------|--------|--------|--------|--------|--------|--------|
G|-10---------------------------|--------|--------|--------|--------|--------|--------|
C|-----14--12--10--10--12--12---|--------|--------|--------|--------|--------|--------|


D|--------|--------|--------|--------|--------|--------|--------|--------|--------|
A|--------|--------|--------|--------|--------|--------|--------|--------|--------|
F|--------|--------|--------|--------|--------|--------|--------|--------|--------|
C|--------|--------|--------|--------|--------|--------|--------|--------|--------|
G|--------|--------|--------|--------|--------|--------|--------|--------|--------|
C|--------|--------|--------|--------|--------|--------|--------|--------|--------|


D|--------|--------|--------|--------|--------|---------------------|--------|---------------------|
A|--------|--------|--------|--------|--------|---------------------|--------|---------------------|
F|--------|--------|--------|--------|--------|---------------------|--------|---------------------|
C|--------|--------|--------|--------|--------|---------------------|--------|---------------------|
G|--------|--------|--------|--------|--------|-3----6----5----4----|--------|-0----3----2----1----|
C|--------|--------|--------|--------|--------|-3----6----5----4----|--------|-0----3----2----1----|


D|--------|---------------------|---------------------------|---------------------------|
A|--------|---------------------|---------------------------|---------------------------|
F|--------|---------------------|---------------------------|---------------------------|
C|--------|---------------------|---------6------------4----|---------2------------8----|
G|--------|-6----9----8----7----|-0---5--------0---3--------|-0---1--------0---7--------|
C|--------|-6----9----8----7----|-0---5--------0---3--------|-0---1--------0---7--------|


D|--------|--------|-------------------------------------------------|-------------------------------------------------|
A|--------|--------|-------------------------------------------------|-------------------------------------------------|
F|--------|--------|-------------------------------------------------|-------------------------------------------------|
C|--------|--------|-------------------------------------------------|-------------------------------------------------|
G|--------|--------|-------------7--7--7--7--------------------------|-------------------------4--4--4--4--5--5--5--5--|
C|--------|--------|-0--0--0--0--------------8--8--8--8--7--7--7--7--|-3--3--3--3--3--3--3--3--------------------------|


D|-------------------------------------------------|-------------------------------------------------|
A|-------------------------------------------------|-------------------------------------------------|
F|-------------------------------------------------|-------------------------------------------------|
C|-------------------------------------------------|-------------------------------------------------|
G|-------------7--7--7--7--------------------------|-------------------------4--4--4--4--5--5--5--5--|
C|-0--0--0--0--------------8--8--8--8--7--7--7--7--|-3--3--3--3--3--3--3--3--------------------------|


D|-------------------------------------------------|-------------------------------------------------|
A|-------------------------------------------------|-------------------------------------------------|
F|-------------------------------------------------|-------------------------------------------------|
C|-------------------------------------------------|-------------------------------------------------|
G|-------------------------------------------------|-------------------------------------------------|
C|-0--0--0--0--0--0--0--0--4--4--3--3--3--3--3--3--|-4--4--6--6--6--6--4--4--3--3--0--0--0--0--0--0--|


D|-------------------------------------------------|-------------------------------------------------|
A|-------------------------------------------------|-------------------------------------------------|
F|-------------------------------------------------|-------------------------------------------------|
C|-------------------------------------------------|-------------------------------------------------|
G|-------------------------------------------------|-------------------------------------------------|
C|-0--0--0--0--0--0--0--0--4--4--3--3--3--3--3--3--|-4--4--6--6--6--6--4--4--3--3--0--0--0--0--0--0--|


D|-------------------------------------------------|-------------------------------------------------|
A|-------------------------------------------------|-------------------------------------------------|
F|-------------------------------------------------|-------------------------------------------------|
C|-------------------------------------------------|-------------------------------------------------|
G|-------------------------------------------------|-------------------------------------------------|
C|-0--0--0--0--0--0--0--0--4--4--3--3--3--3--3--3--|-4--4--6--6--6--6--4--4--3--3--0--0--0--0--0--0--|


D|-------------------------------------------------|-------------------------------------------------|
A|-------------------------------------------------|-------------------------------------------------|
F|-------------------------------------------------|-------------------------------------------------|
C|-------------------------------------------------|-------------------------------------------------|
G|-------------------------------------------------|-------------------------------------------------|
C|-0--0--0--0--0--0--0--0--4--4--3--3--3--3--3--3--|-4--4--6--6--6--6--4--4--3--3--0--0--0--0--0--0--|


D|-------------------------------------------------|-------------------------------------------------|
A|-------------------------------------------------|-------------------------------------------------|
F|-------------------------------------------------|-------------------------------------------------|
C|-------------------------------------------------|-------------------------------------------------|
G|-------------7--7--7--7--------------------------|-------------------------4--4--4--4--5--5--5--5--|
C|-0--0--0--0--------------8--8--8--8--7--7--7--7--|-3--3--3--3--3--3--3--3--------------------------|


D|-------------------------------------------------|-----------------------------------|
A|-------------------------------------------------|-----------------------------------|
F|-------------------------------------------------|-------------------------6---------|
C|-------------------------------------------------|-------------------------6----0----|
G|-------------7--7--7--7--------------------------|-------------------------4----0----|
C|-0--0--0--0--------------8--8--8--8--7--7--7--7--|-3--3--3--3--3--3--3--3-------0----|


D|---------------------------------|------------------------------|---------------------------------|
A|---------------------------------|------------------------------|---------------------------------|
F|---------------------------------|------------------------------|---------------------------------|
C|---------------------------------|------------------------------|---------------------------------|
G|-2---0-------8-------7-------5---|---------5---0-------12--10---|-8---0-------15------14------12--|
C|---------0-------0-------0-------|-0---0-----------0------------|---------0-------0-------0-------|


D|------------------------------|---------------------------------|------------------------------|
A|------------------------------|---------------------------------|------------------------------|
F|------------------------------|---------------------------------|------------------------------|
C|------------------------------|---------------------------------|------------------------------|
G|---------10--0-------14--12---|-2---0-------8-------7-------5---|---------5---0-------12--10---|
C|-0---0-----------0------------|---------0-------0-------0-------|-0---0-----------0------------|


D|---------------------------------|------------------------------|--------------------------------------|
A|---------------------------------|------------------------------|--------------------------------------|
F|---------------------------------|------------------------------|--------------------------------------|
C|---------------------------------|------------------------------|--------------------------------------|
G|-8---0-------15------14------12--|---------10--0-------14--12---|-0--0--0--0--0--0--0--0------12--10---|
C|---------0-------0-------0-------|-0---0-----------0------------|-0--0--0--0--0--0--0--0---------------|


D|--------------------------------------|-------------------------------------|------------------------------|
A|--------------------------------------|-------------------------------------|------------------------------|
F|--------------------------------------|-------------------------------------|------------------------------|
C|--------------------------------------|-------------------------------------|------------------------------|
G|-0--0--0--0--0--0--0--0------14--12---|-0--0--0--0--0---0---14--12------12--|-10---------------------------|
C|-0--0--0--0--0--0--0--0---------------|-0--0--0--0--0---0-----------16------|-----14--12--10--10--12--12---|


D|--------------------------------------|--------------------------------------|-------------------------------------|
A|--------------------------------------|--------------------------------------|-------------------------------------|
F|--------------------------------------|--------------------------------------|-------------------------------------|
C|--------------------------------------|--------------------------------------|-------------------------------------|
G|-0--0--0--0--0--0--0--0------12--10---|-0--0--0--0--0--0--0--0------14--12---|-0--0--0--0--0---0---14--12------12--|
C|-0--0--0--0--0--0--0--0---------------|-0--0--0--0--0--0--0--0---------------|-0--0--0--0--0---0-----------16------|


D|------------------------------|--------|--------|--------|--------|--------|--------|
A|------------------------------|--------|--------|--------|--------|--------|--------|
F|------------------------------|--------|--------|--------|--------|--------|--------|
C|------------------------------|--------|--------|--------|--------|--------|--------|
G|-10---------------------------|--------|--------|--------|--------|--------|--------|
C|-----14--12--10--10--12--12---|--------|--------|--------|--------|--------|--------|


D|--------|--------|--------|--------|
A|--------|--------|--------|--------|
F|--------|--------|--------|--------|
C|--------|--------|--------|--------|
G|--------|--------|--------|--------|
C|--------|--------|--------|--------|





Track 3: drums

F|--------|--------|--------|--------|-0---0-----------0-----------0---|---------0---0-------0---0----|
C|--------|--------|--------|--------|---------------------------------|---------------------0---0----|
G|--------|--------|--------|--------|---------0---0-------0---0-------|-0---0-----------0------------|
C|--------|--------|--------|--------|---------------------------------|------------------------------|


F|-0---0-----------0-----------0---|---------0---0-------0---0----|-0---0-----------0-----------0---|
C|---------------------------------|---------------------0---0----|---------------------------------|
G|---------0---0-------0---0-------|-0---0-----------0------------|---------0---0-------0---0-------|
C|---------------------------------|------------------------------|---------------------------------|


F|---------0---0-------0---0----|-0---0-----------0-----------0---|---------0---0-------0---0----|
C|---------------------0---0----|---------------------------------|---------------------0---0----|
G|-0---0-----------0------------|---------0---0-------0---0-------|-0---0-----------0------------|
C|------------------------------|---------------------------------|------------------------------|


F|-0---0-----------0-----------0---|---------0---0-------0---0----|-0---0-----------0-----------0---|
C|---------------------------------|---------------------0---0----|---------------------------------|
G|---------0---0-------0---0-------|-0---0-----------0------------|---------0---0-------0---0-------|
C|---------------------------------|------------------------------|---------------------------------|


F|---------0---0-------0---0----|-----------------------------0---0----|-----------------------------0---0----|
C|---------------------0---0----|-----------------------------0---0----|-----------------------------0---0----|
G|-0---0-----------0------------|-0--0--0--0--0--0--0--0---------------|-0--0--0--0--0--0--0--0---------------|
C|------------------------------|--------------------------------------|--------------------------------------|


F|---------------------0---0-------0---|-0---------------0-------0-------|-----------------------------0---0----|
C|-------------------------------------|-------------------------0-------|-----------------------------0---0----|
G|-0--0--0--0--0---0---0---0---0---0---|-0---0---0---0---0---0-------0---|-0--0--0--0--0--0--0--0---------------|
C|-------------------------------------|---------------------------------|--------------------------------------|


F|-----------------------------0---0----|---------------------0---0-------0---|-0---------------0-------0-------|
C|-----------------------------0---0----|-------------------------------------|-------------------------0-------|
G|-0--0--0--0--0--0--0--0---------------|-0--0--0--0--0---0---0---0---0---0---|-0---0---0---0---0---0-------0---|
C|--------------------------------------|-------------------------------------|---------------------------------|


F|---------------------------------0-------|---------------------------------0-------|
C|-----------------------------------------|-----------------------------------------|
G|-0--0--0--0--0--0--0--0--0---0---0---0---|-0--0--0--0--0--0--0--0--0---0---0---0---|
C|-----------------------------------------|-----------------------------------------|


F|-0-----0-----0-----0-----0-----0-----0-----0-----|-0-----0-----0-----0-----0-----0-----0-----0-----|
C|-------------------------------------------------|-------------------------------------------------|
G|-0--0--0--0--0--0--0--0--0--0--0--0--0--0--0--0--|-0--0--0--0--0--0--0--0--0--0--0--0--0--0--0--0--|
C|-------------------------------------------------|-------------------------------------------------|


F|---------------------------------0-------|---------------------------------0-------|
C|-----------------------------------------|-----------------------------------------|
G|-0--0--0--0--0--0--0--0--0---0---0---0---|-0--0--0--0--0--0--0--0--0---0---0---0---|
C|-----------------------------------------|-----------------------------------------|


F|-0-----0-----0-----0-----0-----0-----0-----0-----|-0-----0-----0-----0-----0-----0-----0-----0-----|
C|-------------------------------------------------|-------------------------------------------------|
G|-0--0--0--0--0--0--0--0--0--0--0--0--0--0--0--0--|-0--0--0--0--0--0--0--0--0--0--0--0--0--0--0--0--|
C|-------------------------------------------------|-------------------------------------------------|


F|-0---0-----------0-----------0---|---------0---0-------0---0----|-0---0-----------0-----------0---|
C|---------------------------------|---------------------0---0----|---------------------------------|
G|---------0---0-------0---0-------|-0---0-----------0------------|---------0---0-------0---0-------|
C|---------------------------------|------------------------------|---------------------------------|


F|---------0---0-------0---0----|-0---0-----------0-----------0---|---------0---0-------0---0----|
C|---------------------0---0----|---------------------------------|---------------------0---0----|
G|-0---0-----------0------------|---------0---0-------0---0-------|-0---0-----------0------------|
C|------------------------------|---------------------------------|------------------------------|


F|-0---0-----------0-----------0---|---------0---0-------0---0----|-----------------------------0---0----|
C|---------------------------------|---------------------0---0----|-----------------------------0---0----|
G|---------0---0-------0---0-------|-0---0-----------0------------|-0--0--0--0--0--0--0--0---------------|
C|---------------------------------|------------------------------|--------------------------------------|


F|-----------------------------0---0----|---------------------0---0-------0---|-0---------------0-------0-------|
C|-----------------------------0---0----|-------------------------------------|-------------------------0-------|
G|-0--0--0--0--0--0--0--0---------------|-0--0--0--0--0---0---0---0---0---0---|-0---0---0---0---0---0-------0---|
C|--------------------------------------|-------------------------------------|---------------------------------|


F|-----------------------------0---0----|-----------------------------0---0----|---------------------0---0-------0---|
C|-----------------------------0---0----|-----------------------------0---0----|-------------------------------------|
G|-0--0--0--0--0--0--0--0---------------|-0--0--0--0--0--0--0--0---------------|-0--0--0--0--0---0---0---0---0---0---|
C|--------------------------------------|--------------------------------------|-------------------------------------|


F|-0---------------0-------0-------|---------------------------------0-------|---------------------------------0-------|
C|-------------------------0-------|-----------------------------------------|-----------------------------------------|
G|-0---0---0---0---0---0-------0---|-0--0--0--0--0--0--0--0--0---0---0---0---|-0--0--0--0--0--0--0--0--0---0---0---0---|
C|---------------------------------|-----------------------------------------|-----------------------------------------|


F|-0-----0-----0-----0-----0-----0-----0-----0-----|-0-----0-----0-----0-----0-----0-----0-----0-----|
C|-------------------------------------------------|-------------------------------------------------|
G|-0--0--0--0--0--0--0--0--0--0--0--0--0--0--0--0--|-0--0--0--0--0--0--0--0--0--0--0--0--0--0--0--0--|
C|-------------------------------------------------|-------------------------------------------------|


F|---------------------------------0-------|---------------------------------0-------|
C|-----------------------------------------|-----------------------------------------|
G|-0--0--0--0--0--0--0--0--0---0---0---0---|-0--0--0--0--0--0--0--0--0---0---0---0---|
C|-----------------------------------------|-----------------------------------------|


F|-0-----0-----0-----0-----0-----0-----0-----0-----|-0-----0-----0-----0-----0-----0-----0-----0-----|
C|-------------------------------------------------|-------------------------------------------------|
G|-0--0--0--0--0--0--0--0--0--0--0--0--0--0--0--0--|-0--0--0--0--0--0--0--0--0--0--0--0--0--0--0--0--|
C|-------------------------------------------------|-------------------------------------------------|


F|-0-----0-----0-----0-----0-----0-----0-----0-----|-0-----0-----0-----0-----0-----0-----0-----0-----|
C|-------------------------------------------------|-------------------------------------------------|
G|-0--0--0--0--0--0--0--0--0--0--0--0--0--0--0--0--|-0--0--0--0--0--0--0--0--0--0--0--0--0--0--0--0--|
C|-------------------------------------------------|-------------------------------------------------|


F|-0-----0-----0-----0-----0-----0-----0-----0-----|-0-----0-----0-----0-----0-----0-----0-----0-----|
C|-------------------------------------------------|-------------------------------------------------|
G|-0--0--0--0--0--0--0--0--0--0--0--0--0--0--0--0--|-0--0--0--0--0--0--0--0--0--0--0--0--0--0--0--0--|
C|-------------------------------------------------|-------------------------------------------------|


F|-0-----0-----0-----0-----0-----0-----0-----0-----|-0-----0-----0-----0-----0-----0-----0-----0-----|
C|-------------------------------------------------|-------------------------------------------------|
G|-0--0--0--0--0--0--0--0--0--0--0--0--0--0--0--0--|-0--0--0--0--0--0--0--0--0--0--0--0--0--0--0--0--|
C|-------------------------------------------------|-------------------------------------------------|


F|-0-----0-----0-----0-----0-----0-----0-----0-----|-0-----0-----0-----0-----0-----0-----0-----0-----|
C|-------------------------------------------------|-------------------------------------------------|
G|-0--0--0--0--0--0--0--0--0--0--0--0--0--0--0--0--|-0--0--0--0--0--0--0--0--0--0--0--0--0--0--0--0--|
C|-------------------------------------------------|-------------------------------------------------|


F|-0-----0-----0-----0-----0-----0-----0-----0-----|-0-----0-----0-----0-----0---0---0---0---|
C|-------------------------------------------------|-------------------------0---0---0---0---|
G|-0--0--0--0--0--0--0--0--0--0--0--0--0--0--0--0--|-0--0--0--0--0--0--0--0--0---0---0---0---|
C|-------------------------------------------------|-----------------------------------------|


F|-0---0-----------0-----------0---|---------0---0-------0---0----|-0---0-----------0-----------0---|
C|---------------------------------|---------------------0---0----|---------------------------------|
G|---------0---0-------0---0-------|-0---0-----------0------------|---------0---0-------0---0-------|
C|---------------------------------|------------------------------|---------------------------------|


F|---------0---0-------0---0----|-0---0-----------0-----------0---|---------0---0-------0---0----|
C|---------------------0---0----|---------------------------------|---------------------0---0----|
G|-0---0-----------0------------|---------0---0-------0---0-------|-0---0-----------0------------|
C|------------------------------|---------------------------------|------------------------------|


F|-0---0-----------0-----------0---|---------0---0-------0---0----|-----------------------------0---0----|
C|---------------------------------|---------------------0---0----|-----------------------------0---0----|
G|---------0---0-------0---0-------|-0---0-----------0------------|-0--0--0--0--0--0--0--0---------------|
C|---------------------------------|------------------------------|--------------------------------------|


F|-----------------------------0---0----|---------------------0---0-------0---|-0---------------0-------0-------|
C|-----------------------------0---0----|-------------------------------------|-------------------------0-------|
G|-0--0--0--0--0--0--0--0---------------|-0--0--0--0--0---0---0---0---0---0---|-0---0---0---0---0---0-------0---|
C|--------------------------------------|-------------------------------------|---------------------------------|


F|-----------------------------0---0----|-----------------------------0---0----|---------------------0---0-------0---|
C|-----------------------------0---0----|-----------------------------0---0----|-------------------------------------|
G|-0--0--0--0--0--0--0--0---------------|-0--0--0--0--0--0--0--0---------------|-0--0--0--0--0---0---0---0---0---0---|
C|--------------------------------------|--------------------------------------|-------------------------------------|


F|-0---------------0-------0-------|-------------------------------|-------------------------------|
C|-------------------------0-------|-------------------------------|-------------------------------|
G|-0---0---0---0---0---0-------0---|-0--0--0--0--0--0--0--0--------|-0--0--0--0--0--0--0--0--------|
C|---------------------------------|-------------------------------|-------------------------------|


F|-------------0---0-------------------|-0---------0---------|-0---------0---------|
C|---------------------0---0-----------|---------------------|---------------------|
G|-0--0--0--0--0---0---0---0---0---0---|-0----0----0----0----|-0----0----0----0----|
C|-------------------------------------|---------------------|---------------------|


F|-0---------0---------|---------0------------0----|-0---------0---------|-0---------0---------|
C|---------------------|-0---0--------0---0--------|---------------------|---------------------|
G|-0----0----0----0----|-0---0---0----0---0---0----|-0----0----0----0----|-0----0----0----0----|
C|---------------------|---------------------------|---------------------|---------------------|


F|-0---------0---------|---------0------------0----|-0---------------0---------------|
C|---------------------|-0---0--------0---0--------|---------------------------------|
G|-0----0----0----0----|-0---0---0----0---0---0----|-0---0---0---0---0---0---0---0---|
C|---------------------|---------------------------|---------------------------------|


F|-0---------------0---------------|-0---------------0---------------|---------0------------0----|
C|---------------------------------|---------------------------------|-0---0--------0---0--------|
G|-0---0---0---0---0---0---0---0---|-0---0---0---0---0---0---0---0---|-0---0---0----0---0---0----|
C|---------------------------------|---------------------------------|---------------------------|


F|-0---------------0---------------|-0---------------0---------------|-0---------------0---------------|
C|---------------------------------|---------------------------------|---------------------------------|
G|-0---0---0---0---0---0---0---0---|-0---0---0---0---0---0---0---0---|-0---0---0---0---0---0---0---0---|
C|---------------------------------|---------------------------------|---------------------------------|


F|---------0------------0----|--------|--------|--------|--------|--------|--------|
C|-0---0--------0---0--------|--------|--------|--------|--------|--------|--------|
G|-0---0---0----0---0---0----|--------|--------|--------|--------|--------|--------|
C|---------------------------|--------|--------|--------|--------|--------|--------|


F|---------0------------0----|---------0------------0----|-0--0--0--0--0--0--0--0--------------------------|
C|-0---0--------0---0--------|-0---0--------0---0--------|-------------------------0--0--0--0--------------|
G|-0---0---0----0---0---0----|-0---0---0----0---0---0----|-------------------------------------0--0--0--0--|
C|---------------------------|---------------------------|-------------------------------------------------|


F|-0--0--0--0--0--0--0--0--------------------------|-0-----0-----0-----0-----0-----0-----0-----0-----|
C|-------------------------0--0--0--0--------------|-------------------------------------------------|
G|-------------------------------------0--0--0--0--|-0--0--0--0--0--0--0--0--0--0--0--0--0--0--0--0--|
C|-------------------------------------------------|-------------------------------------------------|


F|-0-----0-----0-----0-----0-----0-----0-----0-----|-0-----0-----0-----0-----0-----0-----0-----0-----|
C|-------------------------------------------------|-------------------------------------------------|
G|-0--0--0--0--0--0--0--0--0--0--0--0--0--0--0--0--|-0--0--0--0--0--0--0--0--0--0--0--0--0--0--0--0--|
C|-------------------------------------------------|-------------------------------------------------|


F|-0-----0-----0-----0-----0-----0-----0-----0-----|-0-----------0-----------0-----0-----0-----------|
C|-------------------------------------------------|-------------------------------------------------|
G|-0--0--0--0--0--0--0--0--0--0--0--0--0--0--0--0--|-0--0--0--0--0--0--0--0--0--0--0--0--0--0--0--0--|
C|-------------------------------------------------|-------------------------------------------------|


F|-0-----0-----------0-----0-----0-----0-----------|-0-----------0-----------0-----0-----0-----------|
C|-------------------------------------------------|-------------------------------------------------|
G|-0--0--0--0--0--0--0--0--0--0--0--0--0--0--0--0--|-0--0--0--0--0--0--0--0--0--0--0--0--0--0--0--0--|
C|-------------------------------------------------|-------------------------------------------------|


F|-0-----0-----------0-----0-----0-----0-----------|-0-----------0-----------0-----0-----0-----------|
C|-------------------------------------------------|-------------------------------------------------|
G|-0--0--0--0--0--0--0--0--0--0--0--0--0--0--0--0--|-0--0--0--0--0--0--0--0--0--0--0--0--0--0--0--0--|
C|-------------------------------------------------|-------------------------------------------------|


F|-0-----0-----------0-----0-----0-----0-----------|-0-----------0-----------0-----0-----0-----------|
C|-------------------------------------------------|-------------------------------------------------|
G|-0--0--0--0--0--0--0--0--0--0--0--0--0--0--0--0--|-0--0--0--0--0--0--0--0--0--0--0--0--0--0--0--0--|
C|-------------------------------------------------|-------------------------------------------------|


F|-0-----0-----------0-----0-----0-----0-----------|-0-----0-----0-----0-----0-----0-----0-----0-----|
C|-------------------------------------------------|-------------------------------------------------|
G|-0--0--0--0--0--0--0--0--0--0--0--0--0--0--0--0--|-0--0--0--0--0--0--0--0--0--0--0--0--0--0--0--0--|
C|-------------------------------------------------|-------------------------------------------------|


F|-0-----0-----0-----0-----0-----0-----0-----0-----|-0-----0-----0-----0-----0-----0-----0-----0-----|
C|-------------------------------------------------|-------------------------------------------------|
G|-0--0--0--0--0--0--0--0--0--0--0--0--0--0--0--0--|-0--0--0--0--0--0--0--0--0--0--0--0--0--0--0--0--|
C|-------------------------------------------------|-------------------------------------------------|


F|-0-----0-----0-----0-----0----0----|-0---0-----------0-----------0---|---------0---0-------0---0----|
C|-------------------------0----0----|---------------------------------|---------------------0---0----|
G|-0--0--0--0--0--0--0--0--0----0----|---------0---0-------0---0-------|-0---0-----------0------------|
C|-----------------------------------|---------------------------------|------------------------------|


F|-0---0-----------0-----------0---|---------0---0-------0---0----|-0---0-----------0-----------0---|
C|---------------------------------|---------------------0---0----|---------------------------------|
G|---------0---0-------0---0-------|-0---0-----------0------------|---------0---0-------0---0-------|
C|---------------------------------|------------------------------|---------------------------------|


F|---------0---0-------0---0----|-0---0-----------0-----------0---|---------0---0-------0---0----|
C|---------------------0---0----|---------------------------------|---------------------0---0----|
G|-0---0-----------0------------|---------0---0-------0---0-------|-0---0-----------0------------|
C|------------------------------|---------------------------------|------------------------------|


F|-----------------------------0---0----|-----------------------------0---0----|---------------------0---0-------0---|
C|-----------------------------0---0----|-----------------------------0---0----|-------------------------------------|
G|-0--0--0--0--0--0--0--0---------------|-0--0--0--0--0--0--0--0---------------|-0--0--0--0--0---0---0---0---0---0---|
C|--------------------------------------|--------------------------------------|-------------------------------------|


F|-0---------------0-------0-------|-----------------------------0---0----|-----------------------------0---0----|
C|-------------------------0-------|-----------------------------0---0----|-----------------------------0---0----|
G|-0---0---0---0---0---0-------0---|-0--0--0--0--0--0--0--0---------------|-0--0--0--0--0--0--0--0---------------|
C|---------------------------------|--------------------------------------|--------------------------------------|


F|---------------------0---0-------0---|-0---------------0-------0-------|---------------------------------0-------|
C|-------------------------------------|-------------------------0-------|-----------------------------------------|
G|-0--0--0--0--0---0---0---0---0---0---|-0---0---0---0---0---0-------0---|-0--0--0--0--0--0--0--0--0---0---0---0---|
C|-------------------------------------|---------------------------------|-----------------------------------------|


F|---------------------------------0-------|-0-----0-----0-----0-----0-----0-----0-----0-----|
C|-----------------------------------------|-------------------------------------------------|
G|-0--0--0--0--0--0--0--0--0---0---0---0---|-0--0--0--0--0--0--0--0--0--0--0--0--0--0--0--0--|
C|-----------------------------------------|-------------------------------------------------|


F|-0-----0-----0-----0-----0-----0-----0-----0-----|---------------------------------0-------|
C|-------------------------------------------------|-----------------------------------------|
G|-0--0--0--0--0--0--0--0--0--0--0--0--0--0--0--0--|-0--0--0--0--0--0--0--0--0---0---0---0---|
C|-------------------------------------------------|-----------------------------------------|


F|---------------------------------0-------|-0-----0-----0-----0-----0-----0-----0-----0-----|
C|-----------------------------------------|-------------------------------------------------|
G|-0--0--0--0--0--0--0--0--0---0---0---0---|-0--0--0--0--0--0--0--0--0--0--0--0--0--0--0--0--|
C|-----------------------------------------|-------------------------------------------------|


F|-0-----0-----0-----0-----0-----0-----0-----0-----|---------------------------------0-------|
C|-------------------------------------------------|-----------------------------------------|
G|-0--0--0--0--0--0--0--0--0--0--0--0--0--0--0--0--|-0--0--0--0--0--0--0--0--0---0---0---0---|
C|-------------------------------------------------|-----------------------------------------|


F|-------------------------------|
C|-------------------------------|
G|-0--0--0--0--0--0--0--0--------|
C|-------------------------------|





Track 4: bass

F|--------|--------|--------|--------|---------------------------------|------------------------------|
C|--------|--------|--------|--------|---------------------------------|------------------------------|
G|--------|--------|--------|--------|-2---0-------8-------7-------5---|---------5---0-------12--10---|
C|--------|--------|--------|--------|---------0-------0-------0-------|-0---0-----------0------------|


F|---------------------------------|------------------------------|---------------------------------|
C|---------------------------------|------------------------------|---------------------------------|
G|-8---0-------15------14------12--|---------10--0-------14--12---|-2---0-------8-------7-------5---|
C|---------0-------0-------0-------|-0---0-----------0------------|---------0-------0-------0-------|


F|------------------------------|---------------------------------|------------------------------|
C|------------------------------|---------------------------------|------------------------------|
G|---------5---0-------12--10---|-8---0-------15------14------12--|---------10--0-------14--12---|
C|-0---0-----------0------------|---------0-------0-------0-------|-0---0-----------0------------|


F|---------------------------------|------------------------------|---------------------------------|
C|---------------------------------|------------------------------|---------------------------------|
G|-2---0-------8-------7-------5---|---------5---0-------12--10---|-8---0-------15------14------12--|
C|---------0-------0-------0-------|-0---0-----------0------------|---------0-------0-------0-------|


F|------------------------------|--------------------------------------|--------------------------------------|
C|------------------------------|--------------------------------------|--------------------------------------|
G|---------10--0-------14--12---|-----------------------------12--10---|-----------------------------14--12---|
C|-0---0-----------0------------|-0--0--0--0--0--0--0--0---------------|-0--0--0--0--0--0--0--0---------------|


F|-------------------------------------|------------------------------|--------------------------------------|
C|-------------------------------------|-5----------------------------|--------------------------------------|
G|---------------------2---0-------0---|-----7-------3---3---5---5----|-----------------------------12--10---|
C|-0--0--0--0--0---0-----------4-------|---------0--------------------|-0--0--0--0--0--0--0--0---------------|


F|--------------------------------------|-------------------------------------|------------------------------|
C|--------------------------------------|-------------------------------------|-5----------------------------|
G|-----------------------------14--12---|---------------------2---0-------0---|-----7-------3---3---5---5----|
C|-0--0--0--0--0--0--0--0---------------|-0--0--0--0--0---0-----------4-------|---------0--------------------|


F|-------------------------------|-------------------------------|-------------------------------------------------|
C|-------------------------------|-------------------------------|-------------------------------------------------|
G|-------------------------------|-------------------------------|-------------------------------------------------|
C|-0--0--0--0--0--0--0--0--------|-0--0--0--0--0--0--0--0--------|-6--6--6--6--6--6--6--6--6--6--6--6--8--8--8--8--|


F|-------------------------------------------------|-------------------------------|
C|-------------------------------------------------|-------------------------------|
G|-------------------------------------------------|-------------------------------|
C|-4--4--4--4--4--4--4--4--7--7--7--7--9--9--9--9--|-0--0--0--0--0--0--0--0--------|


F|-------------------------------|-------------------------------------------------|
C|-------------------------------|-------------------------------------------------|
G|-------------------------------|-------------------------------------------------|
C|-0--0--0--0--0--0--0--0--------|-6--6--6--6--6--6--6--6--6--6--6--6--8--8--8--8--|


F|-------------------------------------------------|---------------------------------|
C|-------------------------------------------------|---------------------------------|
G|-------------------------------------------------|-2---0-------8-------7-------5---|
C|-4--4--4--4--4--4--4--4--7--7--7--7--9--9--9--9--|---------0-------0-------0-------|


F|------------------------------|---------------------------------|------------------------------|
C|------------------------------|---------------------------------|------------------------------|
G|---------5---0-------12--10---|-8---0-------15------14------12--|---------10--0-------14--12---|
C|-0---0-----------0------------|---------0-------0-------0-------|-0---0-----------0------------|


F|---------------------------------|------------------------------|---------------------------------|
C|---------------------------------|------------------------------|---------------------------------|
G|-2---0-------8-------7-------5---|---------5---0-------12--10---|-8---0-------15------14------12--|
C|---------0-------0-------0-------|-0---0-----------0------------|---------0-------0-------0-------|


F|------------------------------|--------------------------------------|--------------------------------------|
C|------------------------------|--------------------------------------|--------------------------------------|
G|---------10--0-------14--12---|-----------------------------12--10---|-----------------------------14--12---|
C|-0---0-----------0------------|-0--0--0--0--0--0--0--0---------------|-0--0--0--0--0--0--0--0---------------|


F|-------------------------------------|------------------------------|--------------------------------------|
C|-------------------------------------|-5----------------------------|--------------------------------------|
G|---------------------2---0-------0---|-----7-------3---3---5---5----|-----------------------------12--10---|
C|-0--0--0--0--0---0-----------4-------|---------0--------------------|-0--0--0--0--0--0--0--0---------------|


F|--------------------------------------|-------------------------------------|------------------------------|
C|--------------------------------------|-------------------------------------|-5----------------------------|
G|-----------------------------14--12---|---------------------2---0-------0---|-----7-------3---3---5---5----|
C|-0--0--0--0--0--0--0--0---------------|-0--0--0--0--0---0-----------4-------|---------0--------------------|


F|-------------------------------|-------------------------------|-------------------------------------------------|
C|-------------------------------|-------------------------------|-------------------------------------------------|
G|-------------------------------|-------------------------------|-------------------------------------------------|
C|-0--0--0--0--0--0--0--0--------|-0--0--0--0--0--0--0--0--------|-6--6--6--6--6--6--6--6--6--6--6--6--8--8--8--8--|


F|-------------------------------------------------|-------------------------------|
C|-------------------------------------------------|-------------------------------|
G|-------------------------------------------------|-------------------------------|
C|-4--4--4--4--4--4--4--4--7--7--7--7--9--9--9--9--|-0--0--0--0--0--0--0--0--------|


F|-------------------------------|-------------------------------------------------|
C|-------------------------------|-------------------------------------------------|
G|-------------------------------|-------------------------------------------------|
C|-0--0--0--0--0--0--0--0--------|-6--6--6--6--6--6--6--6--6--6--6--6--8--8--8--8--|


F|-------------------------------------------------|-------------------------------------------------|
C|-------------------------------------------------|-------------------------------------------------|
G|-------------------------------------------------|-------------------------------------------------|
C|-4--4--4--4--4--4--4--4--7--7--7--7--9--9--9--9--|-11-11-11-11-11-11-11-11-11-11-11-11-13-13-13-13-|


F|-------------------------------------------------|-------------------------------------------------|
C|-------------------------------------------------|-------------------------------------------------|
G|-------------------------------------------------|-------------------------5--5--5--5--4--4--4--4--|
C|-9--9--9--9--9--9--9--9--0--0--0--0--1--1--1--1--|-3--3--3--3--3--3--3--3--------------------------|


F|-------------------------------------------------|-------------------------------------------------|
C|-------------------------------------------------|-------------------------------------------------|
G|-3--3--3--3--3--3--3--3--------------------------|-------------------------5--5--5--5--4--4--4--4--|
C|-------------------------0--0--0--0--1--1--1--1--|-3--3--3--3--3--3--3--3--------------------------|


F|-------------------------------------------------|-------------------------------------------------|
C|-------------------------------------------------|-------------------------------------------------|
G|-3--3--3--3--3--3--3--3--------------------------|-------------------------5--5--5--5--4--4--4--4--|
C|-------------------------0--0--0--0--1--1--1--1--|-3--3--3--3--3--3--3--3--------------------------|


F|-------------------------------------------------|-------------------------------------------------|
C|-------------------------------------------------|-------------------------------------------------|
G|-3--3--3--3--3--3--3--3--------------------------|-------------------------5--5--5--5--4--4--4--4--|
C|-------------------------0--0--0--0--1--1--1--1--|-3--3--3--3--3--3--3--3--------------------------|


F|-----------------------------------------|---------------------------------|------------------------------|
C|-----------------------------------------|---------------------------------|------------------------------|
G|-3--3--3--3--3--3--3--3------------------|-2---0-------8-------7-------5---|---------5---0-------12--10---|
C|-------------------------0---0---1---1---|---------0-------0-------0-------|-0---0-----------0------------|


F|---------------------------------|------------------------------|---------------------------------|
C|---------------------------------|------------------------------|---------------------------------|
G|-8---0-------15------14------12--|---------10--0-------14--12---|-2---0-------8-------7-------5---|
C|---------0-------0-------0-------|-0---0-----------0------------|---------0-------0-------0-------|


F|------------------------------|---------------------------------|------------------------------|
C|------------------------------|---------------------------------|------------------------------|
G|---------5---0-------12--10---|-8---0-------15------14------12--|---------10--0-------14--12---|
C|-0---0-----------0------------|---------0-------0-------0-------|-0---0-----------0------------|


F|--------------------------------------|--------------------------------------|-------------------------------------|
C|--------------------------------------|--------------------------------------|-------------------------------------|
G|-----------------------------12--10---|-----------------------------14--12---|---------------------2---0-------0---|
C|-0--0--0--0--0--0--0--0---------------|-0--0--0--0--0--0--0--0---------------|-0--0--0--0--0---0-----------4-------|


F|------------------------------|--------------------------------------|--------------------------------------|
C|-5----------------------------|--------------------------------------|--------------------------------------|
G|-----7-------3---3---5---5----|-----------------------------12--10---|-----------------------------14--12---|
C|---------0--------------------|-0--0--0--0--0--0--0--0---------------|-0--0--0--0--0--0--0--0---------------|


F|-------------------------------------|------------------------------|-------------------------------|
C|-------------------------------------|-5----------------------------|-------------------------------|
G|---------------------2---0-------0---|-----7-------3---3---5---5----|-------------------------------|
C|-0--0--0--0--0---0-----------4-------|---------0--------------------|-0--0--0--0--0--0--0--0--------|


F|-------------------------------|--------|---------------------|---------------------|
C|-------------------------------|--------|---------------------|---------------------|
G|-------------------------------|--------|---------------------|---------------------|
C|-0--0--0--0--0--0--0--0--------|--------|-0----3----2----1----|-3----6----5----4----|


F|---------------------|---------------------------|---------------------|---------------------|
C|---------------------|---------------------------|---------------------|---------------------|
G|---------------------|---------------------------|---------------------|---------------------|
C|-6----9----8----7----|-0---5---6----0---3---4----|-0----3----2----1----|-3----6----5----4----|


F|---------------------|---------------------------|---------------------------------|
C|---------------------|---------------------------|---------------------------------|
G|---------------------|---------------------------|---------------------------------|
C|-6----9----8----7----|-0---5---6----0---3---4----|-0---0---3---3---2---2---1---1---|


F|---------------------------------|---------------------------------|---------------------------|
C|---------------------------------|---------------------------------|---------------------------|
G|---------------------------------|---------------------------------|---------------------------|
C|-3---3---6---6---5---5---4---4---|-6---6---9---9---8---8---7---7---|-0---5---6----0---3---4----|


F|---------------------------------|---------------------------------|---------------------------------|
C|---------------------------------|---------------------------------|---------------------------------|
G|---------------------------------|---------------------------------|---------------------------------|
C|-0---0---3---3---2---2---1---1---|-3---3---6---6---5---5---4---4---|-6---6---9---9---8---8---7---7---|


F|---------------------------|--------|--------|--------|--------|--------|--------|
C|---------------------------|--------|--------|--------|--------|--------|--------|
G|---------------------------|--------|--------|--------|--------|--------|--------|
C|-0---5---6----0---3---4----|--------|--------|--------|--------|--------|--------|


F|---------------------------|---------------------------|--------|--------|-------------------------------------------------|
C|---------------------------|---------------------------|--------|--------|-------------------------------------------------|
G|---------------------------|---------------------------|--------|--------|-------------7--7--7--7--------------------------|
C|-0---5---6----0---3---4----|-0---1---2----0---7---8----|--------|--------|-0--0--0--0--------------8--8--8--8--7--7--7--7--|


F|-------------------------------------------------|-------------------------------------------------|
C|-------------------------------------------------|-------------------------------------------------|
G|-------------------------4--4--4--4--5--5--5--5--|-------------7--7--7--7--------------------------|
C|-3--3--3--3--3--3--3--3--------------------------|-0--0--0--0--------------8--8--8--8--7--7--7--7--|


F|-------------------------------------------------|-------------------------------------------------|
C|-------------------------------------------------|-------------------------------------------------|
G|-------------------------4--4--4--4--5--5--5--5--|-------------------------------------------------|
C|-3--3--3--3--3--3--3--3--------------------------|-0--0--0--0--0--0--0--0--4--4--3--3--3--3--3--3--|


F|-------------------------------------------------|-------------------------------------------------|
C|-------------------------------------------------|-------------------------------------------------|
G|-------------------------------------------------|-------------------------------------------------|
C|-4--4--6--6--6--6--4--4--3--3--0--0--0--0--0--0--|-0--0--0--0--0--0--0--0--4--4--3--3--3--3--3--3--|


F|-------------------------------------------------|-------------------------------------------------|
C|-------------------------------------------------|-------------------------------------------------|
G|-------------------------------------------------|-------------------------------------------------|
C|-4--4--6--6--6--6--4--4--3--3--0--0--0--0--0--0--|-0--0--0--0--0--0--0--0--4--4--3--3--3--3--3--3--|


F|-------------------------------------------------|-------------------------------------------------|
C|-------------------------------------------------|-------------------------------------------------|
G|-------------------------------------------------|-------------------------------------------------|
C|-4--4--6--6--6--6--4--4--3--3--0--0--0--0--0--0--|-0--0--0--0--0--0--0--0--4--4--3--3--3--3--3--3--|


F|-------------------------------------------------|-------------------------------------------------|
C|-------------------------------------------------|-------------------------------------------------|
G|-------------------------------------------------|-------------7--7--7--7--------------------------|
C|-4--4--6--6--6--6--4--4--3--3--0--0--0--0--0--0--|-0--0--0--0--------------8--8--8--8--7--7--7--7--|


F|-------------------------------------------------|-------------------------------------------------|
C|-------------------------------------------------|-------------------------------------------------|
G|-------------------------4--4--4--4--5--5--5--5--|-------------7--7--7--7--------------------------|
C|-3--3--3--3--3--3--3--3--------------------------|-0--0--0--0--------------8--8--8--8--7--7--7--7--|


F|-----------------------------------|---------------------------------|------------------------------|
C|-----------------------------------|---------------------------------|------------------------------|
G|-------------------------4---------|-2---0-------8-------7-------5---|---------5---0-------12--10---|
C|-3--3--3--3--3--3--3--3-------0----|---------0-------0-------0-------|-0---0-----------0------------|


F|---------------------------------|------------------------------|---------------------------------|
C|---------------------------------|------------------------------|---------------------------------|
G|-8---0-------15------14------12--|---------10--0-------14--12---|-2---0-------8-------7-------5---|
C|---------0-------0-------0-------|-0---0-----------0------------|---------0-------0-------0-------|


F|------------------------------|---------------------------------|------------------------------|
C|------------------------------|---------------------------------|------------------------------|
G|---------5---0-------12--10---|-8---0-------15------14------12--|---------10--0-------14--12---|
C|-0---0-----------0------------|---------0-------0-------0-------|-0---0-----------0------------|


F|--------------------------------------|--------------------------------------|-------------------------------------|
C|--------------------------------------|--------------------------------------|-------------------------------------|
G|-----------------------------12--10---|-----------------------------14--12---|---------------------2---0-------0---|
C|-0--0--0--0--0--0--0--0---------------|-0--0--0--0--0--0--0--0---------------|-0--0--0--0--0---0-----------4-------|


F|------------------------------|--------------------------------------|--------------------------------------|
C|-5----------------------------|--------------------------------------|--------------------------------------|
G|-----7-------3---3---5---5----|-----------------------------12--10---|-----------------------------14--12---|
C|---------0--------------------|-0--0--0--0--0--0--0--0---------------|-0--0--0--0--0--0--0--0---------------|


F|-------------------------------------|------------------------------|-------------------------------|
C|-------------------------------------|-5----------------------------|-------------------------------|
G|---------------------2---0-------0---|-----7-------3---3---5---5----|-------------------------------|
C|-0--0--0--0--0---0-----------4-------|---------0--------------------|-0--0--0--0--0--0--0--0--------|


F|-------------------------------|-------------------------------------------------|
C|-------------------------------|-------------------------------------------------|
G|-------------------------------|-------------------------------------------------|
C|-0--0--0--0--0--0--0--0--------|-6--6--6--6--6--6--6--6--6--6--6--6--8--8--8--8--|


F|-------------------------------------------------|-------------------------------|
C|-------------------------------------------------|-------------------------------|
G|-------------------------------------------------|-------------------------------|
C|-4--4--4--4--4--4--4--4--7--7--7--7--9--9--9--9--|-0--0--0--0--0--0--0--0--------|


F|-------------------------------|-------------------------------------------------|
C|-------------------------------|-------------------------------------------------|
G|-------------------------------|-------------------------------------------------|
C|-0--0--0--0--0--0--0--0--------|-6--6--6--6--6--6--6--6--6--6--6--6--8--8--8--8--|


F|-------------------------------------------------|-------------------------------|
C|-------------------------------------------------|-------------------------------|
G|-------------------------------------------------|-------------------------------|
C|-4--4--4--4--4--4--4--4--7--7--7--7--9--9--9--9--|-0--0--0--0--0--0--0--0--------|


F|-------------------------------|
C|-------------------------------|
G|-------------------------------|
C|-0--0--0--0--0--0--0--0--------|