Site menu:

    

Browse: 0-9 A B C D E F G H I J K L N O P Q R S T U V W X Y Z

infliction of need - piss off and die:



Title: Piss Off... ...And Die
Artist: 
Album: 
Author: Ben Robinson and Josh Sullivan


Track 1: Ishwa

D|---------------------------------|---------------------------------|---------------------------------|
A|---------------------------------|---------------------------------|---------------------------------|
F|---------------------------------|---------------------------------|---------------------------------|
C|-7---7---7---7---7---7---7---7---|-7---7---7---7---7---7---7---7---|-7---7---7---7---7---7---7---7---|
G|-7---7---7---7---7---7---7---7---|-7---7---7---7---7---7---7---7---|-7---7---7---7---7---7---7---7---|
C|-7---7---7---7---7---7---7---7---|-7---7---7---7---7---7---7---7---|-7---7---7---7---7---7---7---7---|


D|-----------------------|---------------------------------|---------------------------------|
A|-----------------------|---------------------------------|---------------------------------|
F|-----------------------|---------------------------------|---------------------------------|
C|-7---7---7---7---------|-7---7---7---7---7---7---7---7---|-7---7---7---7---7---7---7---7---|
G|-7---7---7---7---------|-7---7---7---7---7---7---7---7---|-7---7---7---7---7---7---7---7---|
C|-7---7---7---7---------|-7---7---7---7---7---7---7---7---|-7---7---7---7---7---7---7---7---|


D|---------------------------------|-----------------------|---------------------------------|
A|---------------------------------|-----------------------|---------------------------------|
F|---------------------------------|-----------------------|---------------------------------|
C|-7---7---7---7---7---7---7---7---|-7---7---7---7---------|-7---7---7---7---2---2---2---2---|
G|-7---7---7---7---7---7---7---7---|-7---7---7---7---------|-7---7---7---7---2---2---2---2---|
C|-7---7---7---7---7---7---7---7---|-7---7---7---7---------|-7---7---7---7---2---2---2---2---|


D|---------------------------------|---------------------------------|---------------------------------|
A|---------------------------------|---------------------------------|---------------------------------|
F|---------------------------------|---------------------------------|---------------------------------|
C|-5---5---5---5---7---7---7---7---|-7---7---7---7---9---9---9---9---|-5---5---5---5---7---7---7---7---|
G|-5---5---5---5---7---7---7---7---|-7---7---7---7---9---9---9---9---|-5---5---5---5---7---7---7---7---|
C|-5---5---5---5---7---7---7---7---|-7---7---7---7---9---9---9---9---|-5---5---5---5---7---7---7---7---|


D|---------------------------------|---------------------------------|---------------------------------|
A|---------------------------------|---------------------------------|---------------------------------|
F|---------------------------------|---------------------------------|---------------------------------|
C|-7---7---7---7---2---2---2---2---|-5---5---5---5---7---7---7---7---|-7---7---7---7---9---9---9---9---|
G|-7---7---7---7---2---2---2---2---|-5---5---5---5---7---7---7---7---|-7---7---7---7---9---9---9---9---|
C|-7---7---7---7---2---2---2---2---|-5---5---5---5---7---7---7---7---|-7---7---7---7---9---9---9---9---|


D|---------------------------------|---------------------------------|---------------------------------|
A|---------------------------------|---------------------------------|---------------------------------|
F|---------------------------------|---------------------------------|---------------------------------|
C|-5---5---5---5---7---7---7---7---|-7---7---7---7---7---7---7---7---|-7---7---7---7---7---7---7---7---|
G|-5---5---5---5---7---7---7---7---|-7---7---7---7---7---7---7---7---|-7---7---7---7---7---7---7---7---|
C|-5---5---5---5---7---7---7---7---|-7---7---7---7---7---7---7---7---|-7---7---7---7---7---7---7---7---|


D|---------------------------------|-----------------------|---------------------------------|
A|---------------------------------|-----------------------|---------------------------------|
F|---------------------------------|-----------------------|---------------------------------|
C|-7---7---7---7---7---7---7---7---|-7---7---7---7---------|-7---7---7---7---7---7---7---7---|
G|-7---7---7---7---7---7---7---7---|-7---7---7---7---------|-7---7---7---7---7---7---7---7---|
C|-7---7---7---7---7---7---7---7---|-7---7---7---7---------|-7---7---7---7---7---7---7---7---|


D|---------------------------------|---------------------------------|-----------------------|
A|---------------------------------|---------------------------------|-----------------------|
F|---------------------------------|---------------------------------|-----------------------|
C|-7---7---7---7---7---7---7---7---|-7---7---7---7---7---7---7---7---|-7---7---7---7---------|
G|-7---7---7---7---7---7---7---7---|-7---7---7---7---7---7---7---7---|-7---7---7---7---------|
C|-7---7---7---7---7---7---7---7---|-7---7---7---7---7---7---7---7---|-7---7---7---7---------|


D|--------|--------|--------|--------|----------------------------------|-------------------------------------|
A|--------|--------|--------|--------|------4---4-----------------------|-------------4---4-------------------|
F|--------|--------|--------|--------|------7---7-----------------------|-------------7---7-------------------|
C|--------|--------|--------|--------|-0--------------------------------|-----0---0---------------------------|
G|--------|--------|--------|--------|-0----------------0--0--0--0--0---|-0---0---0---------------0--0--0--0--|
C|--------|--------|--------|--------|-0----------------0--0--0--0--0---|-0---0---0---------------0--0--0--0--|


D|---------------------------|-------------------------------------|----------------------------------|
A|-------------------4---4---|---------------------------------4---|-4--------------------------------|
F|-------------------7---7---|---------------------------------7---|-7--------------------------------|
C|---------0----0------------|-------------------------0---0-------|-----------------------------0----|
G|-0---0---0----0------------|-----0--0--0--0--0---0---0---0-------|---------0--0--0--0--0---0---0----|
C|-0---0---0----0------------|-----0--0--0--0--0---0---0---0-------|---------0--0--0--0--0---0---0----|


D|-----------------------------------|------------------------|-------------------------------|
A|-----------------------------------|------------------------|-------------------------------|
F|-4---4---4---4---4---4-------------|------------------------|--------------5--6--5--6--4----|
C|-4---4---4---4---4---4-------------|---------7----5----4----|-9-----------------------------|
G|-2---2---2---2---2---2---0--0--0---|-0---0------------------|------0---0--------------------|
C|-------------------------0--0--0---|-0---0------------------|------0---0--------------------|


D|-----------------------------------|------------------------|-------------------------------|
A|-----------------------------------|------------------------|-------------------------------|
F|-4---4---4---4---4---4-------------|------------------------|--------------5--6--5--6--4----|
C|-4---4---4---4---4---4-------------|---------7----5----4----|-9-----------------------------|
G|-2---2---2---2---2---2---0--0--0---|-0---0------------------|------0---0--------------------|
C|-------------------------0--0--0---|-0---0------------------|------0---0--------------------|


D|-----------------------------------|------------------------|-------------------------------|
A|-----------------------------------|------------------------|-------------------------------|
F|-4---4---4---4---4---4-------------|------------------------|--------------5--6--5--6--4----|
C|-4---4---4---4---4---4-------------|---------7----5----4----|-9-----------------------------|
G|-2---2---2---2---2---2---0--0--0---|-0---0------------------|------0---0--------------------|
C|-------------------------0--0--0---|-0---0------------------|------0---0--------------------|


D|-----------------------------------|------------------------|-------------------------------|
A|-----------------------------------|------------------------|-------------------------------|
F|-4---4---4---4---4---4-------------|------------------------|--------------5--6--5--6--4----|
C|-4---4---4---4---4---4-------------|---------7----5----4----|-9-----------------------------|
G|-2---2---2---2---2---2---0--0--0---|-0---0------------------|------0---0--------------------|
C|-------------------------0--0--0---|-0---0------------------|------0---0--------------------|


D|----------------|--------------------|-----------------|---------------------------|
A|-8------10--9---|-10--8---7-----7----|-6----9----8-----|------10--11--10--8---7----|
F|----------------|--------------------|-----------------|---------------------------|
C|----------------|--------------------|-----------------|---------------------------|
G|----------------|--------------------|-----------------|---------------------------|
C|----------------|--------------------|-----------------|---------------------------|


D|---------------------------|----------------|--------------------|-----------------|
A|------9---14--12--11--12---|-8------10--9---|-10--8---7-----7----|-6----9----8-----|
F|---------------------------|----------------|--------------------|-----------------|
C|---------------------------|----------------|--------------------|-----------------|
G|---------------------------|----------------|--------------------|-----------------|
C|---------------------------|----------------|--------------------|-----------------|


D|---------------------------|---------------------------|----------------------------------|
A|------10--11--10--8---7----|------9---14--12--11--12---|------4---4-----------------------|
F|---------------------------|---------------------------|------7---7-----------------------|
C|---------------------------|---------------------------|-0--------------------------------|
G|---------------------------|---------------------------|-0----------------0--0--0--0--0---|
C|---------------------------|---------------------------|-0----------------0--0--0--0--0---|


D|-------------------------------------|---------------------------|-------------------------------------|
A|-------------4---4-------------------|-------------------4---4---|---------------------------------4---|
F|-------------7---7-------------------|-------------------7---7---|---------------------------------7---|
C|-----0---0---------------------------|---------0----0------------|-------------------------0---0-------|
G|-0---0---0---------------0--0--0--0--|-0---0---0----0------------|-----0--0--0--0--0---0---0---0-------|
C|-0---0---0---------------0--0--0--0--|-0---0---0----0------------|-----0--0--0--0--0---0---0---0-------|


D|----------------------------------|-----------------------------------|------------------------|
A|-4--------------------------------|-----------------------------------|------------------------|
F|-7--------------------------------|-4---4---4---4---4---4-------------|------------------------|
C|-----------------------------0----|-4---4---4---4---4---4-------------|---------7----5----4----|
G|---------0--0--0--0--0---0---0----|-2---2---2---2---2---2---0--0--0---|-0---0------------------|
C|---------0--0--0--0--0---0---0----|-------------------------0--0--0---|-0---0------------------|


D|-------------------------------|-----------------------------------|------------------------|
A|-------------------------------|-----------------------------------|------------------------|
F|--------------5--6--5--6--4----|-4---4---4---4---4---4-------------|------------------------|
C|-9-----------------------------|-4---4---4---4---4---4-------------|---------7----5----4----|
G|------0---0--------------------|-2---2---2---2---2---2---0--0--0---|-0---0------------------|
C|------0---0--------------------|-------------------------0--0--0---|-0---0------------------|


D|-------------------------------|-----------------------------------|------------------------|
A|-------------------------------|-----------------------------------|------------------------|
F|--------------5--6--5--6--4----|-4---4---4---4---4---4-------------|------------------------|
C|-9-----------------------------|-4---4---4---4---4---4-------------|---------7----5----4----|
G|------0---0--------------------|-2---2---2---2---2---2---0--0--0---|-0---0------------------|
C|------0---0--------------------|-------------------------0--0--0---|-0---0------------------|


D|-------------------------------|-----------------------------------|------------------------|
A|-------------------------------|-----------------------------------|------------------------|
F|--------------5--6--5--6--4----|-4---4---4---4---4---4-------------|------------------------|
C|-9-----------------------------|-4---4---4---4---4---4-------------|---------7----5----4----|
G|------0---0--------------------|-2---2---2---2---2---2---0--0--0---|-0---0------------------|
C|------0---0--------------------|-------------------------0--0--0---|-0---0------------------|


D|-------------------------------|----------------|--------------------|-----------------|
A|-------------------------------|-8------10--9---|-10--8---7-----7----|-6----9----8-----|
F|--------------5--6--5--6--4----|----------------|--------------------|-----------------|
C|-9-----------------------------|----------------|--------------------|-----------------|
G|------0---0--------------------|----------------|--------------------|-----------------|
C|------0---0--------------------|----------------|--------------------|-----------------|


D|---------------------------|---------------------------|----------------|--------------------|
A|------10--11--10--8---7----|------9---14--12--11--12---|-8------10--9---|-10--8---7-----7----|
F|---------------------------|---------------------------|----------------|--------------------|
C|---------------------------|---------------------------|----------------|--------------------|
G|---------------------------|---------------------------|----------------|--------------------|
C|---------------------------|---------------------------|----------------|--------------------|


D|-----------------|---------------------------|---------------------------|-----------------------------------|
A|-6----9----8-----|------10--11--10--8---7----|------9---14--12--11--12---|-----------------------------------|
F|-----------------|---------------------------|---------------------------|-----------------------------------|
C|-----------------|---------------------------|---------------------------|-----------------------------------|
G|-----------------|---------------------------|---------------------------|-0---0-------0--0--0---0---0-------|
C|-----------------|---------------------------|---------------------------|-0---0-------0--0--0---0---0-------|


D|-15------15------------------------|---------------------------------|-----------------------------------|
A|-19------19------------------------|---------------------------------|-----------------------------------|
F|-----------------------------------|---------------------------------|-----------------------------------|
C|-----------------------------------|---------------------------------|-----------------------------------|
G|-----------------0---0-------0--0--|-0---0---5---4-----------2---3---|-0---0-------0--0--0---0---0-------|
C|-----------------0---0-------0--0--|-0---0-----------3---2-----------|-0---0-------0--0--0---0---0-------|


D|-15------15------------------------|---------------------------------|-----------------------------------|
A|-19------19------------------------|---------------------------------|-----------------------------------|
F|-----------------------------------|---------------------------------|-----------------------------------|
C|-----------------------------------|---------------------------------|-----------------------------------|
G|-----------------0---0-------0--0--|-0---0---5---4-----------2---3---|-0---0-------0--0--0---0---0-------|
C|-----------------0---0-------0--0--|-0---0-----------3---2-----------|-0---0-------0--0--0---0---0-------|


D|-15------15------------------------|---------------------------------|-----------------------------------|
A|-19------19------------------------|---------------------------------|-----------------------------------|
F|-----------------------------------|---------------------------------|-----------------------------------|
C|-----------------------------------|---------------------------------|-----------------------------------|
G|-----------------0---0-------0--0--|-0---0---5---4-----------2---3---|-0---0-------0--0--0---0---0-------|
C|-----------------0---0-------0--0--|-0---0-----------3---2-----------|-0---0-------0--0--0---0---0-------|


D|-15------15------------------------|---------------------------------|-------------------------------------|
A|-19------19------------------------|---------------------------------|-------------------------------------|
F|-----------------------------------|---------------------------------|-------------------------------------|
C|-----------------------------------|---------------------------------|-------------------------------------|
G|-----------------0---0-------0--0--|-0---0---5---4-----------2---3---|-1---0-------------------------------|
C|-----------------0---0-------0--0--|-0---0-----------3---2-----------|-1---0---0---0--0--0---0---0--0--0---|


D|--------------------------|-------------------------------------|-----------------------------------|
A|--------------------------|-------------------------------------|-----------------------------------|
F|--------------------------|-------------------------------------|-----------------------------------|
C|--------------------------|-------------------------------------|-----------------------------------|
G|-----------5----4----7----|-1---0-------------------------------|-----------5---4-----------2---3---|
C|-0--0--0------------------|-1---0---0---0--0--0---0---0--0--0---|-0--0--0-----------3---2-----------|


D|-------------------------------------|--------------------------|-------------------------------------|
A|-------------------------------------|--------------------------|-------------------------------------|
F|-------------------------------------|--------------------------|-------------------------------------|
C|-------------------------------------|--------------------------|-------------------------------------|
G|-1---0-------------------------------|-----------5----4----7----|-1---0-------------------------------|
C|-1---0---0---0--0--0---0---0--0--0---|-0--0--0------------------|-1---0---0---0--0--0---0---0--0--0---|


D|-----------------------------------|-------------------------------------|--------------------------|
A|-----------------------------------|-------------------------------------|--------------------------|
F|-----------------------------------|-------------------------------------|--------------------------|
C|-----------------------------------|-------------------------------------|--------------------------|
G|-----------5---4-----------2---3---|-1---0-------------------------------|-----------5----4----7----|
C|-0--0--0-----------3---2-----------|-1---0---0---0--0--0---0---0--0--0---|-0--0--0------------------|


D|-------------------------------------|-----------------------------------|-------------------------------------|
A|-------------------------------------|-----------------------------------|-------------------------------------|
F|-------------------------------------|-----------------------------------|-------------------------------------|
C|-------------------------------------|-----------------------------------|-------------------------------------|
G|-1---0-------------------------------|-----------5---4-----------2---3---|-1---0-------------------------------|
C|-1---0---0---0--0--0---0---0--0--0---|-0--0--0-----------3---2-----------|-1---0---0---0--0--0---0---0--0--0---|


D|--------------------------|-------------------------------------|-----------------------------------|
A|--------------------------|-------------------------------------|-----------------------------------|
F|--------------------------|-------------------------------------|-----------------------------------|
C|--------------------------|-------------------------------------|-----------------------------------|
G|-----------5----4----7----|-1---0-------------------------------|-----------5---4-----------2---3---|
C|-0--0--0------------------|-1---0---0---0--0--0---0---0--0--0---|-0--0--0-----------3---2-----------|


D|--------|--------|--------|--------|---------------------------------|---------------------------------|
A|--------|--------|--------|--------|---------------------------------|---------------------------------|
F|--------|--------|--------|--------|---------------------------------|---------------------------------|
C|--------|--------|--------|--------|---------------------------------|---------------------------------|
G|--------|--------|--------|--------|-4-------------------------------|-4-------------------------------|
C|--------|--------|--------|--------|-----0---1---0---5---6---0---3---|-----0---1---0---5---4---3---2---|


D|---------------------------------|---------------------------------|---------------------------------|
A|---------------------------------|---------------------------------|---------------------------------|
F|---------------------------------|---------------------------------|---------------------------------|
C|---------------------------------|---------------------------------|---------------------------------|
G|-4-------------------------------|-4-------------------------------|-4-------------------------------|
C|-----0---1---0---5---6---0---3---|-----0---1---0---2---3---4---5---|-----0---1---0---5---6---0---3---|


D|---------------------------------|---------------------------------|---------------------------------|
A|---------------------------------|---------------------------------|---------------------------------|
F|---------------------------------|---------------------------------|---------------------------------|
C|---------------------------------|---------------------------------|---------------------------------|
G|-4-------------------------------|-4-------------------------------|-4-------------------------------|
C|-----0---1---0---5---4---3---2---|-----0---1---0---5---6---0---3---|-----0---1---0---2---3---4---5---|


D|---------------------------------|---------------------------------|---------------------------------|
A|---------------------------------|---------------------------------|---------------------------------|
F|---------------------------------|---------------------------------|---------------------------------|
C|-6-------------------------------|-6-------------------------------|-6-------------------------------|
G|-4---0---1---0---5---6---0---3---|-4---0---1---0---5---4---3---2---|-4---0---1---0---5---6---0---3---|
C|-----0---1---0---5---6---0---3---|-----0---1---0---5---4---3---2---|-----0---1---0---5---6---0---3---|


D|---------------------------------|---------------------------------|---------------------------------|
A|---------------------------------|---------------------------------|---------------------------------|
F|---------------------------------|---------------------------------|---------------------------------|
C|-6-------------------------------|-6-------------------------------|-6-------------------------------|
G|-4---0---1---0---2---3---4---5---|-4---0---1---0---5---6---0---3---|-4---0---1---0---5---4---3---2---|
C|-----0---1---0---2---3---4---5---|-----0---1---0---5---6---0---3---|-----0---1---0---5---4---3---2---|


D|---------------------------------|---------------------------------|------------------------|
A|---------------------------------|---------------------------------|------------------------|
F|---------------------------------|---------------------------------|------------------------|
C|-6-------------------------------|-6-------------------------------|------------------------|
G|-4---0---1---0---5---6---0---3---|-4---0---1---0---2---3---4---5---|------------------------|
C|-----0---1---0---5---6---0---3---|-----0---1---0---2---3---4---5---|-6----4----5---3---2----|


D|---------------------------------------|------------------------|---------------------------------------|
A|---------------------------------------|------------------------|---------------------------------------|
F|---------------------------------------|------------------------|---------------------------------------|
C|---------------------------------------|------------------------|---------------------------------------|
G|-0---0--0--0---0---0--0--0---0--0--0---|------------------------|-0---0--0--0---0---0--0--0---0--0--0---|
C|-0---0--0--0---0---0--0--0---0--0--0---|-6----4----2---3---5----|-0---0--0--0---0---0--0--0---0--0--0---|


D|------------------------|---------------------------------------|------------------------|
A|------------------------|---------------------------------------|------------------------|
F|------------------------|---------------------------------------|------------------------|
C|------------------------|---------------------------------------|------------------------|
G|------------------------|-0---0--0--0---0---0--0--0---0--0--0---|------------------------|
C|-6----4----5---3---2----|-0---0--0--0---0---0--0--0---0--0--0---|-6----4----2---3---5----|


D|---------------------------------------|----------------------------------|-------------------------------------|
A|---------------------------------------|------4---4-----------------------|-------------4---4-------------------|
F|---------------------------------------|------7---7-----------------------|-------------7---7-------------------|
C|---------------------------------------|-0--------------------------------|-----0---0---------------------------|
G|-0---0--0--0---0---0--0--0---0--0--0---|-0----------------0--0--0--0--0---|-0---0---0---------------0--0--0--0--|
C|-0---0--0--0---0---0--0--0---0--0--0---|-0----------------0--0--0--0--0---|-0---0---0---------------0--0--0--0--|


D|---------------------------|-------------------------------------|----------------------------------|
A|-------------------4---4---|---------------------------------4---|-4--------------------------------|
F|-------------------7---7---|---------------------------------7---|-7--------------------------------|
C|---------0----0------------|-------------------------0---0-------|-----------------------------0----|
G|-0---0---0----0------------|-----0--0--0--0--0---0---0---0-------|---------0--0--0--0--0---0---0----|
C|-0---0---0----0------------|-----0--0--0--0--0---0---0---0-------|---------0--0--0--0--0---0---0----|


D|-----------------------------------|------------------------|-------------------------------|
A|-----------------------------------|------------------------|-------------------------------|
F|-4---4---4---4---4---4-------------|------------------------|--------------5--6--5--6--4----|
C|-4---4---4---4---4---4-------------|---------7----5----4----|-9-----------------------------|
G|-2---2---2---2---2---2---0--0--0---|-0---0------------------|------0---0--------------------|
C|-------------------------0--0--0---|-0---0------------------|------0---0--------------------|


D|-----------------------------------|------------------------|-------------------------------|
A|-----------------------------------|------------------------|-------------------------------|
F|-4---4---4---4---4---4-------------|------------------------|--------------5--6--5--6--4----|
C|-4---4---4---4---4---4-------------|---------7----5----4----|-9-----------------------------|
G|-2---2---2---2---2---2---0--0--0---|-0---0------------------|------0---0--------------------|
C|-------------------------0--0--0---|-0---0------------------|------0---0--------------------|


D|-----------------------------------|------------------------|-------------------------------|
A|-----------------------------------|------------------------|-------------------------------|
F|-4---4---4---4---4---4-------------|------------------------|--------------5--6--5--6--4----|
C|-4---4---4---4---4---4-------------|---------7----5----4----|-9-----------------------------|
G|-2---2---2---2---2---2---0--0--0---|-0---0------------------|------0---0--------------------|
C|-------------------------0--0--0---|-0---0------------------|------0---0--------------------|


D|-----------------------------------|------------------------|-------------------------------|
A|-----------------------------------|------------------------|-------------------------------|
F|-4---4---4---4---4---4-------------|------------------------|--------------5--6--5--6--4----|
C|-4---4---4---4---4---4-------------|---------7----5----4----|-9-----------------------------|
G|-2---2---2---2---2---2---0--0--0---|-0---0------------------|------0---0--------------------|
C|-------------------------0--0--0---|-0---0------------------|------0---0--------------------|


D|----------------|--------------------|-----------------|---------------------------|
A|-8------10--9---|-10--8---7-----7----|-6----9----8-----|------10--11--10--8---7----|
F|----------------|--------------------|-----------------|---------------------------|
C|----------------|--------------------|-----------------|---------------------------|
G|----------------|--------------------|-----------------|---------------------------|
C|----------------|--------------------|-----------------|---------------------------|


D|---------------------------|----------------|--------------------|-----------------|
A|------9---14--12--11--12---|-8------10--9---|-10--8---7-----7----|-6----9----8-----|
F|---------------------------|----------------|--------------------|-----------------|
C|---------------------------|----------------|--------------------|-----------------|
G|---------------------------|----------------|--------------------|-----------------|
C|---------------------------|----------------|--------------------|-----------------|


D|---------------------------|---------------------------|-----------------------------------|
A|------10--11--10--8---7----|------9---14--12--11--12---|-----------------------------------|
F|---------------------------|---------------------------|-----------------------------------|
C|---------------------------|---------------------------|-----------------------------------|
G|---------------------------|---------------------------|-0---0-------0--0--0---0---0-------|
C|---------------------------|---------------------------|-0---0-------0--0--0---0---0-------|


D|-15------15------------------------|---------------------------------|-----------------------------------|
A|-19------19------------------------|---------------------------------|-----------------------------------|
F|-----------------------------------|---------------------------------|-----------------------------------|
C|-----------------------------------|---------------------------------|-----------------------------------|
G|-----------------0---0-------0--0--|-0---0---5---4-----------2---3---|-0---0-------0--0--0---0---0-------|
C|-----------------0---0-------0--0--|-0---0-----------3---2-----------|-0---0-------0--0--0---0---0-------|


D|-15------15------------------------|---------------------------------|-----------------------------------|
A|-19------19------------------------|---------------------------------|-----------------------------------|
F|-----------------------------------|---------------------------------|-----------------------------------|
C|-----------------------------------|---------------------------------|-----------------------------------|
G|-----------------0---0-------0--0--|-0---0---5---4-----------2---3---|-0---0-------0--0--0---0---0-------|
C|-----------------0---0-------0--0--|-0---0-----------3---2-----------|-0---0-------0--0--0---0---0-------|


D|-15------15------------------------|---------------------------------|-----------------------------------|
A|-19------19------------------------|---------------------------------|-----------------------------------|
F|-----------------------------------|---------------------------------|-----------------------------------|
C|-----------------------------------|---------------------------------|-----------------------------------|
G|-----------------0---0-------0--0--|-0---0---5---4-----------2---3---|-0---0-------0--0--0---0---0-------|
C|-----------------0---0-------0--0--|-0---0-----------3---2-----------|-0---0-------0--0--0---0---0-------|


D|-15------15------------------------|---------------------------------|-------------|
A|-19------19------------------------|---------------------------------|-------------|
F|-----------------------------------|---------------------------------|-------------|
C|-----------------------------------|---------------------------------|-0-----------|
G|-----------------0---0-------0--0--|-0---0---5---4-----------2---3---|-0-----------|
C|-----------------0---0-------0--0--|-0---0-----------3---2-----------|-0-----------|


D|-----------------|
A|-----------------|
F|-----------------|
C|-----------------|
G|-----------------|
C|-----------------|





Track 2: Benoit

D|--------|--------|--------|--------|--------|--------|--------|--------|--------|
A|--------|--------|--------|--------|--------|--------|--------|--------|--------|
F|--------|--------|--------|--------|--------|--------|--------|--------|--------|
C|--------|--------|--------|--------|--------|--------|--------|--------|--------|
G|--------|--------|--------|--------|--------|--------|--------|--------|--------|
C|--------|--------|--------|--------|--------|--------|--------|--------|--------|


D|--------|--------|--------|--------|--------|--------|--------|--------|--------|
A|--------|--------|--------|--------|--------|--------|--------|--------|--------|
F|--------|--------|--------|--------|--------|--------|--------|--------|--------|
C|--------|--------|--------|--------|--------|--------|--------|--------|--------|
G|--------|--------|--------|--------|--------|--------|--------|--------|--------|
C|--------|--------|--------|--------|--------|--------|--------|--------|--------|


D|--------|--------|--------|--------|--------|--------|---------------------------------|
A|--------|--------|--------|--------|--------|--------|---------------------4-------4---|
F|--------|--------|--------|--------|--------|--------|-7---7---7---7---7-------7-------|
C|--------|--------|--------|--------|--------|--------|-6---6---6---6-------------------|
G|--------|--------|--------|--------|--------|--------|---------------------------------|
C|--------|--------|--------|--------|--------|--------|---------------------------------|


D|------------------------------|---------------------------------|------------------------------|
A|---------------------4--------|---------------------4-------4---|---------------------4--------|
F|-7---7---7---7---7-------7----|-7---7---7---7---7-------7-------|-7---7---7---7---7-------7----|
C|-6---6---6---6----------------|-6---6---6---6-------------------|-6---6---6---6----------------|
G|------------------------------|---------------------------------|------------------------------|
C|------------------------------|---------------------------------|------------------------------|


D|--------|--------|--------|--------|--------|-----------------------------------|
A|--------|--------|--------|--------|--------|-----------------------------------|
F|--------|--------|--------|--------|--------|-4---4---4---4---4---4-------------|
C|--------|--------|--------|--------|--------|-4---4---4---4---4---4-------------|
G|--------|--------|--------|--------|--------|-2---2---2---2---2---2---0--0--0---|
C|--------|--------|--------|--------|--------|-------------------------0--0--0---|


D|------------------------|-------------------------------|-----------------------------------|
A|------------------------|-------------------------------|-----------------------------------|
F|------------------------|-------------------------------|-4---4---4---4---4---4-------------|
C|------------------------|--------------6--7--6--7--5----|-4---4---4---4---4---4-------------|
G|-0---0---8----7----5----|-10---0---0--------------------|-2---2---2---2---2---2---0--0--0---|
C|-0---0------------------|------0---0--------------------|-------------------------0--0--0---|


D|------------------------|-------------------------------|-----------------------------------|
A|------------------------|-------------------------------|-----------------------------------|
F|------------------------|-------------------------------|-4---4---4---4---4---4-------------|
C|------------------------|--------------6--7--6--7--5----|-4---4---4---4---4---4-------------|
G|-0---0---8----7----5----|-10---0---0--------------------|-2---2---2---2---2---2---0--0--0---|
C|-0---0------------------|------0---0--------------------|-------------------------0--0--0---|


D|------------------------|-------------------------------|-----------------------------------|
A|------------------------|-------------------------------|-----------------------------------|
F|------------------------|-------------------------------|-4---4---4---4---4---4-------------|
C|------------------------|--------------6--7--6--7--5----|-4---4---4---4---4---4-------------|
G|-0---0---8----7----5----|-10---0---0--------------------|-2---2---2---2---2---2---0--0--0---|
C|-0---0------------------|------0---0--------------------|-------------------------0--0--0---|


D|------------------------|-------------------------------|----------------|--------------------|
A|------------------------|-------------------------------|----------------|--------------------|
F|------------------------|-------------------------------|-7------9---10--|-9---7---6-----6----|
C|------------------------|--------------6--7--6--7--5----|----------------|--------------------|
G|-0---0---8----7----5----|-10---0---0--------------------|----------------|--------------------|
C|-0---0------------------|------0---0--------------------|----------------|--------------------|


D|-----------------|---------------------------|---------------------------|----------------|
A|-----------------|---------------------------|---------------------------|----------------|
F|-5----8----7-----|------9---10--9---7---6----|------8---13--11--10--11---|-7------9---10--|
C|-----------------|---------------------------|---------------------------|----------------|
G|-----------------|---------------------------|---------------------------|----------------|
C|-----------------|---------------------------|---------------------------|----------------|


D|--------------------|-----------------|---------------------------|---------------------------|
A|--------------------|-----------------|---------------------------|---------------------------|
F|-9---7---6-----6----|-5----8----7-----|------9---10--9---7---6----|------8---13--11--10--11---|
C|--------------------|-----------------|---------------------------|---------------------------|
G|--------------------|-----------------|---------------------------|---------------------------|
C|--------------------|-----------------|---------------------------|---------------------------|


D|--------|--------|--------|--------|--------|-----------------------------------|
A|--------|--------|--------|--------|--------|-----------------------------------|
F|--------|--------|--------|--------|--------|-4---4---4---4---4---4-------------|
C|--------|--------|--------|--------|--------|-4---4---4---4---4---4-------------|
G|--------|--------|--------|--------|--------|-2---2---2---2---2---2---0--0--0---|
C|--------|--------|--------|--------|--------|-------------------------0--0--0---|


D|------------------------|-------------------------------|-----------------------------------|
A|------------------------|-------------------------------|-----------------------------------|
F|------------------------|-------------------------------|-4---4---4---4---4---4-------------|
C|------------------------|--------------6--7--6--7--5----|-4---4---4---4---4---4-------------|
G|-0---0---8----7----5----|-10---0---0--------------------|-2---2---2---2---2---2---0--0--0---|
C|-0---0------------------|------0---0--------------------|-------------------------0--0--0---|


D|------------------------|-------------------------------|-----------------------------------|
A|------------------------|-------------------------------|-----------------------------------|
F|------------------------|-------------------------------|-4---4---4---4---4---4-------------|
C|------------------------|--------------6--7--6--7--5----|-4---4---4---4---4---4-------------|
G|-0---0---8----7----5----|-10---0---0--------------------|-2---2---2---2---2---2---0--0--0---|
C|-0---0------------------|------0---0--------------------|-------------------------0--0--0---|


D|------------------------|-------------------------------|-----------------------------------|
A|------------------------|-------------------------------|-----------------------------------|
F|------------------------|-------------------------------|-4---4---4---4---4---4-------------|
C|------------------------|--------------6--7--6--7--5----|-4---4---4---4---4---4-------------|
G|-0---0---8----7----5----|-10---0---0--------------------|-2---2---2---2---2---2---0--0--0---|
C|-0---0------------------|------0---0--------------------|-------------------------0--0--0---|


D|------------------------|-------------------------------|----------------|--------------------|
A|------------------------|-------------------------------|----------------|--------------------|
F|------------------------|-------------------------------|-7------9---10--|-9---7---6-----6----|
C|------------------------|--------------6--7--6--7--5----|----------------|--------------------|
G|-0---0---8----7----5----|-10---0---0--------------------|----------------|--------------------|
C|-0---0------------------|------0---0--------------------|----------------|--------------------|


D|-----------------|---------------------------|---------------------------|----------------|
A|-----------------|---------------------------|---------------------------|----------------|
F|-5----8----7-----|------9---10--9---7---6----|------8---13--11--10--11---|-7------9---10--|
C|-----------------|---------------------------|---------------------------|----------------|
G|-----------------|---------------------------|---------------------------|----------------|
C|-----------------|---------------------------|---------------------------|----------------|


D|--------------------|-----------------|---------------------------|---------------------------|
A|--------------------|-----------------|---------------------------|---------------------------|
F|-9---7---6-----6----|-5----8----7-----|------9---10--9---7---6----|------8---13--11--10--11---|
C|--------------------|-----------------|---------------------------|---------------------------|
G|--------------------|-----------------|---------------------------|---------------------------|
C|--------------------|-----------------|---------------------------|---------------------------|


D|--------|--------|--------|--------|--------|--------|--------|--------|--------|
A|--------|--------|--------|--------|--------|--------|--------|--------|--------|
F|--------|--------|--------|--------|--------|--------|--------|--------|--------|
C|--------|--------|--------|--------|--------|--------|--------|--------|--------|
G|--------|--------|--------|--------|--------|--------|--------|--------|--------|
C|--------|--------|--------|--------|--------|--------|--------|--------|--------|


D|--------|--------|--------|--------|--------|--------|--------|--------|--------|
A|--------|--------|--------|--------|--------|--------|--------|--------|--------|
F|--------|--------|--------|--------|--------|--------|--------|--------|--------|
C|--------|--------|--------|--------|--------|--------|--------|--------|--------|
G|--------|--------|--------|--------|--------|--------|--------|--------|--------|
C|--------|--------|--------|--------|--------|--------|--------|--------|--------|


D|--------|--------|--------|--------|--------|--------|--------|--------|--------|
A|--------|--------|--------|--------|--------|--------|--------|--------|--------|
F|--------|--------|--------|--------|--------|--------|--------|--------|--------|
C|--------|--------|--------|--------|--------|--------|--------|--------|--------|
G|--------|--------|--------|--------|--------|--------|--------|--------|--------|
C|--------|--------|--------|--------|--------|--------|--------|--------|--------|


D|--------|--------|--------|--------|--------|--------|--------|--------|--------|
A|--------|--------|--------|--------|--------|--------|--------|--------|--------|
F|--------|--------|--------|--------|--------|--------|--------|--------|--------|
C|--------|--------|--------|--------|--------|--------|--------|--------|--------|
G|--------|--------|--------|--------|--------|--------|--------|--------|--------|
C|--------|--------|--------|--------|--------|--------|--------|--------|--------|


D|--------|--------|--------|--------|--------|--------|--------|--------|--------|
A|--------|--------|--------|--------|--------|--------|--------|--------|--------|
F|--------|--------|--------|--------|--------|--------|--------|--------|--------|
C|--------|--------|--------|--------|--------|--------|--------|--------|--------|
G|--------|--------|--------|--------|--------|--------|--------|--------|--------|
C|--------|--------|--------|--------|--------|--------|--------|--------|--------|


D|--------|--------|--------|--------|--------|--------|--------|--------|--------|
A|--------|--------|--------|--------|--------|--------|--------|--------|--------|
F|--------|--------|--------|--------|--------|--------|--------|--------|--------|
C|--------|--------|--------|--------|--------|--------|--------|--------|--------|
G|--------|--------|--------|--------|--------|--------|--------|--------|--------|
C|--------|--------|--------|--------|--------|--------|--------|--------|--------|


D|--------|--------|--------|--------|--------|--------|--------|-----------------------------------|
A|--------|--------|--------|--------|--------|--------|--------|-----------------------------------|
F|--------|--------|--------|--------|--------|--------|--------|-4---4---4---4---4---4-------------|
C|--------|--------|--------|--------|--------|--------|--------|-4---4---4---4---4---4-------------|
G|--------|--------|--------|--------|--------|--------|--------|-2---2---2---2---2---2---0--0--0---|
C|--------|--------|--------|--------|--------|--------|--------|-------------------------0--0--0---|


D|------------------------|-------------------------------|-----------------------------------|
A|------------------------|-------------------------------|-----------------------------------|
F|------------------------|-------------------------------|-4---4---4---4---4---4-------------|
C|------------------------|--------------6--7--6--7--5----|-4---4---4---4---4---4-------------|
G|-0---0---8----7----5----|-10---0---0--------------------|-2---2---2---2---2---2---0--0--0---|
C|-0---0------------------|------0---0--------------------|-------------------------0--0--0---|


D|------------------------|-------------------------------|-----------------------------------|
A|------------------------|-------------------------------|-----------------------------------|
F|------------------------|-------------------------------|-4---4---4---4---4---4-------------|
C|------------------------|--------------6--7--6--7--5----|-4---4---4---4---4---4-------------|
G|-0---0---8----7----5----|-10---0---0--------------------|-2---2---2---2---2---2---0--0--0---|
C|-0---0------------------|------0---0--------------------|-------------------------0--0--0---|


D|------------------------|-------------------------------|-----------------------------------|
A|------------------------|-------------------------------|-----------------------------------|
F|------------------------|-------------------------------|-4---4---4---4---4---4-------------|
C|------------------------|--------------6--7--6--7--5----|-4---4---4---4---4---4-------------|
G|-0---0---8----7----5----|-10---0---0--------------------|-2---2---2---2---2---2---0--0--0---|
C|-0---0------------------|------0---0--------------------|-------------------------0--0--0---|


D|------------------------|-------------------------------|----------------|--------------------|
A|------------------------|-------------------------------|----------------|--------------------|
F|------------------------|-------------------------------|-7------9---10--|-9---7---6-----6----|
C|------------------------|--------------6--7--6--7--5----|----------------|--------------------|
G|-0---0---8----7----5----|-10---0---0--------------------|----------------|--------------------|
C|-0---0------------------|------0---0--------------------|----------------|--------------------|


D|-----------------|---------------------------|---------------------------|----------------|
A|-----------------|---------------------------|---------------------------|----------------|
F|-5----8----7-----|------9---10--9---7---6----|------8---13--11--10--11---|-7------9---10--|
C|-----------------|---------------------------|---------------------------|----------------|
G|-----------------|---------------------------|---------------------------|----------------|
C|-----------------|---------------------------|---------------------------|----------------|


D|--------------------|-----------------|---------------------------|---------------------------|
A|--------------------|-----------------|---------------------------|---------------------------|
F|-9---7---6-----6----|-5----8----7-----|------9---10--9---7---6----|------8---13--11--10--11---|
C|--------------------|-----------------|---------------------------|---------------------------|
G|--------------------|-----------------|---------------------------|---------------------------|
C|--------------------|-----------------|---------------------------|---------------------------|


D|--------|--------|--------|--------|--------|--------|--------|--------|--------|
A|--------|--------|--------|--------|--------|--------|--------|--------|--------|
F|--------|--------|--------|--------|--------|--------|--------|--------|--------|
C|--------|--------|--------|--------|--------|--------|--------|--------|--------|
G|--------|--------|--------|--------|--------|--------|--------|--------|--------|
C|--------|--------|--------|--------|--------|--------|--------|--------|--------|


D|--------|--------|--------|--------|--------|
A|--------|--------|--------|--------|--------|
F|--------|--------|--------|--------|--------|
C|--------|--------|--------|--------|--------|
G|--------|--------|--------|--------|--------|
C|--------|--------|--------|--------|--------|





Track 3: Extra

D|--------|--------|--------|--------|--------|--------|--------|--------|--------|
A|--------|--------|--------|--------|--------|--------|--------|--------|--------|
F|--------|--------|--------|--------|--------|--------|--------|--------|--------|
C|--------|--------|--------|--------|--------|--------|--------|--------|--------|
G|--------|--------|--------|--------|--------|--------|--------|--------|--------|
C|--------|--------|--------|--------|--------|--------|--------|--------|--------|


D|--------|--------|--------|--------|--------|--------|--------|--------|--------|
A|--------|--------|--------|--------|--------|--------|--------|--------|--------|
F|--------|--------|--------|--------|--------|--------|--------|--------|--------|
C|--------|--------|--------|--------|--------|--------|--------|--------|--------|
G|--------|--------|--------|--------|--------|--------|--------|--------|--------|
C|--------|--------|--------|--------|--------|--------|--------|--------|--------|


D|--------|--------|--------|--------|--------|--------|--------|--------|--------|
A|--------|--------|--------|--------|--------|--------|--------|--------|--------|
F|--------|--------|--------|--------|--------|--------|--------|--------|--------|
C|--------|--------|--------|--------|--------|--------|--------|--------|--------|
G|--------|--------|--------|--------|--------|--------|--------|--------|--------|
C|--------|--------|--------|--------|--------|--------|--------|--------|--------|


D|--------|--------|--------|--------|--------|--------|--------|--------|--------|
A|--------|--------|--------|--------|--------|--------|--------|--------|--------|
F|--------|--------|--------|--------|--------|--------|--------|--------|--------|
C|--------|--------|--------|--------|--------|--------|--------|--------|--------|
G|--------|--------|--------|--------|--------|--------|--------|--------|--------|
C|--------|--------|--------|--------|--------|--------|--------|--------|--------|


D|--------|--------|--------|--------|--------|--------|--------|--------|--------|
A|--------|--------|--------|--------|--------|--------|--------|--------|--------|
F|--------|--------|--------|--------|--------|--------|--------|--------|--------|
C|--------|--------|--------|--------|--------|--------|--------|--------|--------|
G|--------|--------|--------|--------|--------|--------|--------|--------|--------|
C|--------|--------|--------|--------|--------|--------|--------|--------|--------|


D|--------|------------------------|-----------------|------------------------|-------------|
A|--------|------------------------|-----------------|------------------------|-------------|
F|--------|------------------------|-----------------|------------------------|-------------|
C|-2------|-------------1-----1----|-3----6----2-----|-------------------1----|-------------|
G|-2------|-2--2--2--2--1-----1----|-3----6----2-----|-------2--2--2--2--1----|-------------|
C|-2------|-2--2--2--2--1-----1----|-3----6----2-----|-------2--2--2--2--1----|-------------|


D|--------|------------------------|-----------------|------------------------|-------------|
A|--------|------------------------|-----------------|------------------------|-------------|
F|--------|------------------------|-----------------|------------------------|-------------|
C|-2------|-------------1-----1----|-3----6----2-----|-------------------1----|-------------|
G|-2------|-2--2--2--2--1-----1----|-3----6----2-----|-------2--2--2--2--1----|-------------|
C|-2------|-2--2--2--2--1-----1----|-3----6----2-----|-------2--2--2--2--1----|-------------|


D|--------|--------|--------|--------|--------|--------|--------|--------|--------|
A|--------|--------|--------|--------|--------|--------|--------|--------|--------|
F|--------|--------|--------|--------|--------|--------|--------|--------|--------|
C|--------|--------|--------|--------|--------|--------|--------|--------|--------|
G|--------|--------|--------|--------|--------|--------|--------|--------|--------|
C|--------|--------|--------|--------|--------|--------|--------|--------|--------|


D|--------|--------|--------|--------|--------|--------|--------|--------|--------|
A|--------|--------|--------|--------|--------|--------|--------|--------|--------|
F|--------|--------|--------|--------|--------|--------|--------|--------|--------|
C|--------|--------|--------|--------|--------|--------|--------|--------|-2------|
G|--------|--------|--------|--------|--------|--------|--------|--------|-2------|
C|--------|--------|--------|--------|--------|--------|--------|--------|-2------|


D|------------------------|-----------------|------------------------|-------------|
A|------------------------|-----------------|------------------------|-------------|
F|------------------------|-----------------|------------------------|-------------|
C|-------------1-----1----|-3----6----2-----|-------------------1----|-------------|
G|-2--2--2--2--1-----1----|-3----6----2-----|-------2--2--2--2--1----|-------------|
C|-2--2--2--2--1-----1----|-3----6----2-----|-------2--2--2--2--1----|-------------|


D|--------|------------------------|-----------------|------------------------|-------------|
A|--------|------------------------|-----------------|------------------------|-------------|
F|--------|------------------------|-----------------|------------------------|-------------|
C|-2------|-------------1-----1----|-3----6----2-----|-------------------1----|-------------|
G|-2------|-2--2--2--2--1-----1----|-3----6----2-----|-------2--2--2--2--1----|-------------|
C|-2------|-2--2--2--2--1-----1----|-3----6----2-----|-------2--2--2--2--1----|-------------|


D|--------|--------|--------|--------|--------|--------|--------|--------|--------|
A|--------|--------|--------|--------|--------|--------|--------|--------|--------|
F|--------|--------|--------|--------|--------|--------|--------|--------|--------|
C|--------|--------|--------|--------|--------|--------|--------|--------|--------|
G|--------|--------|--------|--------|--------|--------|--------|--------|--------|
C|--------|--------|--------|--------|--------|--------|--------|--------|--------|


D|--------|--------|--------|--------|--------|--------|--------|--------|--------|
A|--------|--------|--------|--------|--------|--------|--------|--------|--------|
F|--------|--------|--------|--------|--------|--------|--------|--------|--------|
C|--------|--------|--------|--------|--------|--------|--------|--------|--------|
G|--------|--------|--------|--------|--------|--------|--------|--------|--------|
C|--------|--------|--------|--------|--------|--------|--------|--------|--------|


D|--------|--------|--------|--------|--------|--------|--------|--------|--------|
A|--------|--------|--------|--------|--------|--------|--------|--------|--------|
F|--------|--------|--------|--------|--------|--------|--------|--------|--------|
C|--------|--------|--------|--------|--------|--------|--------|--------|--------|
G|--------|--------|--------|--------|--------|--------|--------|--------|--------|
C|--------|--------|--------|--------|--------|--------|--------|--------|--------|


D|--------|--------|--------|--------|--------|--------|--------|--------|--------|
A|--------|--------|--------|--------|--------|--------|--------|--------|--------|
F|--------|--------|--------|--------|--------|--------|--------|--------|--------|
C|--------|--------|--------|--------|--------|--------|--------|--------|--------|
G|--------|--------|--------|--------|--------|--------|--------|--------|--------|
C|--------|--------|--------|--------|--------|--------|--------|--------|--------|


D|--------|--------|--------|--------|--------|--------|--------|--------|--------|
A|--------|--------|--------|--------|--------|--------|--------|--------|--------|
F|--------|--------|--------|--------|--------|--------|--------|--------|--------|
C|--------|--------|--------|--------|--------|--------|--------|--------|--------|
G|--------|--------|--------|--------|--------|--------|--------|--------|--------|
C|--------|--------|--------|--------|--------|--------|--------|--------|--------|


D|--------|--------|--------|--------|--------|--------|--------|--------|--------|
A|--------|--------|--------|--------|--------|--------|--------|--------|--------|
F|--------|--------|--------|--------|--------|--------|--------|--------|--------|
C|--------|--------|--------|--------|--------|--------|--------|--------|--------|
G|--------|--------|--------|--------|--------|--------|--------|--------|--------|
C|--------|--------|--------|--------|--------|--------|--------|--------|--------|


D|--------|--------|--------|--------|--------|--------|--------|--------|--------|
A|--------|--------|--------|--------|--------|--------|--------|--------|--------|
F|--------|--------|--------|--------|--------|--------|--------|--------|--------|
C|--------|--------|--------|--------|--------|--------|--------|--------|--------|
G|--------|--------|--------|--------|--------|--------|--------|--------|--------|
C|--------|--------|--------|--------|--------|--------|--------|--------|--------|


D|--------|--------|--------|--------|--------|--------|--------|--------|--------|
A|--------|--------|--------|--------|--------|--------|--------|--------|--------|
F|--------|--------|--------|--------|--------|--------|--------|--------|--------|
C|--------|--------|--------|--------|--------|--------|--------|--------|--------|
G|--------|--------|--------|--------|--------|--------|--------|--------|--------|
C|--------|--------|--------|--------|--------|--------|--------|--------|--------|


D|--------|--------|------------------------|-----------------|------------------------|
A|--------|--------|------------------------|-----------------|------------------------|
F|--------|--------|------------------------|-----------------|------------------------|
C|--------|-2------|-------------1-----1----|-3----6----2-----|-------------------1----|
G|--------|-2------|-2--2--2--2--1-----1----|-3----6----2-----|-------2--2--2--2--1----|
C|--------|-2------|-2--2--2--2--1-----1----|-3----6----2-----|-------2--2--2--2--1----|


D|-------------|--------|------------------------|-----------------|------------------------|
A|-------------|--------|------------------------|-----------------|------------------------|
F|-------------|--------|------------------------|-----------------|------------------------|
C|-------------|-2------|-------------1-----1----|-3----6----2-----|-------------------1----|
G|-------------|-2------|-2--2--2--2--1-----1----|-3----6----2-----|-------2--2--2--2--1----|
C|-------------|-2------|-2--2--2--2--1-----1----|-3----6----2-----|-------2--2--2--2--1----|


D|-------------|--------|--------|--------|--------|--------|--------|--------|--------|
A|-------------|--------|--------|--------|--------|--------|--------|--------|--------|
F|-------------|--------|--------|--------|--------|--------|--------|--------|--------|
C|-------------|--------|--------|--------|--------|--------|--------|--------|--------|
G|-------------|--------|--------|--------|--------|--------|--------|--------|--------|
C|-------------|--------|--------|--------|--------|--------|--------|--------|--------|


D|--------|--------|--------|--------|--------|--------|
A|--------|--------|--------|--------|--------|--------|
F|--------|--------|--------|--------|--------|--------|
C|--------|--------|--------|--------|--------|--------|
G|--------|--------|--------|--------|--------|--------|
C|--------|--------|--------|--------|--------|--------|





Track 4: Bass 

A#|---------------------------------|---------------------------------|---------------------------------|
 F|---------------------------------|---------------------------------|---------------------------------|
 C|---------------------------------|---------------------------------|---------------------------------|
 G|---------------------------------|---------------------------------|---------------------------------|
 C|-7---7---7---7---7---7---7---7---|-7---7---7---7---7---7---7---7---|-7---7---7---7---7---7---7---7---|


A#|-----------------------|---------------------------------|---------------------------------|
 F|-----------------------|---------------------------------|---------------------------------|
 C|-----------------------|---------------------------------|---------------------------------|
 G|-----------------------|---------------------------------|---------------------------------|
 C|-7---7---7---7---------|-7---7---7---7---7---7---7---7---|-7---7---7---7---7---7---7---7---|


A#|---------------------------------|-----------------------|---------------------------------|
 F|---------------------------------|-----------------------|---------------------------------|
 C|---------------------------------|-----------------------|---------------------------------|
 G|---------------------------------|-----------------------|---------------------------------|
 C|-7---7---7---7---7---7---7---7---|-7---7---7---7---------|-7---7---7---7---2---2---2---2---|


A#|---------------------------------|---------------------------------|---------------------------------|
 F|---------------------------------|---------------------------------|---------------------------------|
 C|---------------------------------|---------------------------------|---------------------------------|
 G|---------------------------------|---------------------------------|---------------------------------|
 C|-5---5---5---5---7---7---7---7---|-7---7---7---7---9---9---9---9---|-5---5---5---5---7---7---7---7---|


A#|---------------------------------|---------------------------------|---------------------------------|
 F|---------------------------------|---------------------------------|---------------------------------|
 C|---------------------------------|---------------------------------|---------------------------------|
 G|---------------------------------|---------------------------------|---------------------------------|
 C|-7---7---7---7---2---2---2---2---|-5---5---5---5---7---7---7---7---|-7---7---7---7---9---9---9---9---|


A#|---------------------------------|---------------------------------|---------------------------------|
 F|---------------------------------|---------------------------------|---------------------------------|
 C|---------------------------------|---------------------------------|---------------------------------|
 G|---------------------------------|---------------------------------|---------------------------------|
 C|-5---5---5---5---7---7---7---7---|-7---7---7---7---7---7---7---7---|-7---7---7---7---7---7---7---7---|


A#|---------------------------------|-----------------------|---------------------------------|
 F|---------------------------------|-----------------------|---------------------------------|
 C|---------------------------------|-----------------------|---------------------------------|
 G|---------------------------------|-----------------------|---------------------------------|
 C|-7---7---7---7---7---7---7---7---|-7---7---7---7---------|-7---7---7---7---7---7---7---7---|


A#|---------------------------------|---------------------------------|-----------------------|
 F|---------------------------------|---------------------------------|-----------------------|
 C|---------------------------------|---------------------------------|-----------------------|
 G|---------------------------------|---------------------------------|-----------------------|
 C|-7---7---7---7---7---7---7---7---|-7---7---7---7---7---7---7---7---|-7---7---7---7---------|


A#|--------|--------|--------|--------|----------------------------|-------------------------------|
 F|--------|--------|--------|--------|----------------------------|-------------------------------|
 C|--------|--------|--------|--------|----------------------------|-------------------------------|
 G|--------|--------|--------|--------|----------------------------|-------------------------------|
 C|--------|--------|--------|--------|-0----------0--0--0--0--0---|-0---0---0---------0--0--0--0--|


A#|------------------------|-------------------------------------|-------------------------------|
 F|------------------------|-------------------------------------|-------------------------------|
 C|------------------------|-------------------------------------|-------------------------------|
 G|------------------------|-------------------------------------|-------------------------------|
 C|-0---0---0----0---------|-----0--0--0--0--0---0---0---0-------|------0--0--0--0--0---0---0----|


A#|-----------------------------------|------------------------|-------------------------------|
 F|-----------------------------------|------------------------|-------------------------------|
 C|-----------------------------------|------------------------|--------------6--7--6--7--5----|
 G|-2---2---2---2---2---2-------------|---------8----7----5----|-10----------------------------|
 C|-------------------------0--0--0---|-0---0------------------|------0---0--------------------|


A#|-----------------------------------|------------------------|-------------------------------|
 F|-----------------------------------|------------------------|-------------------------------|
 C|-----------------------------------|------------------------|--------------6--7--6--7--5----|
 G|-2---2---2---2---2---2-------------|---------8----7----5----|-10----------------------------|
 C|-------------------------0--0--0---|-0---0------------------|------0---0--------------------|


A#|-----------------------------------|------------------------|-------------------------------|
 F|-----------------------------------|------------------------|-------------------------------|
 C|-----------------------------------|------------------------|--------------6--7--6--7--5----|
 G|-2---2---2---2---2---2-------------|---------8----7----5----|-10----------------------------|
 C|-------------------------0--0--0---|-0---0------------------|------0---0--------------------|


A#|-----------------------------------|------------------------|-------------------------------|
 F|-----------------------------------|------------------------|-------------------------------|
 C|-----------------------------------|------------------------|--------------6--7--6--7--5----|
 G|-2---2---2---2---2---2-------------|---------8----7----5----|-10----------------------------|
 C|-------------------------0--0--0---|-0---0------------------|------0---0--------------------|


A#|--------|----------------------------------|-----------------|---------------------------|
 F|--------|----------------------------------|-----------------|---------------------------|
 C|--------|-----------------1----------------|-----------------|-----------------------1---|
 G|--------|---------------------1------------|-----------------|---------------------------|
 C|-2------|-2--2--2--2--1-----------1---1----|-3----6----2-----|-------2--2--2--2--1-------|


A#|----------------|--------|----------------------------------|-----------------|
 F|----------------|--------|----------------------------------|-----------------|
 C|----------------|--------|-----------------1----------------|-----------------|
 G|-1--------------|--------|---------------------1------------|-----------------|
 C|-----1----------|-2------|-2--2--2--2--1-----------1---1----|-3----6----2-----|


A#|---------------------------|----------------|----------------------------|-------------------------------|
 F|---------------------------|----------------|----------------------------|-------------------------------|
 C|-----------------------1---|----------------|----------------------------|-------------------------------|
 G|---------------------------|-1--------------|----------------------------|-------------------------------|
 C|-------2--2--2--2--1-------|-----1----------|-0----------0--0--0--0--0---|-0---0---0---------0--0--0--0--|


A#|------------------------|-------------------------------------|-------------------------------|
 F|------------------------|-------------------------------------|-------------------------------|
 C|------------------------|-------------------------------------|-------------------------------|
 G|------------------------|-------------------------------------|-------------------------------|
 C|-0---0---0----0---------|-----0--0--0--0--0---0---0---0-------|------0--0--0--0--0---0---0----|


A#|-----------------------------------|------------------------|-------------------------------|
 F|-----------------------------------|------------------------|-------------------------------|
 C|-----------------------------------|------------------------|--------------6--7--6--7--5----|
 G|-2---2---2---2---2---2-------------|---------8----7----5----|-10----------------------------|
 C|-------------------------0--0--0---|-0---0------------------|------0---0--------------------|


A#|-----------------------------------|------------------------|-------------------------------|
 F|-----------------------------------|------------------------|-------------------------------|
 C|-----------------------------------|------------------------|--------------6--7--6--7--5----|
 G|-2---2---2---2---2---2-------------|---------8----7----5----|-10----------------------------|
 C|-------------------------0--0--0---|-0---0------------------|------0---0--------------------|


A#|-----------------------------------|------------------------|-------------------------------|
 F|-----------------------------------|------------------------|-------------------------------|
 C|-----------------------------------|------------------------|--------------6--7--6--7--5----|
 G|-2---2---2---2---2---2-------------|---------8----7----5----|-10----------------------------|
 C|-------------------------0--0--0---|-0---0------------------|------0---0--------------------|


A#|-----------------------------------|------------------------|-------------------------------|
 F|-----------------------------------|------------------------|-------------------------------|
 C|-----------------------------------|------------------------|--------------6--7--6--7--5----|
 G|-2---2---2---2---2---2-------------|---------8----7----5----|-10----------------------------|
 C|-------------------------0--0--0---|-0---0------------------|------0---0--------------------|


A#|--------|----------------------------------|-----------------|---------------------------|
 F|--------|----------------------------------|-----------------|---------------------------|
 C|--------|-----------------1----------------|-----------------|-----------------------1---|
 G|--------|---------------------1------------|-----------------|---------------------------|
 C|-2------|-2--2--2--2--1-----------1---1----|-3----6----2-----|-------2--2--2--2--1-------|


A#|----------------|--------|----------------------------------|-----------------|
 F|----------------|--------|----------------------------------|-----------------|
 C|----------------|--------|-----------------1----------------|-----------------|
 G|-1--------------|--------|---------------------1------------|-----------------|
 C|-----1----------|-2------|-2--2--2--2--1-----------1---1----|-3----6----2-----|


A#|---------------------------|----------------|-----------------------------------|
 F|---------------------------|----------------|-----------------------------------|
 C|-----------------------1---|----------------|-----------------------------------|
 G|---------------------------|-1--------------|-----------------------------------|
 C|-------2--2--2--2--1-------|-----1----------|-0---0-------0--0--0---0---0-------|


A#|-----------------------------|---------------------------------|-----------------------------------|
 F|-----------------------------|---------------------------------|-----------------------------------|
 C|-----------------------------|---------------------------------|-----------------------------------|
 G|-----------------------------|---------5---4-----------2---3---|-----------------------------------|
 C|-----------0---0-------0--0--|-0---0-----------3---2-----------|-0---0-------0--0--0---0---0-------|


A#|-----------------------------|---------------------------------|-----------------------------------|
 F|-----------------------------|---------------------------------|-----------------------------------|
 C|-----------------------------|---------------------------------|-----------------------------------|
 G|-----------------------------|---------5---4-----------2---3---|-----------------------------------|
 C|-----------0---0-------0--0--|-0---0-----------3---2-----------|-0---0-------0--0--0---0---0-------|


A#|-----------------------------|---------------------------------|-----------------------------------|
 F|-----------------------------|---------------------------------|-----------------------------------|
 C|-----------------------------|---------------------------------|-----------------------------------|
 G|-----------------------------|---------5---4-----------2---3---|-----------------------------------|
 C|-----------0---0-------0--0--|-0---0-----------3---2-----------|-0---0-------0--0--0---0---0-------|


A#|-----------------------------|---------------------------------|-------------------------------------|
 F|-----------------------------|---------------------------------|-------------------------------------|
 C|-----------------------------|---------------------------------|-------------------------------------|
 G|-----------------------------|---------5---4-----------2---3---|-------------------------------------|
 C|-----------0---0-------0--0--|-0---0-----------3---2-----------|-1---0---0---0--0--0---0---0--0--0---|


A#|--------------------------|-------------------------------------|-----------------------------------|
 F|--------------------------|-------------------------------------|-----------------------------------|
 C|--------------------------|-------------------------------------|-----------------------------------|
 G|-----------5----4----7----|-------------------------------------|-----------5---4-----------2---3---|
 C|-0--0--0------------------|-1---0---0---0--0--0---0---0--0--0---|-0--0--0-----------3---2-----------|


A#|-------------------------------------|--------------------------|-------------------------------------|
 F|-------------------------------------|--------------------------|-------------------------------------|
 C|-------------------------------------|--------------------------|-------------------------------------|
 G|-------------------------------------|-----------5----4----7----|-------------------------------------|
 C|-1---0---0---0--0--0---0---0--0--0---|-0--0--0------------------|-1---0---0---0--0--0---0---0--0--0---|


A#|-----------------------------------|-------------------------------------|--------------------------|
 F|-----------------------------------|-------------------------------------|--------------------------|
 C|-----------------------------------|-------------------------------------|--------------------------|
 G|-----------5---4-----------2---3---|-------------------------------------|-----------5----4----7----|
 C|-0--0--0-----------3---2-----------|-1---0---0---0--0--0---0---0--0--0---|-0--0--0------------------|


A#|-------------------------------------|-----------------------------------|-------------------------------------|
 F|-------------------------------------|-----------------------------------|-------------------------------------|
 C|-------------------------------------|-----------------------------------|-------------------------------------|
 G|-------------------------------------|-----------5---4-----------2---3---|-------------------------------------|
 C|-1---0---0---0--0--0---0---0--0--0---|-0--0--0-----------3---2-----------|-1---0---0---0--0--0---0---0--0--0---|


A#|--------------------------|-------------------------------------|-----------------------------------|
 F|--------------------------|-------------------------------------|-----------------------------------|
 C|--------------------------|-------------------------------------|-----------------------------------|
 G|-----------5----4----7----|-------------------------------------|-----------5---4-----------2---3---|
 C|-0--0--0------------------|-1---0---0---0--0--0---0---0--0--0---|-0--0--0-----------3---2-----------|


A#|---------------------------------|---------------------------------|---------------------------------|
 F|---------------------------------|---------------------------------|---------------------------------|
 C|---------------------------------|---------------------------------|---------------------------------|
 G|-4-------------------------------|-4-------------------------------|-4-------------------------------|
 C|-----0---1---0---5---6---0---3---|-----0---1---0---5---4---3---2---|-----0---1---0---5---6---0---3---|


A#|---------------------------------|---------------------------------|---------------------------------|
 F|---------------------------------|---------------------------------|---------------------------------|
 C|---------------------------------|---------------------------------|---------------------------------|
 G|-4-------------------------------|-4-------------------------------|-4-------------------------------|
 C|-----0---1---0---2---3---4---5---|-----0---1---0---5---6---0---3---|-----0---1---0---5---4---3---2---|


A#|---------------------------------|---------------------------------|---------------------------------|
 F|---------------------------------|---------------------------------|---------------------------------|
 C|---------------------------------|---------------------------------|---------------------------------|
 G|-4-------------------------------|-4-------------------------------|-4-------------------------------|
 C|-----0---1---0---5---6---0---3---|-----0---1---0---2---3---4---5---|-----0---1---0---5---6---0---3---|


A#|---------------------------------|---------------------------------|---------------------------------|
 F|---------------------------------|---------------------------------|---------------------------------|
 C|---------------------------------|---------------------------------|---------------------------------|
 G|-4-------------------------------|-4-------------------------------|-4-------------------------------|
 C|-----0---1---0---5---4---3---2---|-----0---1---0---5---6---0---3---|-----0---1---0---2---3---4---5---|


A#|---------------------------------|---------------------------------|---------------------------------|
 F|---------------------------------|---------------------------------|---------------------------------|
 C|---------------------------------|---------------------------------|---------------------------------|
 G|-4-------------------------------|-4-------------------------------|-4-------------------------------|
 C|-----0---1---0---5---6---0---3---|-----0---1---0---5---4---3---2---|-----0---1---0---5---6---0---3---|


A#|---------------------------------|---------------------------------|---------------------------------|
 F|---------------------------------|---------------------------------|---------------------------------|
 C|---------------------------------|---------------------------------|---------------------------------|
 G|-4-------------------------------|-4-------------------------------|-4-------------------------------|
 C|-----0---1---0---2---3---4---5---|-----0---1---0---5---6---0---3---|-----0---1---0---5---4---3---2---|


A#|---------------------------------|---------------------------------|------------------------|
 F|---------------------------------|---------------------------------|------------------------|
 C|---------------------------------|---------------------------------|------------------------|
 G|-4-------------------------------|-4-------------------------------|------------------------|
 C|-----0---1---0---5---6---0---3---|-----0---1---0---2---3---4---5---|-6----4----5---3---2----|


A#|---------------------------------------|------------------------|---------------------------------------|
 F|---------------------------------------|------------------------|---------------------------------------|
 C|---------------------------------------|------------------------|---------------------------------------|
 G|---------------------------------------|------------------------|---------------------------------------|
 C|-0---0--0--0---0---0--0--0---0--0--0---|-6----4----2---3---5----|-0---0--0--0---0---0--0--0---0--0--0---|


A#|------------------------|---------------------------------------|------------------------|
 F|------------------------|---------------------------------------|------------------------|
 C|------------------------|---------------------------------------|------------------------|
 G|------------------------|---------------------------------------|------------------------|
 C|-6----4----5---3---2----|-0---0--0--0---0---0--0--0---0--0--0---|-6----4----2---3---5----|


A#|---------------------------------------|----------------------------|-------------------------------|
 F|---------------------------------------|----------------------------|-------------------------------|
 C|---------------------------------------|----------------------------|-------------------------------|
 G|---------------------------------------|----------------------------|-------------------------------|
 C|-0---0--0--0---0---0--0--0---0--0--0---|-0----------0--0--0--0--0---|-0---0---0---------0--0--0--0--|


A#|------------------------|-------------------------------------|-------------------------------|
 F|------------------------|-------------------------------------|-------------------------------|
 C|------------------------|-------------------------------------|-------------------------------|
 G|------------------------|-------------------------------------|-------------------------------|
 C|-0---0---0----0---------|-----0--0--0--0--0---0---0---0-------|------0--0--0--0--0---0---0----|


A#|-----------------------------------|------------------------|-------------------------------|
 F|-----------------------------------|------------------------|-------------------------------|
 C|-----------------------------------|------------------------|--------------6--7--6--7--5----|
 G|-2---2---2---2---2---2-------------|---------8----7----5----|-10----------------------------|
 C|-------------------------0--0--0---|-0---0------------------|------0---0--------------------|


A#|-----------------------------------|------------------------|-------------------------------|
 F|-----------------------------------|------------------------|-------------------------------|
 C|-----------------------------------|------------------------|--------------6--7--6--7--5----|
 G|-2---2---2---2---2---2-------------|---------8----7----5----|-10----------------------------|
 C|-------------------------0--0--0---|-0---0------------------|------0---0--------------------|


A#|-----------------------------------|------------------------|-------------------------------|
 F|-----------------------------------|------------------------|-------------------------------|
 C|-----------------------------------|------------------------|--------------6--7--6--7--5----|
 G|-2---2---2---2---2---2-------------|---------8----7----5----|-10----------------------------|
 C|-------------------------0--0--0---|-0---0------------------|------0---0--------------------|


A#|-----------------------------------|------------------------|-------------------------------|
 F|-----------------------------------|------------------------|-------------------------------|
 C|-----------------------------------|------------------------|--------------6--7--6--7--5----|
 G|-2---2---2---2---2---2-------------|---------8----7----5----|-10----------------------------|
 C|-------------------------0--0--0---|-0---0------------------|------0---0--------------------|


A#|--------|----------------------------------|-----------------|---------------------------|
 F|--------|----------------------------------|-----------------|---------------------------|
 C|--------|-----------------1----------------|-----------------|-----------------------1---|
 G|--------|---------------------1------------|-----------------|---------------------------|
 C|-2------|-2--2--2--2--1-----------1---1----|-3----6----2-----|-------2--2--2--2--1-------|


A#|----------------|--------|----------------------------------|-----------------|
 F|----------------|--------|----------------------------------|-----------------|
 C|----------------|--------|-----------------1----------------|-----------------|
 G|-1--------------|--------|---------------------1------------|-----------------|
 C|-----1----------|-2------|-2--2--2--2--1-----------1---1----|-3----6----2-----|


A#|---------------------------|----------------|-----------------------------------|
 F|---------------------------|----------------|-----------------------------------|
 C|-----------------------1---|----------------|-----------------------------------|
 G|---------------------------|-1--------------|-----------------------------------|
 C|-------2--2--2--2--1-------|-----1----------|-0---0-------0--0--0---0---0-------|


A#|-----------------------------|---------------------------------|-----------------------------------|
 F|-----------------------------|---------------------------------|-----------------------------------|
 C|-----------------------------|---------------------------------|-----------------------------------|
 G|-----------------------------|---------5---4-----------2---3---|-----------------------------------|
 C|-----------0---0-------0--0--|-0---0-----------3---2-----------|-0---0-------0--0--0---0---0-------|


A#|-----------------------------|---------------------------------|-----------------------------------|
 F|-----------------------------|---------------------------------|-----------------------------------|
 C|-----------------------------|---------------------------------|-----------------------------------|
 G|-----------------------------|---------5---4-----------2---3---|-----------------------------------|
 C|-----------0---0-------0--0--|-0---0-----------3---2-----------|-0---0-------0--0--0---0---0-------|


A#|-----------------------------|---------------------------------|-----------------------------------|
 F|-----------------------------|---------------------------------|-----------------------------------|
 C|-----------------------------|---------------------------------|-----------------------------------|
 G|-----------------------------|---------5---4-----------2---3---|-----------------------------------|
 C|-----------0---0-------0--0--|-0---0-----------3---2-----------|-0---0-------0--0--0---0---0-------|


A#|-----------------------------|---------------------------------|-------------|-----------------|
 F|-----------------------------|---------------------------------|-------------|-----------------|
 C|-----------------------------|---------------------------------|-------------|-----------------|
 G|-----------------------------|---------5---4-----------2---3---|-------------|-----------------|
 C|-----------0---0-------0--0--|-0---0-----------3---2-----------|-0-----------|-----------------|