Site menu:

    

Browse: 0-9 A B C D E F G H I J K L N O P Q R S T U V W X Y Z

infliction of need - paceys view:



Title: Pacey's View
Artist: 
Album: 
Author: Josh Sullivan and Ben Robinson


Track 1: Ishwa

D|-------------------------------|-------------------------------|-------------------------------------|
A|-------------------------------|-------------------------------|-------------------------------------|
F|-------------------------------|---------------------2----1----|---------------------5---5---4---4---|
C|---------------------2----0----|-------------------------------|---------------------7---7---6---6---|
G|-0--0--0---0--0--0-------------|-0--0--0---0--0--0-------------|-0--0--0---0--0--0-------------------|
C|-0--0--0---0--0--0-------------|-0--0--0---0--0--0-------------|-0--0--0---0--0--0-------------------|


D|---------------------------------|-------------------------------|-------------------------------|
A|---------------------------------|-------------------------------|-------------------------------|
F|---------------------------------|-------------------------------|---------------------2----1----|
C|-5---5---4---4-------8---7---3---|---------------------2----0----|-------------------------------|
G|-5---5---4---4-------8---7---3---|-0--0--0---0--0--0-------------|-0--0--0---0--0--0-------------|
C|-5---5---4---4-------8---7---3---|-0--0--0---0--0--0-------------|-0--0--0---0--0--0-------------|


D|-------------------------------------|---------------------------------|---------------------------------|
A|-------------------------------------|---------------------------------|---------------------------------|
F|---------------------5---5---4---4---|---------------------------------|---------------------------------|
C|---------------------7---7---6---6---|-5---5---4---4-------8---7---3---|---------------------------------|
G|-0--0--0---0--0--0-------------------|-5---5---4---4-------8---7---3---|-0---0---0---0---0---0---0---0---|
C|-0--0--0---0--0--0-------------------|-5---5---4---4-------8---7---3---|-0---0---0---0---0---0---0---0---|


D|---------------------------------|---------------------------------|---------------------------------|
A|---------------------------------|---------------------------------|---------------------------------|
F|---------------------------------|---------------------------------|---------------------------------|
C|-3-------------------------------|-5-------------------------------|-7-------9---10------5---3---2---|
G|-3---0---0---0---0---0---0---0---|-5---0---0---0---0---0---0---0---|-7-------7---8-------5---3---2---|
C|-3---0---0---0---0---0---0---0---|-5---0---0---0---0---0---0---0---|-7-------------------5---3---2---|


D|---------------------------------|---------------------------------|---------------------------------|
A|---------------------------------|---------------------------------|---------------------------------|
F|---------------------------------|---------------------------------|---------------------------------|
C|---------------------------------|-3-------------------------------|-5-------------------------------|
G|-0---0---0---0---0---0---0---0---|-3---0---0---0---0---0---0---0---|-5---0---0---0---0---0---0---0---|
C|-0---0---0---0---0---0---0---0---|-3---0---0---0---0---0---0---0---|-5---0---0---0---0---0---0---0---|


D|---------------------------------|-------------------------------|-------------------------------|
A|---------------------------------|-------------------------------|-------------------------------|
F|---------------------------------|-------------------------------|---------------------2----1----|
C|-7-------9---10------5---3---2---|---------------------2----0----|-------------------------------|
G|-7-------7---8-------5---3---2---|-0--0--0---0--0--0-------------|-0--0--0---0--0--0-------------|
C|-7-------------------5---3---2---|-0--0--0---0--0--0-------------|-0--0--0---0--0--0-------------|


D|-------------------------------------|---------------------------------|-------------------------------|
A|-------------------------------------|---------------------------------|-------------------------------|
F|---------------------5---5---4---4---|---------------------------------|-------------------------------|
C|---------------------7---7---6---6---|-5---5---4---4-------8---7---3---|---------------------2----0----|
G|-0--0--0---0--0--0-------------------|-5---5---4---4-------8---7---3---|-0--0--0---0--0--0-------------|
C|-0--0--0---0--0--0-------------------|-5---5---4---4-------8---7---3---|-0--0--0---0--0--0-------------|


D|-------------------------------|-------------------------------------|---------------------------------|
A|-------------------------------|-------------------------------------|---------------------------------|
F|---------------------2----1----|---------------------5---5---4---4---|---------------------------------|
C|-------------------------------|---------------------7---7---6---6---|-5---5---4---4-------8---7---3---|
G|-0--0--0---0--0--0-------------|-0--0--0---0--0--0-------------------|-5---5---4---4-------8---7---3---|
C|-0--0--0---0--0--0-------------|-0--0--0---0--0--0-------------------|-5---5---4---4-------8---7---3---|


D|---------------------------------|---------------------------------|---------------------------------|
A|---------------------------------|---------------------------------|---------------------------------|
F|---------------------------------|---------------------------------|---------------------------------|
C|---------------------------------|-3-------------------------------|-5-------------------------------|
G|-0---0---0---0---0---0---0---0---|-3---0---0---0---0---0---0---0---|-5---0---0---0---0---0---0---0---|
C|-0---0---0---0---0---0---0---0---|-3---0---0---0---0---0---0---0---|-5---0---0---0---0---0---0---0---|


D|---------------------------------|---------------------------------|---------------------------------|
A|---------------------------------|---------------------------------|---------------------------------|
F|---------------------------------|---------------------------------|---------------------------------|
C|-7-------9---10------5---3---2---|---------------------------------|-3-------------------------------|
G|-7-------7---8-------5---3---2---|-0---0---0---0---0---0---0---0---|-3---0---0---0---0---0---0---0---|
C|-7-------------------5---3---2---|-0---0---0---0---0---0---0---0---|-3---0---0---0---0---0---0---0---|


D|---------------------------------|---------------------------------|---------------------------------|
A|---------------------------------|---------------------------------|---------------------------------|
F|---------------------------------|---------------------------------|---------------------------------|
C|-5-------------------------------|-7-------9---10------5---3---2---|---------------------------------|
G|-5---0---0---0---0---0---0---0---|-7-------7---8-------5---3---2---|-0---0---0---0---0---0---0---0---|
C|-5---0---0---0---0---0---0---0---|-7-------------------5---3---2---|-0---0---0---0---0---0---0---0---|


D|---------------------------------|---------------------------------|---------------------------------|
A|---------------------------------|---------------------------------|---------------------------------|
F|---------------------------------|---------------------------------|---------------------------------|
C|-3-------------------------------|-5-------------------------------|-7-------9---10------5---3---2---|
G|-3---0---0---0---0---0---0---0---|-5---0---0---0---0---0---0---0---|-7-------7---8-------5---3---2---|
C|-3---0---0---0---0---0---0---0---|-5---0---0---0---0---0---0---0---|-7-------------------5---3---2---|


D|---------------------------------|---------------------------------|---------------------------------|
A|---------------------------------|---------------------------------|---------------------------------|
F|---------------------------------|---------------------------------|---------------------------------|
C|---------------------------------|-3-------------------------------|-5-------------------------------|
G|-0---0---0---0---0---0---0---0---|-3---0---0---0---0---0---0---0---|-5---0---0---0---0---0---0---0---|
C|-0---0---0---0---0---0---0---0---|-3---0---0---0---0---0---0---0---|-5---0---0---0---0---0---0---0---|


D|---------------------------------|---------------------------------|---------------------------|
A|---------------------------------|---------------------------------|---------------------------|
F|---------------------------------|---------------------------------|---------------------------|
C|-7-------9---10------5---3---2---|---------------------------------|---------------------------|
G|-7-------7---8-------5---3---2---|-0---0-------0---0-------0---0---|-----0---0-------0----0----|
C|-7-------------------5---3---2---|-0---0-------0---0-------0---0---|-----0---0-------0----0----|


D|---------------------------------|---------------------------------|---------------------------------|
A|---------------------------------|---------------------------------|---------------------------------|
F|---------------------------------|---------------------------------|---------------------------------|
C|-3---3---3---3---3---3---3---3---|-1---1---1---1---1---1---1---1---|-10--10--10--10--10--10--10--10--|
G|-3---3---3---3---3---3---3---3---|-1---1---1---1---1---1---1---1---|-8---8---8---8---8---8---8---8---|
C|-3---3---3---3---3---3---3---3---|-1---1---1---1---1---1---1---1---|-8---8---8---8---8---8---8---8---|


D|---------------------------------|---------------------------------|---------------------------------|
A|---------------------------------|---------------------------------|---------------------------------|
F|---------------------------------|---------------------------------|---------------------------------|
C|-10--10--10--10--10--10--10--10--|-8---8---8---8---8---8---8---8---|-8---8---8---8---8---8---8---8---|
G|-8---8---8---8---8---8---8---8---|-5---5---5---5---5---5---5---5---|-5---5---5---5---5---5---5---5---|
C|-8---8---8---8---8---8---8---8---|-5---5---5---5---5---5---5---5---|-5---5---5---5---5---5---5---5---|


D|---------------------------------|---------------------------|---------------------------------|
A|---------------------------------|---------------------------|---------------------------------|
F|---------------------------------|---------------------------|---------------------------------|
C|---------------------------------|---------------------------|-3---3---3---3---3---3---3---3---|
G|-0---0-------0---0-------0---0---|-----0---0-------0----0----|-3---3---3---3---3---3---3---3---|
C|-0---0-------0---0-------0---0---|-----0---0-------0----0----|-3---3---3---3---3---3---3---3---|


D|---------------------------------|---------------------------------|---------------------------------|
A|---------------------------------|---------------------------------|---------------------------------|
F|---------------------------------|---------------------------------|---------------------------------|
C|-1---1---1---1---1---1---1---1---|-10--10--10--10--10--10--10--10--|-10--10--10--10--10--10--10--10--|
G|-1---1---1---1---1---1---1---1---|-8---8---8---8---8---8---8---8---|-8---8---8---8---8---8---8---8---|
C|-1---1---1---1---1---1---1---1---|-8---8---8---8---8---8---8---8---|-8---8---8---8---8---8---8---8---|


D|---------------------------------|---------------------------------|---------------------------------|
A|---------------------------------|---------------------------------|---------------------------------|
F|---------------------------------|---------------------------------|-19--19------19--19------19--19--|
C|-8---8---8---8---8---8---8---8---|-8---8---8---8---8---8---8---8---|---------------------------------|
G|-5---5---5---5---5---5---5---5---|-5---5---5---5---5---5---5---5---|-17--17------17--17------17--17--|
C|-5---5---5---5---5---5---5---5---|-5---5---5---5---5---5---5---5---|---------------------------------|


D|---------------------------|---------------------------------|---------------------------------|
A|---------------------------|---------------------------------|---------------------------------|
F|-----19--19------19---19---|-10--10--10--10--10--10--10--10--|-8---8---8---8---8---8---8---8---|
C|---------------------------|---------------------------------|---------------------------------|
G|-----17--17------17---17---|-8---8---8---8---8---8---8---8---|-6---6---6---6---6---6---6---6---|
C|---------------------------|---------------------------------|---------------------------------|


D|---------------------------------|---------------------------------|---------------------------------|
A|---------------------------------|---------------------------------|---------------------------------|
F|-10--10--9---9---12--12--10--10--|-10--10--10--10--10--10--10--10--|-12--12--12--12--12--12--12--12--|
C|---------------------------------|---------------------------------|---------------------------------|
G|-8---8---7---7---10--10--8---8---|-8---8---8---8---8---8---8---8---|-10--10--10--10--10--10--10--10--|
C|---------------------------------|---------------------------------|---------------------------------|


D|---------------------------------|---------------------------------|---------------------------|
A|---------------------------------|---------------------------------|---------------------------|
F|-12--12--14--14--15--15--17--17--|-19--19------19--19------19--19--|-----19--19------19---19---|
C|---------------------------------|---------------------------------|---------------------------|
G|-10--10--12--12--13--13--15--15--|-17--17------17--17------17--17--|-----17--17------17---17---|
C|---------------------------------|---------------------------------|---------------------------|


D|---------------------------------|---------------------------------|---------------------------------|
A|---------------------------------|---------------------------------|---------------------------------|
F|-10--10--10--10--10--10--10--10--|-8---8---8---8---8---8---8---8---|-10--10--9---9---12--12--10--10--|
C|---------------------------------|---------------------------------|---------------------------------|
G|-8---8---8---8---8---8---8---8---|-6---6---6---6---6---6---6---6---|-8---8---7---7---10--10--8---8---|
C|---------------------------------|---------------------------------|---------------------------------|


D|---------------------------------|---------------------------------|---------------------------------|
A|---------------------------------|---------------------------------|---------------------------------|
F|-10--10--10--10--10--10--10--10--|-12--12--12--12--12--12--12--12--|-12--12--14--14--15--15--17--17--|
C|---------------------------------|---------------------------------|---------------------------------|
G|-8---8---8---8---8---8---8---8---|-10--10--10--10--10--10--10--10--|-10--10--12--12--13--13--15--15--|
C|---------------------------------|---------------------------------|---------------------------------|


D|---------------------------------|--------|-------------------------------|-------------------------------|
A|---------------------------------|--------|-------------------------------|-------------------------------|
F|-19--19--19--19--19--19--19--19--|--------|-------------------------------|---------------------2----1----|
C|---------------------------------|--------|---------------------2----0----|-------------------------------|
G|-17--17--17--17--17--17--17--17--|--------|-0--0--0---0--0--0-------------|-0--0--0---0--0--0-------------|
C|---------------------------------|--------|-0--0--0---0--0--0-------------|-0--0--0---0--0--0-------------|


D|-------------------------------------|---------------------------------|-------------------------------|
A|-------------------------------------|---------------------------------|-------------------------------|
F|---------------------5---5---4---4---|---------------------------------|-------------------------------|
C|---------------------7---7---6---6---|-5---5---4---4-------8---7---3---|---------------------2----0----|
G|-0--0--0---0--0--0-------------------|-5---5---4---4-------8---7---3---|-0--0--0---0--0--0-------------|
C|-0--0--0---0--0--0-------------------|-5---5---4---4-------8---7---3---|-0--0--0---0--0--0-------------|


D|-------------------------------|-------------------------------------|---------------------------------|
A|-------------------------------|-------------------------------------|---------------------------------|
F|---------------------2----1----|---------------------5---5---4---4---|---------------------------------|
C|-------------------------------|---------------------7---7---6---6---|-5---5---4---4-------8---7---3---|
G|-0--0--0---0--0--0-------------|-0--0--0---0--0--0-------------------|-5---5---4---4-------8---7---3---|
C|-0--0--0---0--0--0-------------|-0--0--0---0--0--0-------------------|-5---5---4---4-------8---7---3---|


D|---------------------------------|---------------------------------|---------------------------------|
A|---------------------------------|---------------------------------|---------------------------------|
F|---------------------------------|---------------------------------|---------------------------------|
C|---------------------------------|-3-------------------------------|-5-------------------------------|
G|-0---0---0---0---0---0---0---0---|-3---0---0---0---0---0---0---0---|-5---0---0---0---0---0---0---0---|
C|-0---0---0---0---0---0---0---0---|-3---0---0---0---0---0---0---0---|-5---0---0---0---0---0---0---0---|


D|---------------------------------|---------------------------------|---------------------------------|
A|---------------------------------|---------------------------------|---------------------------------|
F|---------------------------------|---------------------------------|---------------------------------|
C|-7-------9---10------5---3---2---|---------------------------------|-3-------------------------------|
G|-7-------7---8-------5---3---2---|-0---0---0---0---0---0---0---0---|-3---0---0---0---0---0---0---0---|
C|-7-------------------5---3---2---|-0---0---0---0---0---0---0---0---|-3---0---0---0---0---0---0---0---|


D|---------------------------------|---------------------------------|---------------------------------|
A|---------------------------------|---------------------------------|---------------------------------|
F|---------------------------------|---------------------------------|---------------------------------|
C|-5-------------------------------|-7-------9---10------5---3---2---|---------------------------------|
G|-5---0---0---0---0---0---0---0---|-7-------7---8-------5---3---2---|-0---0---0---0---0---0---0---0---|
C|-5---0---0---0---0---0---0---0---|-7-------------------5---3---2---|-0---0---0---0---0---0---0---0---|


D|---------------------------------|---------------------------------|---------------------------------|
A|---------------------------------|---------------------------------|---------------------------------|
F|---------------------------------|---------------------------------|---------------------------------|
C|-3-------------------------------|-5-------------------------------|-7-------9---10------5---3---2---|
G|-3---0---0---0---0---0---0---0---|-5---0---0---0---0---0---0---0---|-7-------7---8-------5---3---2---|
C|-3---0---0---0---0---0---0---0---|-5---0---0---0---0---0---0---0---|-7-------------------5---3---2---|


D|---------------------------------|---------------------------------|---------------------------------|
A|---------------------------------|---------------------------------|---------------------------------|
F|---------------------------------|---------------------------------|---------------------------------|
C|---------------------------------|-3-------------------------------|-5-------------------------------|
G|-0---0---0---0---0---0---0---0---|-3---0---0---0---0---0---0---0---|-5---0---0---0---0---0---0---0---|
C|-0---0---0---0---0---0---0---0---|-3---0---0---0---0---0---0---0---|-5---0---0---0---0---0---0---0---|


D|---------------------------------|---------------------------------|---------------------------|
A|---------------------------------|---------------------------------|---------------------------|
F|---------------------------------|---------------------------------|---------------------------|
C|-7-------9---10------5---3---2---|---------------------------------|---------------------------|
G|-7-------7---8-------5---3---2---|-0---0-------0---0-------0---0---|-----0---0-------0----0----|
C|-7-------------------5---3---2---|-0---0-------0---0-------0---0---|-----0---0-------0----0----|


D|---------------------------------|---------------------------------|---------------------------------|
A|---------------------------------|---------------------------------|---------------------------------|
F|---------------------------------|---------------------------------|---------------------------------|
C|-3---3---3---3---3---3---3---3---|-1---1---1---1---1---1---1---1---|-10--10--10--10--10--10--10--10--|
G|-3---3---3---3---3---3---3---3---|-1---1---1---1---1---1---1---1---|-8---8---8---8---8---8---8---8---|
C|-3---3---3---3---3---3---3---3---|-1---1---1---1---1---1---1---1---|-8---8---8---8---8---8---8---8---|


D|---------------------------------|---------------------------------|---------------------------------|
A|---------------------------------|---------------------------------|---------------------------------|
F|---------------------------------|---------------------------------|---------------------------------|
C|-10--10--10--10--10--10--10--10--|-8---8---8---8---8---8---8---8---|-8---8---8---8---8---8---8---8---|
G|-8---8---8---8---8---8---8---8---|-5---5---5---5---5---5---5---5---|-5---5---5---5---5---5---5---5---|
C|-8---8---8---8---8---8---8---8---|-5---5---5---5---5---5---5---5---|-5---5---5---5---5---5---5---5---|


D|---------------------------------|---------------------------|---------------------------------|
A|---------------------------------|---------------------------|---------------------------------|
F|---------------------------------|---------------------------|---------------------------------|
C|---------------------------------|---------------------------|-3---3---3---3---3---3---3---3---|
G|-0---0-------0---0-------0---0---|-----0---0-------0----0----|-3---3---3---3---3---3---3---3---|
C|-0---0-------0---0-------0---0---|-----0---0-------0----0----|-3---3---3---3---3---3---3---3---|


D|---------------------------------|---------------------------------|---------------------------------|
A|---------------------------------|---------------------------------|---------------------------------|
F|---------------------------------|---------------------------------|---------------------------------|
C|-1---1---1---1---1---1---1---1---|-10--10--10--10--10--10--10--10--|-10--10--10--10--10--10--10--10--|
G|-1---1---1---1---1---1---1---1---|-8---8---8---8---8---8---8---8---|-8---8---8---8---8---8---8---8---|
C|-1---1---1---1---1---1---1---1---|-8---8---8---8---8---8---8---8---|-8---8---8---8---8---8---8---8---|


D|---------------------------------|---------------------------------|---------------------------------|
A|---------------------------------|---------------------------------|---------------------------------|
F|---------------------------------|---------------------------------|-19--19------19--19------19--19--|
C|-8---8---8---8---8---8---8---8---|-8---8---8---8---8---8---8---8---|---------------------------------|
G|-5---5---5---5---5---5---5---5---|-5---5---5---5---5---5---5---5---|-17--17------17--17------17--17--|
C|-5---5---5---5---5---5---5---5---|-5---5---5---5---5---5---5---5---|---------------------------------|


D|---------------------------|---------------------------------|---------------------------------|
A|---------------------------|---------------------------------|---------------------------------|
F|-----19--19------19---19---|-10--10--10--10--10--10--10--10--|-8---8---8---8---8---8---8---8---|
C|---------------------------|---------------------------------|---------------------------------|
G|-----17--17------17---17---|-8---8---8---8---8---8---8---8---|-6---6---6---6---6---6---6---6---|
C|---------------------------|---------------------------------|---------------------------------|


D|---------------------------------|---------------------------------|---------------------------------|
A|---------------------------------|---------------------------------|---------------------------------|
F|-10--10--9---9---12--12--10--10--|-10--10--10--10--10--10--10--10--|-12--12--12--12--12--12--12--12--|
C|---------------------------------|---------------------------------|---------------------------------|
G|-8---8---7---7---10--10--8---8---|-8---8---8---8---8---8---8---8---|-10--10--10--10--10--10--10--10--|
C|---------------------------------|---------------------------------|---------------------------------|


D|---------------------------------|---------------------------------|---------------------------|
A|---------------------------------|---------------------------------|---------------------------|
F|-12--12--14--14--15--15--17--17--|-19--19------19--19------19--19--|-----19--19------19---19---|
C|---------------------------------|---------------------------------|---------------------------|
G|-10--10--12--12--13--13--15--15--|-17--17------17--17------17--17--|-----17--17------17---17---|
C|---------------------------------|---------------------------------|---------------------------|


D|---------------------------------|---------------------------------|---------------------------------|
A|---------------------------------|---------------------------------|---------------------------------|
F|-10--10--10--10--10--10--10--10--|-8---8---8---8---8---8---8---8---|-10--10--9---9---12--12--10--10--|
C|---------------------------------|---------------------------------|---------------------------------|
G|-8---8---8---8---8---8---8---8---|-6---6---6---6---6---6---6---6---|-8---8---7---7---10--10--8---8---|
C|---------------------------------|---------------------------------|---------------------------------|


D|---------------------------------|---------------------------------|---------------------------------|
A|---------------------------------|---------------------------------|---------------------------------|
F|-10--10--10--10--10--10--10--10--|-12--12--12--12--12--12--12--12--|-12--12--14--14--15--15--17--17--|
C|---------------------------------|---------------------------------|---------------------------------|
G|-8---8---8---8---8---8---8---8---|-10--10--10--10--10--10--10--10--|-10--10--12--12--13--13--15--15--|
C|---------------------------------|---------------------------------|---------------------------------|


D|---------------------------------|---------------------------------|---------------------------------|
A|---------------------------------|---------------------------------|---------------------------------|
F|-19--19--19--19--19--19--19--19--|-19--19--19--19--19--19--19--19--|-19--19--19--19--19--19--19--19--|
C|---------------------------------|---------------------------------|---------------------------------|
G|-17--17--17--17--17--17--17--17--|-17--17--17--17--17--17--17--17--|-17--17--17--17--17--17--17--17--|
C|---------------------------------|---------------------------------|---------------------------------|


D|---------------------------------|------------------------------------|----------------------------------|
A|---------------------------------|------------------------------------|----------------------------------|
F|-19--19--19--19--19--19--19--19--|------------------------------------|----------------------------------|
C|---------------------------------|---------------------8--------------|---------------------10-----------|
G|-17--17--17--17--17--17--17--17--|---------------------5--------------|---------------------8----0---0---|
C|---------------------------------|-0--0--0---0--0--0---5----0--0--0---|-0--0--0---0--0--0---8----0---0---|


D|---------------------------------|------------------------------|------------------------------------|
A|-15--12--------------------------|------------------------------|------------------------------------|
F|---------12------12--11--9-------|-9---8-----------9---8--------|------------------------------------|
C|-------------12--------------12--|---------10--9-----------10---|---------------------8--------------|
G|---------------------------------|------------------------------|---------------------5--------------|
C|---------------------------------|------------------------------|-0--0--0---0--0--0---5----0--0--0---|


D|----------------------------------|---------------------------------|------------------------------|
A|----------------------------------|-15--12--------------------------|------------------------------|
F|----------------------------------|---------12------12--11--9-------|-9---8-----------9---8--------|
C|---------------------10-----------|-------------12--------------12--|---------10--9-----------10---|
G|---------------------8----0---0---|---------------------------------|------------------------------|
C|-0--0--0---0--0--0---8----0---0---|---------------------------------|------------------------------|


D|------------------------------------|----------------------------------|---------------------------------|
A|------------------------------------|----------------------------------|-15--12--------------------------|
F|------------------------------------|----------------------------------|---------12------12--11--9-------|
C|---------------------8--------------|---------------------10-----------|-------------12--------------12--|
G|---------------------5--------------|---------------------8----0---0---|---------------------------------|
C|-0--0--0---0--0--0---5----0--0--0---|-0--0--0---0--0--0---8----0---0---|---------------------------------|


D|------------------------------|------------------------------------|----------------------------------|
A|------------------------------|------------------------------------|----------------------------------|
F|-9---8-----------9---8--------|------------------------------------|----------------------------------|
C|---------10--9-----------10---|---------------------8--------------|---------------------10-----------|
G|------------------------------|---------------------5--------------|---------------------8----0---0---|
C|------------------------------|-0--0--0---0--0--0---5----0--0--0---|-0--0--0---0--0--0---8----0---0---|


D|---------------------------------|------------------------------|---------------------------|
A|-15--12--------------------------|------------------------------|---------------------------|
F|---------12------12--11--9-------|-9---8-----------9---8--------|---------------------------|
C|-------------12--------------12--|---------10--9-----------10---|---------10----10--10--10--|
G|---------------------------------|------------------------------|-8---8---8-----8---8---8---|
C|---------------------------------|------------------------------|-8---8---8-----8---8---8---|


D|---------------------------|------------------------------------|-------------------------------|
A|---------------------------|------------------------------------|-------------------------------|
F|---------------------------|---------------------7--------------|---------------------12---9----|
C|---------8-----8---8---8---|------------------------------------|-------------------------------|
G|-5---5---5-----5---5---5---|---------------------5--------------|---------------------10---7----|
C|-5---5---5-----5---5---5---|-0--0--0---0--0--0--------0--0--0---|-0--0--0---0--0--0-------------|


D|---------------------------|---------------------------|------------------------------------|
A|---------------------------|---------------------------|------------------------------------|
F|---------------------------|---------------------------|---------------------7--------------|
C|---------10----10--10--10--|---------8-----8---8---8---|------------------------------------|
G|-8---8---8-----8---8---8---|-5---5---5-----5---5---5---|---------------------5--------------|
C|-8---8---8-----8---8---8---|-5---5---5-----5---5---5---|-0--0--0---0--0--0--------0--0--0---|


D|-------------------------------|------------------------------------|------------------------------------|
A|-------------------------------|------------------------------------|------------------------------------|
F|---------------------12---9----|------------------------------------|------------------------------------|
C|-------------------------------|------------------------------------|------------------------------------|
G|---------------------10---7----|-0--0-------0--0--0--0------0---2---|-0--0-------0--0--0--0--------------|
C|-0--0--0---0--0--0-------------|-0--0-------0--0--0--0------0---2---|-0--0-------0--0--0--0------0---14--|


D|---------------------------------|---------------------------|------------------------------------|
A|---------------------------------|---------------------------|------------------------------------|
F|-19--19------19--19--19------19--|-17--17------17--16---15---|------------------------------------|
C|---------------------------------|---------------------------|------------------------------------|
G|-17--17------17--17--17------17--|-15--15------15--14---13---|-0--0-------0--0--0--0------0---2---|
C|---------------------------------|---------------------------|-0--0-------0--0--0--0------0---2---|


D|------------------------------------|---------------------------------|---------------------------|
A|------------------------------------|---------------------------------|---------------------------|
F|------------------------------------|-19--19------19--19--19------19--|-17--17------17--16---15---|
C|------------------------------------|---------------------------------|---------------------------|
G|-0--0-------0--0--0--0--------------|-17--17------17--17--17------17--|-15--15------15--14---13---|
C|-0--0-------0--0--0--0------0---14--|---------------------------------|---------------------------|


D|------------------------------------|------------------------------------|---------------------------------|
A|------------------------------------|------------------------------------|---------------------------------|
F|------------------------------------|------------------------------------|-19--19------19--19--19------19--|
C|------------------------------------|------------------------------------|---------------------------------|
G|-0--0-------0--0--0--0------0---2---|-0--0-------0--0--0--0--------------|-17--17------17--17--17------17--|
C|-0--0-------0--0--0--0------0---2---|-0--0-------0--0--0--0------0---14--|---------------------------------|


D|---------------------------|------------------------------------|------------------------------------|
A|---------------------------|------------------------------------|------------------------------------|
F|-17--17------17--16---15---|------------------------------------|------------------------------------|
C|---------------------------|------------------------------------|------------------------------------|
G|-15--15------15--14---13---|-0--0-------0--0--0--0------0---2---|-0--0-------0--0--0--0--------------|
C|---------------------------|-0--0-------0--0--0--0------0---2---|-0--0-------0--0--0--0------0---14--|


D|---------------------------------|---------------------------|-------------------------------------------------|
A|---------------------------------|---------------------------|-11-11-11-11-------10-10-10-10-8--8--8--8--------|
F|-19--19------19--19--19------19--|-17--17------17--16---15---|-------------9--9--------------------------11-9--|
C|---------------------------------|---------------------------|-------------------------------------------------|
G|-17--17------17--17--17------17--|-15--15------15--14---13---|-------------------------------------------------|
C|---------------------------------|---------------------------|-------------------------------------------------|


D|-------------------------------------------------|-------------------------------------------------|
A|-11-11-11-11-------10-10-10-10-8--8--8--8--------|-8--8--8--8--------7--7--7--7--5--5--5--7--8--10-|
F|-------------9--9--------------------------11-9--|-------------7--7--------------------------------|
C|-------------------------------------------------|-------------------------------------------------|
G|-------------------------------------------------|-------------------------------------------------|
C|-------------------------------------------------|-------------------------------------------------|


D|-------------------------------------------------|-------------------------------------------------|
A|-10-10-10-10-------9--9--9--9--7--7--7--7--------|-11-11-11-11-------10-10-10-10-8--8--8--8--------|
F|-------------9--9--------------------------10-8--|-------------9--9--------------------------11-9--|
C|-------------------------------------------------|-------------------------------------------------|
G|-------------------------------------------------|-------------------------------------------------|
C|-------------------------------------------------|-------------------------------------------------|


D|-------------------------------------------------|-------------------------------------------------|
A|-11-11-11-11-------10-10-10-10-8--8--8--8--------|-8--8--8--8--------7--7--7--7--5--5--5--7--8--10-|
F|-------------9--9--------------------------11-9--|-------------7--7--------------------------------|
C|-------------------------------------------------|-------------------------------------------------|
G|-------------------------------------------------|-------------------------------------------------|
C|-------------------------------------------------|-------------------------------------------------|


D|-------------------------------------------------|-13-13-13-13-------12-12-12-12-10----10----------|
A|-10-10-10-10-------9--9--9--9--7--7--7--7--------|-------------10-10----------------13----13-12-10-|
F|-------------9--9--------------------------10-8--|-------------------------------------------------|
C|-------------------------------------------------|-------------------------------------------------|
G|-------------------------------------------------|-------------------------------------------------|
C|-------------------------------------------------|-------------------------------------------------|


D|-13-13-13-13-------12-12-12-12-10----10----------|-10-10-10-10-------9--9--9--9--7-----7--9--10-12-|
A|-------------10-10----------------13----13-12-10-|-------------8--8-----------------10-------------|
F|-------------------------------------------------|-------------------------------------------------|
C|-------------------------------------------------|-------------------------------------------------|
G|-------------------------------------------------|-------------------------------------------------|
C|-------------------------------------------------|-------------------------------------------------|


D|-12-12-12-12-------11-11-11-11-9-----9-----------|-13-13-13-13-------12-12-12-12-10----10----------|
A|-------------10-10----------------12----12-11-9--|-------------10-10----------------13----13-12-10-|
F|-------------------------------------------------|-------------------------------------------------|
C|-------------------------------------------------|-------------------------------------------------|
G|-------------------------------------------------|-------------------------------------------------|
C|-------------------------------------------------|-------------------------------------------------|


D|-13-13-13-13-------12-12-12-12-10----10----------|-10-10-10-10-------9--9--9--9--7-----7--9--10-12-|
A|-------------10-10----------------13----13-12-10-|-------------8--8-----------------10-------------|
F|-------------------------------------------------|-------------------------------------------------|
C|-------------------------------------------------|-------------------------------------------------|
G|-------------------------------------------------|-------------------------------------------------|
C|-------------------------------------------------|-------------------------------------------------|


D|-12-12-12-12-------11-11-11-11-9-----9-----------|------------------------------|
A|-------------10-10----------------12----12-11-9--|------------------------------|
F|-------------------------------------------------|------------------------------|
C|-------------------------------------------------|-0------------3---0-----------|
G|-------------------------------------------------|-0----0---0---3---0---0---0---|
C|-------------------------------------------------|-0----0---0---3---0---0---0---|


D|------------------------------|---------------------------------|------------------------------|
A|------------------------------|---------------------------------|------------------------------|
F|------------------------------|---------------------------------|------------------------------|
C|-6---5---3---5---0------------|-3---0-----------6---5---3---5---|-0------------3---0-----------|
G|-6---5---3---5---0----0---0---|-3---0---0---0---6---5---3---5---|-0----0---0---3---0---0---0---|
C|-6---5---3---5---0----0---0---|-3---0---0---0---6---5---3---5---|-0----0---0---3---0---0---0---|


D|------------------------------|---------------------------------|------------------------------|
A|------------------------------|---------------------------------|------------------------------|
F|------------------------------|---------------------------------|------------------------------|
C|-6---5---3---5---0------------|-3---0-----------6---5---3---5---|-0------------3---0-----------|
G|-6---5---3---5---0----0---0---|-3---0---0---0---6---5---3---5---|-0----0---0---3---0---0---0---|
C|-6---5---3---5---0----0---0---|-3---0---0---0---6---5---3---5---|-0----0---0---3---0---0---0---|


D|------------------------------|---------------------------------|------------------------------|
A|------------------------------|---------------------------------|------------------------------|
F|------------------------------|---------------------------------|------------------------------|
C|-6---5---3---5---0------------|-3---0-----------6---5---3---5---|-0------------3---0-----------|
G|-6---5---3---5---0----0---0---|-3---0---0---0---6---5---3---5---|-0----0---0---3---0---0---0---|
C|-6---5---3---5---0----0---0---|-3---0---0---0---6---5---3---5---|-0----0---0---3---0---0---0---|


D|------------------------------|---------------------------------|-----------------------------------|
A|------------------------------|---------------------------------|-----------------------------------|
F|------------------------------|---------------------------------|-----------------------------------|
C|-6---5---3---5---0------------|-3---0-----------6---5---3---5---|-0----------------3----------------|
G|-6---5---3---5---0----0---0---|-3---0---0---0---6---5---3---5---|-0----------------3----------------|
C|-6---5---3---5---0----0---0---|-3---0---0---0---6---5---3---5---|-0----0--0--0--0--3----0--0--0--0--|


D|----------------------------------|-----------------------------------|----------------------------------|
A|----------------------------------|-----------------------------------|----------------------------------|
F|----------------------------------|-----------------------------------|----------------------------------|
C|-5----------------6---5---3---5---|-0----------------3----------------|-5----------------6---5---3---5---|
G|-5----------------6---5---3---5---|-0----------------3----------------|-5----------------6---5---3---5---|
C|-5----0--0--0--0--6---5---3---5---|-0----0--0--0--0--3----0--0--0--0--|-5----0--0--0--0--6---5---3---5---|


D|-----------------------------------|----------------------------------|-----------------------------------|
A|-----------------------------------|----------------------------------|-----------------------------------|
F|-----------------------------------|----------------------------------|-----------------------------------|
C|-0----------------3----------------|-5----------------6---5---3---5---|-0----------------3----------------|
G|-0----------------3----------------|-5----------------6---5---3---5---|-0----------------3----------------|
C|-0----0--0--0--0--3----0--0--0--0--|-5----0--0--0--0--6---5---3---5---|-0----0--0--0--0--3----0--0--0--0--|


D|----------------------------------|-----------------------------------|----------------------------------|
A|----------------------------------|-----------------------------------|----------------------------------|
F|----------------------------------|-----------------------------------|----------------------------------|
C|-5----------------6---5---3---5---|-0----------------3----------------|-5----------------6---5---3---5---|
G|-5----------------6---5---3---5---|-0----------------3----------------|-5----------------6---5---3---5---|
C|-5----0--0--0--0--6---5---3---5---|-0----0--0--0--0--3----0--0--0--0--|-5----0--0--0--0--6---5---3---5---|


D|-----------------------------------|----------------------------------|-----------------------------------|
A|-----------------------------------|----------------------------------|-----------------------------------|
F|-----------------------------------|----------------------------------|-----------------------------------|
C|-0----------------3----------------|-5----------------6---5---3---5---|-0----------------3----------------|
G|-0----------------3----------------|-5----------------6---5---3---5---|-0----------------3----------------|
C|-0----0--0--0--0--3----0--0--0--0--|-5----0--0--0--0--6---5---3---5---|-0----0--0--0--0--3----0--0--0--0--|


D|----------------------------------|-----------------------------------|----------------------------------|
A|----------------------------------|-----------------------------------|----------------------------------|
F|----------------------------------|-----------------------------------|----------------------------------|
C|-5----------------6---5---3---5---|-0----------------3----------------|-5----------------6---5---3---5---|
G|-5----------------6---5---3---5---|-0----------------3----------------|-5----------------6---5---3---5---|
C|-5----0--0--0--0--6---5---3---5---|-0----0--0--0--0--3----0--0--0--0--|-5----0--0--0--0--6---5---3---5---|


D|---------------------------------|---------------------------|---------------------------------|
A|---------------------------------|---------------------------|---------------------------------|
F|---------------------------------|---------------------------|---------------------------------|
C|---------------------------------|---------------------------|-3---3---3---3---3---3---3---3---|
G|-0---0-------0---0-------0---0---|-----0---0-------0----0----|-3---3---3---3---3---3---3---3---|
C|-0---0-------0---0-------0---0---|-----0---0-------0----0----|-3---3---3---3---3---3---3---3---|


D|---------------------------------|---------------------------------|---------------------------------|
A|---------------------------------|---------------------------------|---------------------------------|
F|---------------------------------|---------------------------------|---------------------------------|
C|-1---1---1---1---1---1---1---1---|-10--10--10--10--10--10--10--10--|-10--10--10--10--10--10--10--10--|
G|-1---1---1---1---1---1---1---1---|-8---8---8---8---8---8---8---8---|-8---8---8---8---8---8---8---8---|
C|-1---1---1---1---1---1---1---1---|-8---8---8---8---8---8---8---8---|-8---8---8---8---8---8---8---8---|


D|---------------------------------|---------------------------------|---------------------------------|
A|---------------------------------|---------------------------------|---------------------------------|
F|---------------------------------|---------------------------------|---------------------------------|
C|-8---8---8---8---8---8---8---8---|-8---8---8---8---8---8---8---8---|---------------------------------|
G|-5---5---5---5---5---5---5---5---|-5---5---5---5---5---5---5---5---|-0---0-------0---0-------0---0---|
C|-5---5---5---5---5---5---5---5---|-5---5---5---5---5---5---5---5---|-0---0-------0---0-------0---0---|


D|---------------------------|---------------------------------|---------------------------------|
A|---------------------------|---------------------------------|---------------------------------|
F|---------------------------|---------------------------------|---------------------------------|
C|---------------------------|-3---3---3---3---3---3---3---3---|-1---1---1---1---1---1---1---1---|
G|-----0---0-------0----0----|-3---3---3---3---3---3---3---3---|-1---1---1---1---1---1---1---1---|
C|-----0---0-------0----0----|-3---3---3---3---3---3---3---3---|-1---1---1---1---1---1---1---1---|


D|---------------------------------|---------------------------------|---------------------------------|
A|---------------------------------|---------------------------------|---------------------------------|
F|---------------------------------|---------------------------------|---------------------------------|
C|-10--10--10--10--10--10--10--10--|-10--10--10--10--10--10--10--10--|-8---8---8---8---8---8---8---8---|
G|-8---8---8---8---8---8---8---8---|-8---8---8---8---8---8---8---8---|-5---5---5---5---5---5---5---5---|
C|-8---8---8---8---8---8---8---8---|-8---8---8---8---8---8---8---8---|-5---5---5---5---5---5---5---5---|


D|---------------------------------|---------------------------------|---------------------------|
A|---------------------------------|---------------------------------|---------------------------|
F|---------------------------------|-19--19------19--19------19--19--|-----19--19------19---19---|
C|-8---8---8---8---8---8---8---8---|---------------------------------|---------------------------|
G|-5---5---5---5---5---5---5---5---|-17--17------17--17------17--17--|-----17--17------17---17---|
C|-5---5---5---5---5---5---5---5---|---------------------------------|---------------------------|


D|---------------------------------|---------------------------------|---------------------------------|
A|---------------------------------|---------------------------------|---------------------------------|
F|-10--10--10--10--10--10--10--10--|-8---8---8---8---8---8---8---8---|-10--10--9---9---12--12--10--10--|
C|---------------------------------|---------------------------------|---------------------------------|
G|-8---8---8---8---8---8---8---8---|-6---6---6---6---6---6---6---6---|-8---8---7---7---10--10--8---8---|
C|---------------------------------|---------------------------------|---------------------------------|


D|---------------------------------|---------------------------------|---------------------------------|
A|---------------------------------|---------------------------------|---------------------------------|
F|-10--10--10--10--10--10--10--10--|-12--12--12--12--12--12--12--12--|-12--12--14--14--15--15--17--17--|
C|---------------------------------|---------------------------------|---------------------------------|
G|-8---8---8---8---8---8---8---8---|-10--10--10--10--10--10--10--10--|-10--10--12--12--13--13--15--15--|
C|---------------------------------|---------------------------------|---------------------------------|


D|---------------------------------|---------------------------|---------------------------------|
A|---------------------------------|---------------------------|---------------------------------|
F|-19--19------19--19------19--19--|-----19--19------19---19---|-10--10--10--10--10--10--10--10--|
C|---------------------------------|---------------------------|---------------------------------|
G|-17--17------17--17------17--17--|-----17--17------17---17---|-8---8---8---8---8---8---8---8---|
C|---------------------------------|---------------------------|---------------------------------|


D|---------------------------------|---------------------------------|---------------------------------|
A|---------------------------------|---------------------------------|---------------------------------|
F|-8---8---8---8---8---8---8---8---|-10--10--9---9---12--12--10--10--|-10--10--10--10--10--10--10--10--|
C|---------------------------------|---------------------------------|---------------------------------|
G|-6---6---6---6---6---6---6---6---|-8---8---7---7---10--10--8---8---|-8---8---8---8---8---8---8---8---|
C|---------------------------------|---------------------------------|---------------------------------|


D|---------------------------------|---------------------------------|---------------------------------|
A|---------------------------------|---------------------------------|---------------------------------|
F|-12--12--12--12--12--12--12--12--|-12--12--14--14--15--15--17--17--|-19--19--19--19--19--19--19--19--|
C|---------------------------------|---------------------------------|---------------------------------|
G|-10--10--10--10--10--10--10--10--|-10--10--12--12--13--13--15--15--|-17--17--17--17--17--17--17--17--|
C|---------------------------------|---------------------------------|---------------------------------|


D|---------------------------------|---------------------------------|-----------------|
A|---------------------------------|---------------------------------|-----------------|
F|-19--19--19--19--19--19--19--19--|-19--19--19--19--19--19--19--19--|-19--------------|
C|---------------------------------|---------------------------------|-----------------|
G|-17--17--17--17--17--17--17--17--|-17--17--17--17--17--17--17--17--|-17--------------|
C|---------------------------------|---------------------------------|-----------------|





Track 2: Benoit

D|-------------------------------|-------------------------------|-------------------------------------|
A|-------------------------------|-------------------------------|-------------------------------------|
F|-------------------------------|-------------------------------|---------------------5---5---4---4---|
C|-------------------------------|---------------------3----2----|---------------------7---7---6---6---|
G|-0--0--0---0--0--0---3----1----|-0--0--0---0--0--0-------------|-0--0--0---0--0--0-------------------|
C|-0--0--0---0--0--0-------------|-0--0--0---0--0--0-------------|-0--0--0---0--0--0-------------------|


D|---------------------------------|-------------------------------|-------------------------------|
A|---------------------------------|-------------------------------|-------------------------------|
F|---------------------------------|-------------------------------|-------------------------------|
C|-5---5---4---4-------8---7---3---|-------------------------------|---------------------3----2----|
G|-5---5---4---4-------8---7---3---|-0--0--0---0--0--0---3----1----|-0--0--0---0--0--0-------------|
C|-5---5---4---4-------8---7---3---|-0--0--0---0--0--0-------------|-0--0--0---0--0--0-------------|


D|-------------------------------------|---------------------------------|--------|
A|-------------------------------------|---------------------------------|--------|
F|---------------------5---5---4---4---|---------------------------------|--------|
C|---------------------7---7---6---6---|-5---5---4---4-------8---7---3---|--------|
G|-0--0--0---0--0--0-------------------|-5---5---4---4-------8---7---3---|--------|
C|-0--0--0---0--0--0-------------------|-5---5---4---4-------8---7---3---|--------|


D|--------|--------|--------|--------|--------|--------|--------|-------------------------------|
A|--------|--------|--------|--------|--------|--------|--------|-------------------------------|
F|--------|--------|--------|--------|--------|--------|--------|-------------------------------|
C|--------|--------|--------|--------|--------|--------|--------|-------------------------------|
G|--------|--------|--------|--------|--------|--------|--------|-0--0--0---0--0--0---3----1----|
C|--------|--------|--------|--------|--------|--------|--------|-0--0--0---0--0--0-------------|


D|-------------------------------|-------------------------------------|---------------------------------|
A|-------------------------------|-------------------------------------|---------------------------------|
F|-------------------------------|---------------------5---5---4---4---|---------------------------------|
C|---------------------3----2----|---------------------7---7---6---6---|-5---5---4---4-------8---7---3---|
G|-0--0--0---0--0--0-------------|-0--0--0---0--0--0-------------------|-5---5---4---4-------8---7---3---|
C|-0--0--0---0--0--0-------------|-0--0--0---0--0--0-------------------|-5---5---4---4-------8---7---3---|


D|-------------------------------|-------------------------------|-------------------------------------|
A|-------------------------------|-------------------------------|-------------------------------------|
F|-------------------------------|-------------------------------|---------------------5---5---4---4---|
C|-------------------------------|---------------------3----2----|---------------------7---7---6---6---|
G|-0--0--0---0--0--0---3----1----|-0--0--0---0--0--0-------------|-0--0--0---0--0--0-------------------|
C|-0--0--0---0--0--0-------------|-0--0--0---0--0--0-------------|-0--0--0---0--0--0-------------------|


D|---------------------------------|--------|--------|--------|--------|--------|--------|
A|---------------------------------|--------|--------|--------|--------|--------|--------|
F|---------------------------------|--------|--------|--------|--------|--------|--------|
C|-5---5---4---4-------8---7---3---|--------|--------|--------|--------|--------|--------|
G|-5---5---4---4-------8---7---3---|--------|--------|--------|--------|--------|--------|
C|-5---5---4---4-------8---7---3---|--------|--------|--------|--------|--------|--------|


D|--------|--------|--------|--------|--------|--------|--------|--------|--------|
A|--------|--------|--------|--------|--------|--------|--------|--------|--------|
F|--------|--------|--------|--------|--------|--------|--------|--------|--------|
C|--------|--------|--------|--------|--------|--------|--------|--------|--------|
G|--------|--------|--------|--------|--------|--------|--------|--------|--------|
C|--------|--------|--------|--------|--------|--------|--------|--------|--------|


D|--------|--------|--------|--------|--------|--------|--------|--------|--------|
A|--------|--------|--------|--------|--------|--------|--------|--------|--------|
F|--------|--------|--------|--------|--------|--------|--------|--------|--------|
C|--------|--------|--------|--------|--------|--------|--------|--------|--------|
G|--------|--------|--------|--------|--------|--------|--------|--------|--------|
C|--------|--------|--------|--------|--------|--------|--------|--------|--------|


D|--------|--------|--------|--------|--------|--------|--------|--------|--------|
A|--------|--------|--------|--------|--------|--------|--------|--------|--------|
F|--------|--------|--------|--------|--------|--------|--------|--------|--------|
C|--------|--------|--------|--------|--------|--------|--------|--------|--------|
G|--------|--------|--------|--------|--------|--------|--------|--------|--------|
C|--------|--------|--------|--------|--------|--------|--------|--------|--------|


D|--------|--------|--------|--------|--------|--------|--------|--------|--------|
A|--------|--------|--------|--------|--------|--------|--------|--------|--------|
F|--------|--------|--------|--------|--------|--------|--------|--------|--------|
C|--------|--------|--------|--------|--------|--------|--------|--------|--------|
G|--------|--------|--------|--------|--------|--------|--------|--------|--------|
C|--------|--------|--------|--------|--------|--------|--------|--------|--------|


D|--------|--------|--------|--------|--------|--------|--------|--------|--------|
A|--------|--------|--------|--------|--------|--------|--------|--------|--------|
F|--------|--------|--------|--------|--------|--------|--------|--------|--------|
C|--------|--------|--------|--------|--------|--------|--------|--------|--------|
G|--------|--------|--------|--------|--------|--------|--------|--------|--------|
C|--------|--------|--------|--------|--------|--------|--------|--------|--------|


D|--------|--------|--------|--------|--------|--------|--------|--------|--------|
A|--------|--------|--------|--------|--------|--------|--------|--------|--------|
F|--------|--------|--------|--------|--------|--------|--------|--------|--------|
C|--------|--------|--------|--------|--------|--------|--------|--------|--------|
G|--------|--------|--------|--------|--------|--------|--------|--------|--------|
C|--------|--------|--------|--------|--------|--------|--------|--------|--------|


D|--------|--------|--------|--------|--------|--------|--------|--------|--------|
A|--------|--------|--------|--------|--------|--------|--------|--------|--------|
F|--------|--------|--------|--------|--------|--------|--------|--------|--------|
C|--------|--------|--------|--------|--------|--------|--------|--------|--------|
G|--------|--------|--------|--------|--------|--------|--------|--------|--------|
C|--------|--------|--------|--------|--------|--------|--------|--------|--------|


D|--------|--------|--------|--------|--------|--------|--------|--------|--------|
A|--------|--------|--------|--------|--------|--------|--------|--------|--------|
F|--------|--------|--------|--------|--------|--------|--------|--------|--------|
C|--------|--------|--------|--------|--------|--------|--------|--------|--------|
G|--------|--------|--------|--------|--------|--------|--------|--------|--------|
C|--------|--------|--------|--------|--------|--------|--------|--------|--------|


D|--------|--------|--------|--------|--------|--------|--------|--------|--------|
A|--------|--------|--------|--------|--------|--------|--------|--------|--------|
F|--------|--------|--------|--------|--------|--------|--------|--------|--------|
C|--------|--------|--------|--------|--------|--------|--------|--------|--------|
G|--------|--------|--------|--------|--------|--------|--------|--------|--------|
C|--------|--------|--------|--------|--------|--------|--------|--------|--------|


D|--------|--------|--------|--------|--------|--------|--------|--------|--------|
A|--------|--------|--------|--------|--------|--------|--------|--------|--------|
F|--------|--------|--------|--------|--------|--------|--------|--------|--------|
C|--------|--------|--------|--------|--------|--------|--------|--------|--------|
G|--------|--------|--------|--------|--------|--------|--------|--------|--------|
C|--------|--------|--------|--------|--------|--------|--------|--------|--------|


D|--------|--------|--------|--------|--------|--------|--------|--------|--------|
A|--------|--------|--------|--------|--------|--------|--------|--------|--------|
F|--------|--------|--------|--------|--------|--------|--------|--------|--------|
C|--------|--------|--------|--------|--------|--------|--------|--------|--------|
G|--------|--------|--------|--------|--------|--------|--------|--------|--------|
C|--------|--------|--------|--------|--------|--------|--------|--------|--------|


D|--------|--------|--------|--------|--------|--------|--------|--------|--------|
A|--------|--------|--------|--------|--------|--------|--------|--------|--------|
F|--------|--------|--------|--------|--------|--------|--------|--------|--------|
C|--------|--------|--------|--------|--------|--------|--------|--------|--------|
G|--------|--------|--------|--------|--------|--------|--------|--------|--------|
C|--------|--------|--------|--------|--------|--------|--------|--------|--------|


D|--------|--------|--------|--------|--------|--------|--------|--------|--------|
A|--------|--------|--------|--------|--------|--------|--------|--------|--------|
F|--------|--------|--------|--------|--------|--------|--------|--------|--------|
C|--------|--------|--------|--------|--------|--------|--------|--------|--------|
G|--------|--------|--------|--------|--------|--------|--------|--------|--------|
C|--------|--------|--------|--------|--------|--------|--------|--------|--------|


D|--------|--------|--------|--------|--------|--------|--------|--------|--------|
A|--------|--------|--------|--------|--------|--------|--------|--------|--------|
F|--------|--------|--------|--------|--------|--------|--------|--------|--------|
C|--------|--------|--------|--------|--------|--------|--------|--------|--------|
G|--------|--------|--------|--------|--------|--------|--------|--------|--------|
C|--------|--------|--------|--------|--------|--------|--------|--------|--------|


D|--------|--------|------------------------------------|------------------------------------|
A|--------|--------|------------------------------------|------------------------------------|
F|--------|--------|------------------------------------|------------------------------------|
C|--------|--------|------------------------------------|------------------------------------|
G|--------|--------|-0--0-------0--0--0--0------0---2---|-0--0-------0--0--0--0------0---2---|
C|--------|--------|-0--0-------0--0--0--0------0---2---|-0--0-------0--0--0--0------0---2---|


D|---------------------------------|---------------------------|------------------------------------|
A|---------------------------------|---------------------------|------------------------------------|
F|---------------------------------|---------------------------|------------------------------------|
C|-5---5-------5---5---5-------5---|-3---3-------3---2----1----|------------------------------------|
G|-5---5-------5---5---5-------5---|-3---3-------3---2----1----|-0--0-------0--0--0--0------0---2---|
C|-5---5-------5---5---5-------5---|-3---3-------3---2----1----|-0--0-------0--0--0--0------0---2---|


D|------------------------------------|---------------------------------|---------------------------|
A|------------------------------------|---------------------------------|---------------------------|
F|------------------------------------|---------------------------------|---------------------------|
C|------------------------------------|-5---5-------5---5---5-------5---|-3---3-------3---2----1----|
G|-0--0-------0--0--0--0------0---2---|-5---5-------5---5---5-------5---|-3---3-------3---2----1----|
C|-0--0-------0--0--0--0------0---2---|-5---5-------5---5---5-------5---|-3---3-------3---2----1----|


D|------------------------------------|------------------------------------|---------------------------------|
A|------------------------------------|------------------------------------|---------------------------------|
F|------------------------------------|------------------------------------|---------------------------------|
C|------------------------------------|------------------------------------|-5---5-------5---5---5-------5---|
G|-0--0-------0--0--0--0------0---2---|-0--0-------0--0--0--0------0---2---|-5---5-------5---5---5-------5---|
C|-0--0-------0--0--0--0------0---2---|-0--0-------0--0--0--0------0---2---|-5---5-------5---5---5-------5---|


D|---------------------------|------------------------------------|------------------------------------|
A|---------------------------|------------------------------------|------------------------------------|
F|---------------------------|------------------------------------|------------------------------------|
C|-3---3-------3---2----1----|------------------------------------|------------------------------------|
G|-3---3-------3---2----1----|-0--0-------0--0--0--0------0---2---|-0--0-------0--0--0--0------0---2---|
C|-3---3-------3---2----1----|-0--0-------0--0--0--0------0---2---|-0--0-------0--0--0--0------0---2---|


D|---------------------------------|---------------------------|--------|--------|
A|---------------------------------|---------------------------|--------|--------|
F|---------------------------------|---------------------------|--------|--------|
C|-5---5-------5---5---5-------5---|-3---3-------3---2----1----|-0------|-8------|
G|-5---5-------5---5---5-------5---|-3---3-------3---2----1----|-0------|-8------|
C|-5---5-------5---5---5-------5---|-3---3-------3---2----1----|-0------|-8------|


D|--------|--------|--------|--------|--------|--------|-------------------------------------------------|
A|--------|--------|--------|--------|--------|--------|-11-11-11-11-------10-10-10-10-8--8--8--8--------|
F|--------|--------|--------|--------|--------|--------|-------------9--9--------------------------11-9--|
C|-5------|-7------|-0------|-8------|-5------|-7------|-------------------------------------------------|
G|-5------|-7------|-0------|-8------|-5------|-7------|-------------------------------------------------|
C|-5------|-7------|-0------|-8------|-5------|-7------|-------------------------------------------------|


D|-------------------------------------------------|-------------------------------------------------|
A|-11-11-11-11-------10-10-10-10-8--8--8--8--------|-8--8--8--8--------7--7--7--7--5--5--5--7--8--10-|
F|-------------9--9--------------------------11-9--|-------------7--7--------------------------------|
C|-------------------------------------------------|-------------------------------------------------|
G|-------------------------------------------------|-------------------------------------------------|
C|-------------------------------------------------|-------------------------------------------------|


D|-------------------------------------------------|-------------------------------------------------|
A|-10-10-10-10-------9--9--9--9--7--7--7--7--------|-11-11-11-11-------10-10-10-10-8--8--8--8--------|
F|-------------9--9--------------------------10-8--|-------------9--9--------------------------11-9--|
C|-------------------------------------------------|-------------------------------------------------|
G|-------------------------------------------------|-------------------------------------------------|
C|-------------------------------------------------|-------------------------------------------------|


D|-------------------------------------------------|-------------------------------------------------|
A|-11-11-11-11-------10-10-10-10-8--8--8--8--------|-8--8--8--8--------7--7--7--7--5--5--5--7--8--10-|
F|-------------9--9--------------------------11-9--|-------------7--7--------------------------------|
C|-------------------------------------------------|-------------------------------------------------|
G|-------------------------------------------------|-------------------------------------------------|
C|-------------------------------------------------|-------------------------------------------------|


D|-------------------------------------------------|--------|--------|--------|--------|
A|-10-10-10-10-------9--9--9--9--7--7--7--7--------|--------|--------|--------|--------|
F|-------------9--9--------------------------10-8--|--------|--------|--------|--------|
C|-------------------------------------------------|--------|--------|--------|--------|
G|-------------------------------------------------|--------|--------|--------|--------|
C|-------------------------------------------------|--------|--------|--------|--------|


D|--------|--------|--------|--------|--------|--------|--------|--------|--------|
A|--------|--------|--------|--------|--------|--------|--------|--------|--------|
F|--------|--------|--------|--------|--------|--------|--------|--------|--------|
C|--------|--------|--------|--------|--------|--------|--------|--------|--------|
G|--------|--------|--------|--------|--------|--------|--------|--------|--------|
C|--------|--------|--------|--------|--------|--------|--------|--------|--------|


D|--------|--------|--------|--------|--------|--------|--------|--------|--------|
A|--------|--------|--------|--------|--------|--------|--------|--------|--------|
F|--------|--------|--------|--------|--------|--------|--------|--------|--------|
C|--------|--------|--------|--------|--------|--------|--------|--------|--------|
G|--------|--------|--------|--------|--------|--------|--------|--------|--------|
C|--------|--------|--------|--------|--------|--------|--------|--------|--------|


D|--------|--------|--------|--------|--------|--------|--------|--------|--------|
A|--------|--------|--------|--------|--------|--------|--------|--------|--------|
F|--------|--------|--------|--------|--------|--------|--------|--------|--------|
C|--------|--------|--------|--------|--------|--------|--------|--------|--------|
G|--------|--------|--------|--------|--------|--------|--------|--------|--------|
C|--------|--------|--------|--------|--------|--------|--------|--------|--------|


D|--------|--------|--------|--------|--------|--------|--------|--------|--------|
A|--------|--------|--------|--------|--------|--------|--------|--------|--------|
F|--------|--------|--------|--------|--------|--------|--------|--------|--------|
C|--------|--------|--------|--------|--------|--------|--------|--------|--------|
G|--------|--------|--------|--------|--------|--------|--------|--------|--------|
C|--------|--------|--------|--------|--------|--------|--------|--------|--------|


D|--------|--------|--------|--------|---------------------------------|---------------------------|
A|--------|--------|--------|--------|---------------------------------|---------------------------|
F|--------|--------|--------|--------|---------------------------------|---------------------------|
C|--------|--------|--------|--------|---------------------------------|---------------------------|
G|--------|--------|--------|--------|-0---0-------0---0-------0---0---|-----0---0-------0----0----|
C|--------|--------|--------|--------|-0---0-------0---0-------0---0---|-----0---0-------0----0----|


D|---------------------------------|---------------------------------|---------------------------------|
A|---------------------------------|---------------------------------|---------------------------------|
F|---------------------------------|---------------------------------|---------------------------------|
C|-3---3---3---3---3---3---3---3---|-1---1---1---1---1---1---1---1---|-10--10--10--10--10--10--10--10--|
G|-3---3---3---3---3---3---3---3---|-1---1---1---1---1---1---1---1---|-8---8---8---8---8---8---8---8---|
C|-3---3---3---3---3---3---3---3---|-1---1---1---1---1---1---1---1---|-8---8---8---8---8---8---8---8---|


D|---------------------------------|---------------------------------|---------------------------------|
A|---------------------------------|---------------------------------|---------------------------------|
F|---------------------------------|---------------------------------|---------------------------------|
C|-10--10--10--10--10--10--10--10--|-8---8---8---8---8---8---8---8---|-8---8---8---8---8---8---8---8---|
G|-8---8---8---8---8---8---8---8---|-5---5---5---5---5---5---5---5---|-5---5---5---5---5---5---5---5---|
C|-8---8---8---8---8---8---8---8---|-5---5---5---5---5---5---5---5---|-5---5---5---5---5---5---5---5---|


D|---------------------------------|---------------------------|---------------------------------|
A|---------------------------------|---------------------------|---------------------------------|
F|---------------------------------|---------------------------|---------------------------------|
C|---------------------------------|---------------------------|-3---3---3---3---3---3---3---3---|
G|-0---0-------0---0-------0---0---|-----0---0-------0----0----|-3---3---3---3---3---3---3---3---|
C|-0---0-------0---0-------0---0---|-----0---0-------0----0----|-3---3---3---3---3---3---3---3---|


D|---------------------------------|---------------------------------|---------------------------------|
A|---------------------------------|---------------------------------|---------------------------------|
F|---------------------------------|---------------------------------|---------------------------------|
C|-1---1---1---1---1---1---1---1---|-10--10--10--10--10--10--10--10--|-10--10--10--10--10--10--10--10--|
G|-1---1---1---1---1---1---1---1---|-8---8---8---8---8---8---8---8---|-8---8---8---8---8---8---8---8---|
C|-1---1---1---1---1---1---1---1---|-8---8---8---8---8---8---8---8---|-8---8---8---8---8---8---8---8---|


D|---------------------------------|---------------------------------|---------------------------------|
A|---------------------------------|---------------------------------|---------------------------------|
F|---------------------------------|---------------------------------|---------------------------------|
C|-8---8---8---8---8---8---8---8---|-8---8---8---8---8---8---8---8---|-0---0---0---0---0---0---0---0---|
G|-5---5---5---5---5---5---5---5---|-5---5---5---5---5---5---5---5---|-0---0---0---0---0---0---0---0---|
C|-5---5---5---5---5---5---5---5---|-5---5---5---5---5---5---5---5---|-0---0---0---0---0---0---0---0---|


D|---------------------------------|---------------------------------|-----------------|
A|---------------------------------|---------------------------------|-----------------|
F|---------------------------------|---------------------------------|-----------------|
C|-0---0---0---0---0---0---0---0---|-0---0---0---0---0---0---0---0---|-0---------------|
G|-0---0---0---0---0---0---0---0---|-0---0---0---0---0---0---0---0---|-0---------------|
C|-0---0---0---0---0---0---0---0---|-0---0---0---0---0---0---0---0---|-0---------------|





Track 3: Ishwa

D|--------|--------|--------|--------|--------|--------|--------|--------|--------|
A|--------|--------|--------|--------|--------|--------|--------|--------|--------|
F|--------|--------|--------|--------|--------|--------|--------|--------|--------|
C|--------|--------|--------|--------|--------|--------|--------|--------|--------|
G|--------|--------|--------|--------|--------|--------|--------|--------|--------|
C|--------|--------|--------|--------|--------|--------|--------|--------|--------|


D|--------|--------|--------|--------|--------|--------|--------|--------|--------|
A|--------|--------|--------|--------|--------|--------|--------|--------|--------|
F|--------|--------|--------|--------|--------|--------|--------|--------|--------|
C|--------|--------|--------|--------|--------|--------|--------|--------|--------|
G|--------|--------|--------|--------|--------|--------|--------|--------|--------|
C|--------|--------|--------|--------|--------|--------|--------|--------|--------|


D|--------|--------|--------|--------|--------|--------|--------|--------|--------|
A|--------|--------|--------|--------|--------|--------|--------|--------|--------|
F|--------|--------|--------|--------|--------|--------|--------|--------|--------|
C|--------|--------|--------|--------|--------|--------|--------|--------|--------|
G|--------|--------|--------|--------|--------|--------|--------|--------|--------|
C|--------|--------|--------|--------|--------|--------|--------|--------|--------|


D|--------|--------|--------|--------|--------|--------|--------|--------|--------|
A|--------|--------|--------|--------|--------|--------|--------|--------|--------|
F|--------|--------|--------|--------|--------|--------|--------|--------|--------|
C|--------|--------|--------|--------|--------|--------|--------|--------|--------|
G|--------|--------|--------|--------|--------|--------|--------|--------|--------|
C|--------|--------|--------|--------|--------|--------|--------|--------|--------|


D|--------|--------|--------|--------|--------|--------|--------|--------|--------|
A|--------|--------|--------|--------|--------|--------|--------|--------|--------|
F|--------|--------|--------|--------|--------|--------|--------|--------|--------|
C|--------|--------|--------|--------|--------|--------|--------|--------|--------|
G|--------|--------|--------|--------|--------|--------|--------|--------|--------|
C|--------|--------|--------|--------|--------|--------|--------|--------|--------|


D|--------|--------|--------|--------|--------|--------|--------|--------|--------|
A|--------|--------|--------|--------|--------|--------|--------|--------|--------|
F|--------|--------|--------|--------|--------|--------|--------|--------|--------|
C|--------|--------|--------|--------|--------|--------|--------|--------|--------|
G|--------|--------|--------|--------|--------|--------|--------|--------|--------|
C|--------|--------|--------|--------|--------|--------|--------|--------|--------|


D|--------|--------|---------------------------------|---------------------------|
A|--------|--------|---------------------------------|---------------------------|
F|--------|--------|---------------------------------|---------------------------|
C|--------|--------|---------------------------------|---------------------------|
G|--------|--------|-0---0-------0---0-------0---0---|-----0---0-------0----0----|
C|--------|--------|-0---0-------0---0-------0---0---|-----0---0-------0----0----|


D|---------------------------------|---------------------------------|---------------------------------|
A|---------------------------------|---------------------------------|---------------------------------|
F|---------------------------------|---------------------------------|---------------------------------|
C|-3---3---3---3---3---3---3---3---|-1---1---1---1---1---1---1---1---|-10--10--10--10--10--10--10--10--|
G|-3---3---3---3---3---3---3---3---|-1---1---1---1---1---1---1---1---|-8---8---8---8---8---8---8---8---|
C|-3---3---3---3---3---3---3---3---|-1---1---1---1---1---1---1---1---|-8---8---8---8---8---8---8---8---|


D|---------------------------------|---------------------------------|---------------------------------|
A|---------------------------------|---------------------------------|---------------------------------|
F|---------------------------------|---------------------------------|---------------------------------|
C|-10--10--10--10--10--10--10--10--|-8---8---8---8---8---8---8---8---|-8---8---8---8---8---8---8---8---|
G|-8---8---8---8---8---8---8---8---|-5---5---5---5---5---5---5---5---|-5---5---5---5---5---5---5---5---|
C|-8---8---8---8---8---8---8---8---|-5---5---5---5---5---5---5---5---|-5---5---5---5---5---5---5---5---|


D|---------------------------------|---------------------------|---------------------------------|
A|---------------------------------|---------------------------|---------------------------------|
F|---------------------------------|---------------------------|---------------------------------|
C|---------------------------------|---------------------------|-3---3---3---3---3---3---3---3---|
G|-0---0-------0---0-------0---0---|-----0---0-------0----0----|-3---3---3---3---3---3---3---3---|
C|-0---0-------0---0-------0---0---|-----0---0-------0----0----|-3---3---3---3---3---3---3---3---|


D|---------------------------------|---------------------------------|---------------------------------|
A|---------------------------------|---------------------------------|---------------------------------|
F|---------------------------------|---------------------------------|---------------------------------|
C|-1---1---1---1---1---1---1---1---|-10--10--10--10--10--10--10--10--|-10--10--10--10--10--10--10--10--|
G|-1---1---1---1---1---1---1---1---|-8---8---8---8---8---8---8---8---|-8---8---8---8---8---8---8---8---|
C|-1---1---1---1---1---1---1---1---|-8---8---8---8---8---8---8---8---|-8---8---8---8---8---8---8---8---|


D|---------------------------------|---------------------------------|---------------------------------|
A|---------------------------------|---------------------------------|---------------------------------|
F|---------------------------------|---------------------------------|---------------------------------|
C|-8---8---8---8---8---8---8---8---|-8---8---8---8---8---8---8---8---|---------------------------------|
G|-5---5---5---5---5---5---5---5---|-5---5---5---5---5---5---5---5---|-0---0---0---0---0---0---0---0---|
C|-5---5---5---5---5---5---5---5---|-5---5---5---5---5---5---5---5---|-0---0---0---0---0---0---0---0---|


D|--------|--------|--------|--------|--------|--------|--------|--------|--------|
A|--------|--------|--------|--------|--------|--------|--------|--------|--------|
F|--------|--------|--------|--------|--------|--------|--------|--------|--------|
C|--------|--------|--------|--------|--------|--------|--------|--------|--------|
G|--------|--------|--------|--------|--------|--------|--------|--------|--------|
C|--------|--------|--------|--------|--------|--------|--------|--------|--------|


D|--------|--------|--------|--------|--------|--------|--------|--------|--------|
A|--------|--------|--------|--------|--------|--------|--------|--------|--------|
F|--------|--------|--------|--------|--------|--------|--------|--------|--------|
C|--------|--------|--------|--------|--------|--------|--------|--------|--------|
G|--------|--------|--------|--------|--------|--------|--------|--------|--------|
C|--------|--------|--------|--------|--------|--------|--------|--------|--------|


D|--------|--------|--------|--------|--------|--------|--------|--------|--------|
A|--------|--------|--------|--------|--------|--------|--------|--------|--------|
F|--------|--------|--------|--------|--------|--------|--------|--------|--------|
C|--------|--------|--------|--------|--------|--------|--------|--------|--------|
G|--------|--------|--------|--------|--------|--------|--------|--------|--------|
C|--------|--------|--------|--------|--------|--------|--------|--------|--------|


D|--------|--------|--------|--------|--------|--------|--------|--------|--------|
A|--------|--------|--------|--------|--------|--------|--------|--------|--------|
F|--------|--------|--------|--------|--------|--------|--------|--------|--------|
C|--------|--------|--------|--------|--------|--------|--------|--------|--------|
G|--------|--------|--------|--------|--------|--------|--------|--------|--------|
C|--------|--------|--------|--------|--------|--------|--------|--------|--------|


D|--------|--------|--------|--------|--------|---------------------------------|---------------------------|
A|--------|--------|--------|--------|--------|---------------------------------|---------------------------|
F|--------|--------|--------|--------|--------|---------------------------------|---------------------------|
C|--------|--------|--------|--------|--------|---------------------------------|---------------------------|
G|--------|--------|--------|--------|--------|-0---0-------0---0-------0---0---|-----0---0-------0----0----|
C|--------|--------|--------|--------|--------|-0---0-------0---0-------0---0---|-----0---0-------0----0----|


D|---------------------------------|---------------------------------|---------------------------------|
A|---------------------------------|---------------------------------|---------------------------------|
F|---------------------------------|---------------------------------|---------------------------------|
C|-3---3---3---3---3---3---3---3---|-1---1---1---1---1---1---1---1---|-10--10--10--10--10--10--10--10--|
G|-3---3---3---3---3---3---3---3---|-1---1---1---1---1---1---1---1---|-8---8---8---8---8---8---8---8---|
C|-3---3---3---3---3---3---3---3---|-1---1---1---1---1---1---1---1---|-8---8---8---8---8---8---8---8---|


D|---------------------------------|---------------------------------|---------------------------------|
A|---------------------------------|---------------------------------|---------------------------------|
F|---------------------------------|---------------------------------|---------------------------------|
C|-10--10--10--10--10--10--10--10--|-8---8---8---8---8---8---8---8---|-8---8---8---8---8---8---8---8---|
G|-8---8---8---8---8---8---8---8---|-5---5---5---5---5---5---5---5---|-5---5---5---5---5---5---5---5---|
C|-8---8---8---8---8---8---8---8---|-5---5---5---5---5---5---5---5---|-5---5---5---5---5---5---5---5---|


D|---------------------------------|---------------------------|---------------------------------|
A|---------------------------------|---------------------------|---------------------------------|
F|---------------------------------|---------------------------|---------------------------------|
C|---------------------------------|---------------------------|-3---3---3---3---3---3---3---3---|
G|-0---0-------0---0-------0---0---|-----0---0-------0----0----|-3---3---3---3---3---3---3---3---|
C|-0---0-------0---0-------0---0---|-----0---0-------0----0----|-3---3---3---3---3---3---3---3---|


D|---------------------------------|---------------------------------|---------------------------------|
A|---------------------------------|---------------------------------|---------------------------------|
F|---------------------------------|---------------------------------|---------------------------------|
C|-1---1---1---1---1---1---1---1---|-10--10--10--10--10--10--10--10--|-10--10--10--10--10--10--10--10--|
G|-1---1---1---1---1---1---1---1---|-8---8---8---8---8---8---8---8---|-8---8---8---8---8---8---8---8---|
C|-1---1---1---1---1---1---1---1---|-8---8---8---8---8---8---8---8---|-8---8---8---8---8---8---8---8---|


D|---------------------------------|---------------------------------|--------|--------|
A|---------------------------------|---------------------------------|--------|--------|
F|---------------------------------|---------------------------------|--------|--------|
C|-8---8---8---8---8---8---8---8---|-8---8---8---8---8---8---8---8---|-0------|-0------|
G|-5---5---5---5---5---5---5---5---|-5---5---5---5---5---5---5---5---|-0------|-0------|
C|-5---5---5---5---5---5---5---5---|-5---5---5---5---5---5---5---5---|-0------|-0------|


D|--------|--------|------------------------------------|----------------------------------|
A|--------|--------|------------------------------------|----------------------------------|
F|--------|--------|------------------------------------|----------------------------------|
C|-12-----|-6------|---------------------8--------------|---------------------10-----------|
G|-12-----|-6------|---------------------5--------------|---------------------8----0---0---|
C|-12-----|-6------|-0--0--0---0--0--0---5----0--0--0---|-0--0--0---0--0--0---8----0---0---|


D|-15--12--------------------------|------------------------------|------------------------------------|
A|---------13------13--12--10------|-10--9-----------10--9--------|------------------------------------|
F|-------------12--------------12--|---------10--9-----------10---|------------------------------------|
C|---------------------------------|------------------------------|---------------------8--------------|
G|---------------------------------|------------------------------|---------------------5--------------|
C|---------------------------------|------------------------------|-0--0--0---0--0--0---5----0--0--0---|


D|----------------------------------|-15--12--------------------------|------------------------------|
A|----------------------------------|---------13------13--12--10------|-10--9-----------10--9--------|
F|----------------------------------|-------------12--------------12--|---------10--9-----------10---|
C|---------------------10-----------|---------------------------------|------------------------------|
G|---------------------8----0---0---|---------------------------------|------------------------------|
C|-0--0--0---0--0--0---8----0---0---|---------------------------------|------------------------------|


D|------------------------------------|----------------------------------|-15--12--------------------------|
A|------------------------------------|----------------------------------|---------13------13--12--10------|
F|------------------------------------|----------------------------------|-------------12--------------12--|
C|---------------------8--------------|---------------------10-----------|---------------------------------|
G|---------------------5--------------|---------------------8----0---0---|---------------------------------|
C|-0--0--0---0--0--0---5----0--0--0---|-0--0--0---0--0--0---8----0---0---|---------------------------------|


D|------------------------------|------------------------------------|----------------------------------|
A|-10--9-----------10--9--------|------------------------------------|----------------------------------|
F|---------10--9-----------10---|------------------------------------|----------------------------------|
C|------------------------------|---------------------8--------------|---------------------10-----------|
G|------------------------------|---------------------5--------------|---------------------8----0---0---|
C|------------------------------|-0--0--0---0--0--0---5----0--0--0---|-0--0--0---0--0--0---8----0---0---|


D|-15--12--------------------------|------------------------------|--------|--------|
A|---------13------13--12--10------|-10--9-----------10--9--------|--------|--------|
F|-------------12--------------12--|---------10--9-----------10---|--------|--------|
C|---------------------------------|------------------------------|--------|--------|
G|---------------------------------|------------------------------|--------|--------|
C|---------------------------------|------------------------------|--------|--------|


D|--------|--------|--------|--------|--------|--------|--------|--------|--------|
A|--------|--------|--------|--------|--------|--------|--------|--------|--------|
F|--------|--------|--------|--------|--------|--------|--------|--------|--------|
C|--------|--------|--------|--------|--------|--------|--------|--------|--------|
G|--------|--------|--------|--------|--------|--------|--------|--------|--------|
C|--------|--------|--------|--------|--------|--------|--------|--------|--------|


D|--------|--------|--------|--------|--------|--------|--------|--------|--------|
A|--------|--------|--------|--------|--------|--------|--------|--------|--------|
F|--------|--------|--------|--------|--------|--------|--------|--------|--------|
C|--------|--------|--------|--------|--------|--------|--------|--------|--------|
G|--------|--------|--------|--------|--------|--------|--------|--------|--------|
C|--------|--------|--------|--------|--------|--------|--------|--------|--------|


D|--------|--------|--------|--------|--------|--------|--------|--------|--------|
A|--------|--------|--------|--------|--------|--------|--------|--------|--------|
F|--------|--------|--------|--------|--------|--------|--------|--------|--------|
C|--------|--------|--------|--------|--------|--------|--------|--------|--------|
G|--------|--------|--------|--------|--------|--------|--------|--------|--------|
C|--------|--------|--------|--------|--------|--------|--------|--------|--------|


D|--------|--------|--------|--------|--------|--------|--------|--------|--------|
A|--------|--------|--------|--------|--------|--------|--------|--------|--------|
F|--------|--------|--------|--------|--------|--------|--------|--------|--------|
C|--------|--------|--------|--------|--------|--------|--------|--------|--------|
G|--------|--------|--------|--------|--------|--------|--------|--------|--------|
C|--------|--------|--------|--------|--------|--------|--------|--------|--------|


D|--------|--------|--------|--------|--------|--------|--------|--------|--------|
A|--------|--------|--------|--------|--------|--------|--------|--------|--------|
F|--------|--------|--------|--------|--------|--------|--------|--------|--------|
C|--------|--------|--------|--------|--------|--------|--------|--------|--------|
G|--------|--------|--------|--------|--------|--------|--------|--------|--------|
C|--------|--------|--------|--------|--------|--------|--------|--------|--------|


D|--------|--------|--------|--------|--------|--------|--------|--------|--------|
A|--------|--------|--------|--------|--------|--------|--------|--------|--------|
F|--------|--------|--------|--------|--------|--------|--------|--------|--------|
C|--------|--------|--------|--------|--------|--------|--------|--------|--------|
G|--------|--------|--------|--------|--------|--------|--------|--------|--------|
C|--------|--------|--------|--------|--------|--------|--------|--------|--------|


D|--------|--------|--------|--------|--------|--------|--------|--------|--------|
A|--------|--------|--------|--------|--------|--------|--------|--------|--------|
F|--------|--------|--------|--------|--------|--------|--------|--------|--------|
C|--------|--------|--------|--------|--------|--------|--------|--------|--------|
G|--------|--------|--------|--------|--------|--------|--------|--------|--------|
C|--------|--------|--------|--------|--------|--------|--------|--------|--------|


D|--------|--------|--------|--------|--------|--------|--------|--------|--------|
A|--------|--------|--------|--------|--------|--------|--------|--------|--------|
F|--------|--------|--------|--------|--------|--------|--------|--------|--------|
C|--------|--------|--------|--------|--------|--------|--------|--------|--------|
G|--------|--------|--------|--------|--------|--------|--------|--------|--------|
C|--------|--------|--------|--------|--------|--------|--------|--------|--------|


D|--------|--------|--------|--------|--------|--------|--------|--------|--------|
A|--------|--------|--------|--------|--------|--------|--------|--------|--------|
F|--------|--------|--------|--------|--------|--------|--------|--------|--------|
C|--------|--------|--------|--------|--------|--------|--------|--------|--------|
G|--------|--------|--------|--------|--------|--------|--------|--------|--------|
C|--------|--------|--------|--------|--------|--------|--------|--------|--------|


D|--------|--------|--------|--------|--------|--------|--------|--------|--------|
A|--------|--------|--------|--------|--------|--------|--------|--------|--------|
F|--------|--------|--------|--------|--------|--------|--------|--------|--------|
C|--------|--------|--------|--------|--------|--------|--------|--------|--------|
G|--------|--------|--------|--------|--------|--------|--------|--------|--------|
C|--------|--------|--------|--------|--------|--------|--------|--------|--------|


D|--------|--------|--------|--------|--------|--------|--------|--------|--------|
A|--------|--------|--------|--------|--------|--------|--------|--------|--------|
F|--------|--------|--------|--------|--------|--------|--------|--------|--------|
C|--------|--------|--------|--------|--------|--------|--------|--------|--------|
G|--------|--------|--------|--------|--------|--------|--------|--------|--------|
C|--------|--------|--------|--------|--------|--------|--------|--------|--------|


D|--------|--------|--------|
A|--------|--------|--------|
F|--------|--------|--------|
C|--------|--------|--------|
G|--------|--------|--------|
C|--------|--------|--------|





Track 4: Ishwa

D|--------|--------|--------|--------|--------|--------|--------|--------|--------|
A|--------|--------|--------|--------|--------|--------|--------|--------|--------|
F|--------|--------|--------|--------|--------|--------|--------|--------|--------|
C|--------|--------|--------|--------|--------|--------|--------|--------|--------|
G|--------|--------|--------|--------|--------|--------|--------|--------|--------|
C|--------|--------|--------|--------|--------|--------|--------|--------|--------|


D|--------|--------|--------|--------|--------|--------|--------|--------|--------|
A|--------|--------|--------|--------|--------|--------|--------|--------|--------|
F|--------|--------|--------|--------|--------|--------|--------|--------|--------|
C|--------|--------|--------|--------|--------|--------|--------|--------|--------|
G|--------|--------|--------|--------|--------|--------|--------|--------|--------|
C|--------|--------|--------|--------|--------|--------|--------|--------|--------|


D|--------|--------|--------|--------|--------|--------|--------|--------|--------|
A|--------|--------|--------|--------|--------|--------|--------|--------|--------|
F|--------|--------|--------|--------|--------|--------|--------|--------|--------|
C|--------|--------|--------|--------|--------|--------|--------|--------|--------|
G|--------|--------|--------|--------|--------|--------|--------|--------|--------|
C|--------|--------|--------|--------|--------|--------|--------|--------|--------|


D|--------|--------|--------|--------|--------|--------|--------|--------|--------|
A|--------|--------|--------|--------|--------|--------|--------|--------|--------|
F|--------|--------|--------|--------|--------|--------|--------|--------|--------|
C|--------|--------|--------|--------|--------|--------|--------|--------|--------|
G|--------|--------|--------|--------|--------|--------|--------|--------|--------|
C|--------|--------|--------|--------|--------|--------|--------|--------|--------|


D|--------|--------|--------|--------|--------|--------|--------|--------|--------|
A|--------|--------|--------|--------|--------|--------|--------|--------|--------|
F|--------|--------|--------|--------|--------|--------|--------|--------|--------|
C|--------|--------|--------|--------|--------|--------|--------|--------|--------|
G|--------|--------|--------|--------|--------|--------|--------|--------|--------|
C|--------|--------|--------|--------|--------|--------|--------|--------|--------|


D|--------|--------|--------|--------|--------|--------|--------|--------|--------|
A|--------|--------|--------|--------|--------|--------|--------|--------|--------|
F|--------|--------|--------|--------|--------|--------|--------|--------|--------|
C|--------|--------|--------|--------|--------|--------|--------|--------|--------|
G|--------|--------|--------|--------|--------|--------|--------|--------|--------|
C|--------|--------|--------|--------|--------|--------|--------|--------|--------|


D|--------|--------|--------|--------|--------|--------|--------|--------|--------|
A|--------|--------|--------|--------|--------|--------|--------|--------|--------|
F|--------|--------|--------|--------|--------|--------|--------|--------|--------|
C|--------|--------|--------|--------|--------|--------|--------|--------|--------|
G|--------|--------|--------|--------|--------|--------|--------|--------|--------|
C|--------|--------|--------|--------|--------|--------|--------|--------|--------|


D|--------|--------|--------|--------|--------|--------|--------|--------|--------|
A|--------|--------|--------|--------|--------|--------|--------|--------|--------|
F|--------|--------|--------|--------|--------|--------|--------|--------|--------|
C|--------|--------|--------|--------|--------|--------|--------|--------|--------|
G|--------|--------|--------|--------|--------|--------|--------|--------|--------|
C|--------|--------|--------|--------|--------|--------|--------|--------|--------|


D|--------|--------|-------------------------------|-------------------------------|
A|--------|--------|-------------------------------|-------------------------------|
F|--------|--------|-------------------------------|-------------------------------|
C|--------|--------|-------------------------------|---------------------3----2----|
G|--------|--------|-0--0--0---0--0--0---3----1----|-0--0--0---0--0--0-------------|
C|--------|--------|-0--0--0---0--0--0-------------|-0--0--0---0--0--0-------------|


D|-------------------------------------|---------------------------------|-------------------------------|
A|-------------------------------------|---------------------------------|-------------------------------|
F|---------------------5---5---4---4---|---------------------------------|-------------------------------|
C|---------------------7---7---6---6---|-5---5---4---4-------8---7---3---|-------------------------------|
G|-0--0--0---0--0--0-------------------|-5---5---4---4-------8---7---3---|-0--0--0---0--0--0---3----1----|
C|-0--0--0---0--0--0-------------------|-5---5---4---4-------8---7---3---|-0--0--0---0--0--0-------------|


D|-------------------------------|-------------------------------------|---------------------------------|
A|-------------------------------|-------------------------------------|---------------------------------|
F|-------------------------------|---------------------5---5---4---4---|---------------------------------|
C|---------------------3----2----|---------------------7---7---6---6---|-5---5---4---4-------8---7---3---|
G|-0--0--0---0--0--0-------------|-0--0--0---0--0--0-------------------|-5---5---4---4-------8---7---3---|
C|-0--0--0---0--0--0-------------|-0--0--0---0--0--0-------------------|-5---5---4---4-------8---7---3---|


D|--------|--------|--------|--------|--------|--------|--------|--------|--------|
A|--------|--------|--------|--------|--------|--------|--------|--------|--------|
F|--------|--------|--------|--------|--------|--------|--------|--------|--------|
C|--------|--------|--------|--------|--------|--------|--------|--------|--------|
G|--------|--------|--------|--------|--------|--------|--------|--------|--------|
C|--------|--------|--------|--------|--------|--------|--------|--------|--------|


D|--------|--------|--------|--------|--------|--------|--------|--------|--------|
A|--------|--------|--------|--------|--------|--------|--------|--------|--------|
F|--------|--------|--------|--------|--------|--------|--------|--------|--------|
C|--------|--------|--------|--------|--------|--------|--------|--------|--------|
G|--------|--------|--------|--------|--------|--------|--------|--------|--------|
C|--------|--------|--------|--------|--------|--------|--------|--------|--------|


D|--------|--------|--------|--------|--------|--------|--------|--------|--------|
A|--------|--------|--------|--------|--------|--------|--------|--------|--------|
F|--------|--------|--------|--------|--------|--------|--------|--------|--------|
C|--------|--------|--------|--------|--------|--------|--------|--------|--------|
G|--------|--------|--------|--------|--------|--------|--------|--------|--------|
C|--------|--------|--------|--------|--------|--------|--------|--------|--------|


D|--------|--------|--------|--------|--------|--------|--------|--------|--------|
A|--------|--------|--------|--------|--------|--------|--------|--------|--------|
F|--------|--------|--------|--------|--------|--------|--------|--------|--------|
C|--------|--------|--------|--------|--------|--------|--------|--------|--------|
G|--------|--------|--------|--------|--------|--------|--------|--------|--------|
C|--------|--------|--------|--------|--------|--------|--------|--------|--------|


D|--------|--------|--------|--------|--------|--------|--------|--------|--------|
A|--------|--------|--------|--------|--------|--------|--------|--------|--------|
F|--------|--------|--------|--------|--------|--------|--------|--------|--------|
C|--------|--------|--------|--------|--------|--------|--------|--------|--------|
G|--------|--------|--------|--------|--------|--------|--------|--------|--------|
C|--------|--------|--------|--------|--------|--------|--------|--------|--------|


D|--------|--------|--------|--------|--------|--------|--------|--------|--------|
A|--------|--------|--------|--------|--------|--------|--------|--------|--------|
F|--------|--------|--------|--------|--------|--------|--------|--------|--------|
C|--------|--------|--------|--------|--------|--------|--------|--------|--------|
G|--------|--------|--------|--------|--------|--------|--------|--------|--------|
C|--------|--------|--------|--------|--------|--------|--------|--------|--------|


D|--------|--------|--------|--------|--------|--------|--------|--------|--------|
A|--------|--------|--------|--------|--------|--------|--------|--------|--------|
F|--------|--------|--------|--------|--------|--------|--------|--------|--------|
C|--------|--------|--------|--------|--------|--------|--------|--------|--------|
G|--------|--------|--------|--------|--------|--------|--------|--------|--------|
C|--------|--------|--------|--------|--------|--------|--------|--------|--------|


D|--------|--------|--------|--------|--------|--------|--------|--------|--------|
A|--------|--------|--------|--------|--------|--------|--------|--------|--------|
F|--------|--------|--------|--------|--------|--------|--------|--------|--------|
C|--------|--------|--------|--------|--------|--------|--------|--------|--------|
G|--------|--------|--------|--------|--------|--------|--------|--------|--------|
C|--------|--------|--------|--------|--------|--------|--------|--------|--------|


D|--------|--------|--------|--------|--------|--------|--------|--------|--------|
A|--------|--------|--------|--------|--------|--------|--------|--------|--------|
F|--------|--------|--------|--------|--------|--------|--------|--------|--------|
C|--------|--------|--------|--------|--------|--------|--------|--------|--------|
G|--------|--------|--------|--------|--------|--------|--------|--------|--------|
C|--------|--------|--------|--------|--------|--------|--------|--------|--------|


D|--------|--------|--------|--------|--------|--------|--------|--------|--------|
A|--------|--------|--------|--------|--------|--------|--------|--------|--------|
F|--------|--------|--------|--------|--------|--------|--------|--------|--------|
C|--------|--------|--------|--------|--------|--------|--------|--------|--------|
G|--------|--------|--------|--------|--------|--------|--------|--------|--------|
C|--------|--------|--------|--------|--------|--------|--------|--------|--------|


D|--------|--------|--------|--------|--------|--------|--------|--------|--------|
A|--------|--------|--------|--------|--------|--------|--------|--------|--------|
F|--------|--------|--------|--------|--------|--------|--------|--------|--------|
C|--------|--------|--------|--------|--------|--------|--------|--------|--------|
G|--------|--------|--------|--------|--------|--------|--------|--------|--------|
C|--------|--------|--------|--------|--------|--------|--------|--------|--------|


D|--------|--------|--------|--------|--------|--------|--------|--------|--------|
A|--------|--------|--------|--------|--------|--------|--------|--------|--------|
F|--------|--------|--------|--------|--------|--------|--------|--------|--------|
C|--------|--------|--------|--------|--------|--------|--------|--------|--------|
G|--------|--------|--------|--------|--------|--------|--------|--------|--------|
C|--------|--------|--------|--------|--------|--------|--------|--------|--------|


D|--------|--------|--------|--------|--------|--------|--------|--------|--------|
A|--------|--------|--------|--------|--------|--------|--------|--------|--------|
F|--------|--------|--------|--------|--------|--------|--------|--------|--------|
C|--------|--------|--------|--------|--------|--------|--------|--------|--------|
G|--------|--------|--------|--------|--------|--------|--------|--------|--------|
C|--------|--------|--------|--------|--------|--------|--------|--------|--------|


D|--------|--------|--------|--------|--------|--------|--------|--------|--------|
A|--------|--------|--------|--------|--------|--------|--------|--------|--------|
F|--------|--------|--------|--------|--------|--------|--------|--------|--------|
C|--------|--------|--------|--------|--------|--------|--------|--------|--------|
G|--------|--------|--------|--------|--------|--------|--------|--------|--------|
C|--------|--------|--------|--------|--------|--------|--------|--------|--------|


D|--------|--------|--------|--------|--------|--------|--------|--------|--------|
A|--------|--------|--------|--------|--------|--------|--------|--------|--------|
F|--------|--------|--------|--------|--------|--------|--------|--------|--------|
C|--------|--------|--------|--------|--------|--------|--------|--------|--------|
G|--------|--------|--------|--------|--------|--------|--------|--------|--------|
C|--------|--------|--------|--------|--------|--------|--------|--------|--------|


D|--------|--------|--------|--------|--------|--------|--------|--------|--------|
A|--------|--------|--------|--------|--------|--------|--------|--------|--------|
F|--------|--------|--------|--------|--------|--------|--------|--------|--------|
C|--------|--------|--------|--------|--------|--------|--------|--------|--------|
G|--------|--------|--------|--------|--------|--------|--------|--------|--------|
C|--------|--------|--------|--------|--------|--------|--------|--------|--------|


D|--------|--------|--------|--------|--------|--------|--------|--------|--------|
A|--------|--------|--------|--------|--------|--------|--------|--------|--------|
F|--------|--------|--------|--------|--------|--------|--------|--------|--------|
C|--------|--------|--------|--------|--------|--------|--------|--------|--------|
G|--------|--------|--------|--------|--------|--------|--------|--------|--------|
C|--------|--------|--------|--------|--------|--------|--------|--------|--------|


D|--------|--------|--------|--------|--------|--------|--------|--------|--------|
A|--------|--------|--------|--------|--------|--------|--------|--------|--------|
F|--------|--------|--------|--------|--------|--------|--------|--------|--------|
C|--------|--------|--------|--------|--------|--------|--------|--------|--------|
G|--------|--------|--------|--------|--------|--------|--------|--------|--------|
C|--------|--------|--------|--------|--------|--------|--------|--------|--------|


D|--------|--------|--------|--------|--------|--------|--------|--------|--------|
A|--------|--------|--------|--------|--------|--------|--------|--------|--------|
F|--------|--------|--------|--------|--------|--------|--------|--------|--------|
C|--------|--------|--------|--------|--------|--------|--------|--------|--------|
G|--------|--------|--------|--------|--------|--------|--------|--------|--------|
C|--------|--------|--------|--------|--------|--------|--------|--------|--------|


D|--------|
A|--------|
F|--------|
C|--------|
G|--------|
C|--------|





Track 5: Extra

D|--------|--------|--------|--------|--------|--------|--------|--------|--------|
A|--------|--------|--------|--------|--------|--------|--------|--------|--------|
F|--------|--------|--------|--------|--------|--------|--------|--------|--------|
C|--------|--------|--------|--------|--------|--------|--------|--------|--------|
G|--------|--------|--------|--------|--------|--------|--------|--------|--------|
C|--------|--------|--------|--------|--------|--------|--------|--------|--------|


D|--------|--------|--------|--------|--------|--------|--------|--------|--------|
A|--------|--------|--------|--------|--------|--------|--------|--------|--------|
F|--------|--------|--------|--------|--------|--------|--------|--------|--------|
C|--------|--------|--------|--------|--------|--------|--------|--------|--------|
G|--------|--------|--------|--------|--------|--------|--------|--------|--------|
C|--------|--------|--------|--------|--------|--------|--------|--------|--------|


D|--------|--------|--------|--------|--------|--------|--------|--------|--------|
A|--------|--------|--------|--------|--------|--------|--------|--------|--------|
F|--------|--------|--------|--------|--------|--------|--------|--------|--------|
C|--------|--------|--------|--------|--------|--------|--------|--------|--------|
G|--------|--------|--------|--------|--------|--------|--------|--------|--------|
C|--------|--------|--------|--------|--------|--------|--------|--------|--------|


D|--------|--------|--------|--------|--------|--------|--------|--------|--------|
A|--------|--------|--------|--------|--------|--------|--------|--------|--------|
F|--------|--------|--------|--------|--------|--------|--------|--------|--------|
C|--------|--------|--------|--------|--------|--------|--------|--------|--------|
G|--------|--------|--------|--------|--------|--------|--------|--------|--------|
C|--------|--------|--------|--------|--------|--------|--------|--------|--------|


D|--------|--------|--------|--------|--------|--------|--------|--------|--------|
A|--------|--------|--------|--------|--------|--------|--------|--------|--------|
F|--------|--------|--------|--------|--------|--------|--------|--------|--------|
C|--------|--------|--------|--------|--------|--------|--------|--------|--------|
G|--------|--------|--------|--------|--------|--------|--------|--------|--------|
C|--------|--------|--------|--------|--------|--------|--------|--------|--------|


D|--------|--------|--------|--------|--------|--------|--------|--------|--------|
A|--------|--------|--------|--------|--------|--------|--------|--------|--------|
F|--------|--------|--------|--------|--------|--------|--------|--------|--------|
C|--------|--------|--------|--------|--------|--------|--------|--------|--------|
G|--------|--------|--------|--------|--------|--------|--------|--------|--------|
C|--------|--------|--------|--------|--------|--------|--------|--------|--------|


D|--------|--------|--------|--------|--------|--------|--------|--------|--------|
A|--------|--------|--------|--------|--------|--------|--------|--------|--------|
F|--------|--------|--------|--------|--------|--------|--------|--------|--------|
C|--------|--------|--------|--------|--------|--------|--------|--------|--------|
G|--------|--------|--------|--------|--------|--------|--------|--------|--------|
C|--------|--------|--------|--------|--------|--------|--------|--------|--------|


D|--------|--------|--------|--------|--------|--------|--------|--------|--------|
A|--------|--------|--------|--------|--------|--------|--------|--------|--------|
F|--------|--------|--------|--------|--------|--------|--------|--------|--------|
C|--------|--------|--------|--------|--------|--------|--------|--------|--------|
G|--------|--------|--------|--------|--------|--------|--------|--------|--------|
C|--------|--------|--------|--------|--------|--------|--------|--------|--------|


D|--------|--------|--------|--------|--------|--------|--------|--------|--------|
A|--------|--------|--------|--------|--------|--------|--------|--------|--------|
F|--------|--------|--------|--------|--------|--------|--------|--------|--------|
C|--------|--------|--------|--------|--------|--------|--------|--------|--------|
G|--------|--------|--------|--------|--------|--------|--------|--------|--------|
C|--------|--------|--------|--------|--------|--------|--------|--------|--------|


D|--------|--------|--------|--------|--------|--------|--------|--------|--------|
A|--------|--------|--------|--------|--------|--------|--------|--------|--------|
F|--------|--------|--------|--------|--------|--------|--------|--------|--------|
C|--------|--------|--------|--------|--------|--------|--------|--------|--------|
G|--------|--------|--------|--------|--------|--------|--------|--------|--------|
C|--------|--------|--------|--------|--------|--------|--------|--------|--------|


D|--------|--------|--------|--------|--------|--------|--------|--------|--------|
A|--------|--------|--------|--------|--------|--------|--------|--------|--------|
F|--------|--------|--------|--------|--------|--------|--------|--------|--------|
C|--------|--------|--------|--------|--------|--------|--------|--------|--------|
G|--------|--------|--------|--------|--------|--------|--------|--------|--------|
C|--------|--------|--------|--------|--------|--------|--------|--------|--------|


D|--------|--------|--------|--------|--------|--------|--------|--------|--------|
A|--------|--------|--------|--------|--------|--------|--------|--------|--------|
F|--------|--------|--------|--------|--------|--------|--------|--------|--------|
C|--------|--------|--------|--------|--------|--------|--------|--------|--------|
G|--------|--------|--------|--------|--------|--------|--------|--------|--------|
C|--------|--------|--------|--------|--------|--------|--------|--------|--------|


D|--------|--------|--------|--------|--------|--------|--------|--------|--------|
A|--------|--------|--------|--------|--------|--------|--------|--------|--------|
F|--------|--------|--------|--------|--------|--------|--------|--------|--------|
C|--------|--------|--------|--------|--------|--------|--------|--------|--------|
G|--------|--------|--------|--------|--------|--------|--------|--------|--------|
C|--------|--------|--------|--------|--------|--------|--------|--------|--------|


D|--------|--------|--------|--------|--------|--------|--------|--------|--------|
A|--------|--------|--------|--------|--------|--------|--------|--------|--------|
F|--------|--------|--------|--------|--------|--------|--------|--------|--------|
C|--------|--------|--------|--------|--------|--------|--------|--------|--------|
G|--------|--------|--------|--------|--------|--------|--------|--------|--------|
C|--------|--------|--------|--------|--------|--------|--------|--------|--------|


D|--------|--------|--------|--------|--------|--------|--------|--------|--------|
A|--------|--------|--------|--------|--------|--------|--------|--------|--------|
F|--------|--------|--------|--------|--------|--------|--------|--------|--------|
C|--------|--------|--------|--------|--------|--------|--------|--------|--------|
G|--------|--------|--------|--------|--------|--------|--------|--------|--------|
C|--------|--------|--------|--------|--------|--------|--------|--------|--------|


D|--------|--------|--------|--------|--------|--------|--------|--------|--------|
A|--------|--------|--------|--------|--------|--------|--------|--------|--------|
F|--------|--------|--------|--------|--------|--------|--------|--------|--------|
C|--------|--------|--------|--------|--------|--------|--------|--------|--------|
G|--------|--------|--------|--------|--------|--------|--------|--------|--------|
C|--------|--------|--------|--------|--------|--------|--------|--------|--------|


D|--------|--------|--------|--------|--------|--------|--------|--------|--------|
A|--------|--------|--------|--------|--------|--------|--------|--------|--------|
F|--------|--------|--------|--------|--------|--------|--------|--------|--------|
C|--------|--------|--------|--------|--------|--------|--------|--------|--------|
G|--------|--------|--------|--------|--------|--------|--------|--------|--------|
C|--------|--------|--------|--------|--------|--------|--------|--------|--------|


D|--------|--------|--------|--------|--------|--------|--------|--------|--------|
A|--------|--------|--------|--------|--------|--------|--------|--------|--------|
F|--------|--------|--------|--------|--------|--------|--------|--------|--------|
C|--------|--------|--------|--------|--------|--------|--------|--------|--------|
G|--------|--------|--------|--------|--------|--------|--------|--------|--------|
C|--------|--------|--------|--------|--------|--------|--------|--------|--------|


D|--------|--------|--------|--------|--------|--------|--------|--------|--------|
A|--------|--------|--------|--------|--------|--------|--------|--------|--------|
F|--------|--------|--------|--------|--------|--------|--------|--------|--------|
C|--------|--------|--------|--------|--------|--------|--------|--------|--------|
G|--------|--------|--------|--------|--------|--------|--------|--------|--------|
C|--------|--------|--------|--------|--------|--------|--------|--------|--------|


D|--------|--------|--------|--------|--------|--------|--------|--------|--------|
A|--------|--------|--------|--------|--------|--------|--------|--------|--------|
F|--------|--------|--------|--------|--------|--------|--------|--------|--------|
C|--------|--------|--------|--------|--------|--------|--------|--------|--------|
G|--------|--------|--------|--------|--------|--------|--------|--------|--------|
C|--------|--------|--------|--------|--------|--------|--------|--------|--------|


D|--------|--------|---------------------------------------------------------|---------------------------------------------------------|
A|--------|--------|---------------------------------------------------------|---------------------------------------------------------|
F|--------|--------|---------------------------------------------------------|---------------------------------------------------------|
C|--------|--------|---------------------------------------------------------|---------------------------------------------------------|
G|--------|--------|-0-0-0-0-0-----0-0-0-0-0-----0-0-0-0-0-----0-0-0-0-0-----|-8-8-8-8-8-----8-8-8-8-8-----8-8-8-8-8-----8-8-8-8-8-----|
C|--------|--------|-0-0-0-0-0-----0-0-0-0-0-----0-0-0-0-0-----0-0-0-0-0-----|-8-8-8-8-8-----8-8-8-8-8-----8-8-8-8-8-----8-8-8-8-8-----|


D|---------------------------------------------------------|---------------------------------------------------------|
A|---------------------------------------------------------|---------------------------------------------------------|
F|---------------------------------------------------------|---------------------------------------------------------|
C|---------------------------------------------------------|---------------------------------------------------------|
G|-5-5-5-5-5-----5-5-5-5-5-----5-5-5-5-5-----5-5-5-5-5-----|-7-7-7-7-7-----7-7-7-7-7-----7-7-7-7-7-----7-7-7-7-7-----|
C|-5-5-5-5-5-----5-5-5-5-5-----5-5-5-5-5-----5-5-5-5-5-----|-7-7-7-7-7-----7-7-7-7-7-----7-7-7-7-7-----7-7-7-7-7-----|


D|---------------------------------------------------------|---------------------------------------------------------|
A|---------------------------------------------------------|---------------------------------------------------------|
F|---------------------------------------------------------|---------------------------------------------------------|
C|---------------------------------------------------------|---------------------------------------------------------|
G|-0-0-0-0-0-----0-0-0-0-0-----0-0-0-0-0-----0-0-0-0-0-----|-8-8-8-8-8-----8-8-8-8-8-----8-8-8-8-8-----8-8-8-8-8-----|
C|-0-0-0-0-0-----0-0-0-0-0-----0-0-0-0-0-----0-0-0-0-0-----|-8-8-8-8-8-----8-8-8-8-8-----8-8-8-8-8-----8-8-8-8-8-----|


D|---------------------------------------------------------|---------------------------------------------------------|
A|---------------------------------------------------------|---------------------------------------------------------|
F|---------------------------------------------------------|---------------------------------------------------------|
C|---------------------------------------------------------|---------------------------------------------------------|
G|-5-5-5-5-5-----5-5-5-5-5-----5-5-5-5-5-----5-5-5-5-5-----|-7-7-7-7-7-----7-7-7-7-7-----7-7-7-7-7-----7-7-7-7-7-----|
C|-5-5-5-5-5-----5-5-5-5-5-----5-5-5-5-5-----5-5-5-5-5-----|-7-7-7-7-7-----7-7-7-7-7-----7-7-7-7-7-----7-7-7-7-7-----|


D|--------|--------|--------|--------|--------|--------|--------|--------|--------|
A|--------|--------|--------|--------|--------|--------|--------|--------|--------|
F|--------|--------|--------|--------|--------|--------|--------|--------|--------|
C|--------|--------|--------|--------|--------|--------|--------|--------|--------|
G|--------|--------|--------|--------|--------|--------|--------|--------|--------|
C|--------|--------|--------|--------|--------|--------|--------|--------|--------|


D|--------|--------|--------|--------|--------|--------|--------|--------|--------|
A|--------|--------|--------|--------|--------|--------|--------|--------|--------|
F|--------|--------|--------|--------|--------|--------|--------|--------|--------|
C|--------|--------|--------|--------|--------|--------|--------|--------|--------|
G|--------|--------|--------|--------|--------|--------|--------|--------|--------|
C|--------|--------|--------|--------|--------|--------|--------|--------|--------|


D|--------|--------|--------|--------|--------|--------|--------|--------|--------|
A|--------|--------|--------|--------|--------|--------|--------|--------|--------|
F|--------|--------|--------|--------|--------|--------|--------|--------|--------|
C|--------|--------|--------|--------|--------|--------|--------|--------|--------|
G|--------|--------|--------|--------|--------|--------|--------|--------|--------|
C|--------|--------|--------|--------|--------|--------|--------|--------|--------|


D|--------|--------|--------|--------|--------|--------|--------|--------|--------|
A|--------|--------|--------|--------|--------|--------|--------|--------|--------|
F|--------|--------|--------|--------|--------|--------|--------|--------|--------|
C|--------|--------|--------|--------|--------|--------|--------|--------|--------|
G|--------|--------|--------|--------|--------|--------|--------|--------|--------|
C|--------|--------|--------|--------|--------|--------|--------|--------|--------|


D|--------|--------|--------|--------|--------|--------|--------|--------|--------|
A|--------|--------|--------|--------|--------|--------|--------|--------|--------|
F|--------|--------|--------|--------|--------|--------|--------|--------|--------|
C|--------|--------|--------|--------|--------|--------|--------|--------|--------|
G|--------|--------|--------|--------|--------|--------|--------|--------|--------|
C|--------|--------|--------|--------|--------|--------|--------|--------|--------|


D|--------|--------|--------|--------|--------|--------|--------|--------|--------|
A|--------|--------|--------|--------|--------|--------|--------|--------|--------|
F|--------|--------|--------|--------|--------|--------|--------|--------|--------|
C|--------|--------|--------|--------|--------|--------|--------|--------|--------|
G|--------|--------|--------|--------|--------|--------|--------|--------|--------|
C|--------|--------|--------|--------|--------|--------|--------|--------|--------|


D|--------|--------|--------|--------|--------|--------|--------|--------|--------|
A|--------|--------|--------|--------|--------|--------|--------|--------|--------|
F|--------|--------|--------|--------|--------|--------|--------|--------|--------|
C|--------|--------|--------|--------|--------|--------|--------|--------|--------|
G|--------|--------|--------|--------|--------|--------|--------|--------|--------|
C|--------|--------|--------|--------|--------|--------|--------|--------|--------|


D|--------|
A|--------|
F|--------|
C|--------|
G|--------|
C|--------|





Track 6: Bass

F|-------------------------------|-------------------------------|-------------------------------------|
C|-------------------------------|---------------------3----2----|---------------------7---7---6---6---|
G|---------------------3----1----|-------------------------------|-------------------------------------|
C|-0--0--0---0--0--0-------------|-0--0--0---0--0--0-------------|-0--0--0---0--0--0-------------------|


F|---------------------------------|-------------------------------|-------------------------------|
C|---------------------------------|-------------------------------|---------------------3----2----|
G|---------------------------------|---------------------3----1----|-------------------------------|
C|-5---5---4---4-------8---7---3---|-0--0--0---0--0--0-------------|-0--0--0---0--0--0-------------|


F|-------------------------------------|---------------------------------|---------------------------------|
C|---------------------7---7---6---6---|---------------------------------|---------------------------------|
G|-------------------------------------|---------------------------------|---------------------------------|
C|-0--0--0---0--0--0-------------------|-5---5---4---4-------8---7---3---|-0---0---0---0---0---0---0---0---|


F|---------------------------------|---------------------------------|---------------------------------|
C|---------------------------------|---------------------------------|---------------------------------|
G|---------------------------------|---------------------------------|---------7---8-------------------|
C|-3---0---0---0---0---0---0---0---|-5---0---0---0---0---0---0---0---|-7-------------------5---3---2---|


F|---------------------------------|---------------------------------|---------------------------------|
C|---------------------------------|---------------------------------|---------------------------------|
G|---------------------------------|---------------------------------|---------------------------------|
C|-0---0---0---0---0---0---0---0---|-3---0---0---0---0---0---0---0---|-5---0---0---0---0---0---0---0---|


F|---------------------------------|-------------------------------|-------------------------------|
C|---------------------------------|-------------------------------|---------------------3----2----|
G|---------7---8-------------------|---------------------3----1----|-------------------------------|
C|-7-------------------5---3---2---|-0--0--0---0--0--0-------------|-0--0--0---0--0--0-------------|


F|-------------------------------------|---------------------------------|-------------------------------|
C|---------------------7---7---6---6---|---------------------------------|-------------------------------|
G|-------------------------------------|---------------------------------|---------------------3----1----|
C|-0--0--0---0--0--0-------------------|-5---5---4---4-------8---7---3---|-0--0--0---0--0--0-------------|


F|-------------------------------|-------------------------------------|---------------------------------|
C|---------------------3----2----|---------------------7---7---6---6---|---------------------------------|
G|-------------------------------|-------------------------------------|---------------------------------|
C|-0--0--0---0--0--0-------------|-0--0--0---0--0--0-------------------|-5---5---4---4-------8---7---3---|


F|---------------------------------|---------------------------------|---------------------------------|
C|---------------------------------|---------------------------------|---------------------------------|
G|---------------------------------|---------------------------------|---------------------------------|
C|-0---0---0---0---0---0---0---0---|-3---0---0---0---0---0---0---0---|-5---0---0---0---0---0---0---0---|


F|---------------------------------|---------------------------------|---------------------------------|
C|---------------------------------|---------------------------------|---------------------------------|
G|---------7---8-------------------|---------------------------------|---------------------------------|
C|-7-------------------5---3---2---|-0---0---0---0---0---0---0---0---|-3---0---0---0---0---0---0---0---|


F|---------------------------------|---------------------------------|---------------------------------|
C|---------------------------------|---------------------------------|---------------------------------|
G|---------------------------------|---------7---8-------------------|---------------------------------|
C|-5---0---0---0---0---0---0---0---|-7-------------------5---3---2---|-0---0---0---0---0---0---0---0---|


F|---------------------------------|---------------------------------|---------------------------------|
C|---------------------------------|---------------------------------|---------------------------------|
G|---------------------------------|---------------------------------|---------7---8-------------------|
C|-3---0---0---0---0---0---0---0---|-5---0---0---0---0---0---0---0---|-7-------------------5---3---2---|


F|---------------------------------|---------------------------------|---------------------------------|
C|---------------------------------|---------------------------------|---------------------------------|
G|---------------------------------|---------------------------------|---------------------------------|
C|-0---0---0---0---0---0---0---0---|-3---0---0---0---0---0---0---0---|-5---0---0---0---0---0---0---0---|


F|---------------------------------|---------------------------------|---------------------------|
C|---------------------------------|---------------------------------|---------------------------|
G|---------7---8-------------------|---------------------------------|---------------------------|
C|-7-------------------5---3---2---|-0---0-------0---0-------0---0---|-----0---0-------0----0----|


F|---------------------------------|---------------------------------|---------------------------------|
C|---------------------------------|---------------------------------|---------------------------------|
G|---------------------------------|---------------------------------|---------------------------------|
C|-3---3---3---3---3---3---3---3---|-1---1---1---1---1---1---1---1---|-8---8---8---8---8---8---8---8---|


F|---------------------------------|---------------------------------|---------------------------------|
C|---------------------------------|---------------------------------|---------------------------------|
G|---------------------------------|---------------------------------|---------------------------------|
C|-8---8---8---8---8---8---8---8---|-5---5---5---5---5---5---5---5---|-5---5---5---5---5---5---5---5---|


F|---------------------------------|---------------------------|---------------------------------|
C|---------------------------------|---------------------------|---------------------------------|
G|---------------------------------|---------------------------|---------------------------------|
C|-0---0-------0---0-------0---0---|-----0---0-------0----0----|-3---3---3---3---3---3---3---3---|


F|---------------------------------|---------------------------------|---------------------------------|
C|---------------------------------|---------------------------------|---------------------------------|
G|---------------------------------|---------------------------------|---------------------------------|
C|-1---1---1---1---1---1---1---1---|-8---8---8---8---8---8---8---8---|-8---8---8---8---8---8---8---8---|


F|---------------------------------|---------------------------------|---------------------------------|
C|---------------------------------|---------------------------------|---------------------------------|
G|---------------------------------|---------------------------------|---------------------------------|
C|-5---5---5---5---5---5---5---5---|-5---5---5---5---5---5---5---5---|-0---0-------0---0-------0---0---|


F|---------------------------|---------------------------------|---------------------------------|
C|---------------------------|---------------------------------|---------------------------------|
G|---------------------------|---------------------------------|---------------------------------|
C|-----0---0-------0----0----|-3---3---3---3---3---3---3---3---|-1---1---1---1---1---1---1---1---|


F|---------------------------------|---------------------------------|---------------------------------|
C|---------------------------------|---------------------------------|---------------------------------|
G|---------------------------------|---------------------------------|---------------------------------|
C|-8---8---8---8---8---8---8---8---|-8---8---8---8---8---8---8---8---|-5---5---5---5---5---5---5---5---|


F|---------------------------------|---------------------------------|---------------------------|
C|---------------------------------|---------------------------------|---------------------------|
G|---------------------------------|---------------------------------|---------------------------|
C|-5---5---5---5---5---5---5---5---|-0---0-------0---0-------0---0---|-----0---0-------0----0----|


F|---------------------------------|---------------------------------|---------------------------------|
C|---------------------------------|---------------------------------|---------------------------------|
G|---------------------------------|---------------------------------|---------------------------------|
C|-3---3---3---3---3---3---3---3---|-1---1---1---1---1---1---1---1---|-8---8---8---8---8---8---8---8---|


F|---------------------------------|---------------------------------|---------------------------------|
C|---------------------------------|---------------------------------|---------------------------------|
G|---------------------------------|---------------------------------|---------------------------------|
C|-8---8---8---8---8---8---8---8---|-5---5---5---5---5---5---5---5---|-5---5---5---5---5---5---5---5---|


F|---------------------------------|--------|-------------------------------|-------------------------------|
C|---------------------------------|--------|-------------------------------|---------------------3----2----|
G|---------------------------------|--------|---------------------3----1----|-------------------------------|
C|-0---0---0---0---0---0---0---0---|--------|-0--0--0---0--0--0-------------|-0--0--0---0--0--0-------------|


F|-------------------------------------|---------------------------------|-------------------------------|
C|---------------------7---7---6---6---|---------------------------------|-------------------------------|
G|-------------------------------------|---------------------------------|---------------------3----1----|
C|-0--0--0---0--0--0-------------------|-5---5---4---4-------8---7---3---|-0--0--0---0--0--0-------------|


F|-------------------------------|-------------------------------------|---------------------------------|
C|---------------------3----2----|---------------------7---7---6---6---|---------------------------------|
G|-------------------------------|-------------------------------------|---------------------------------|
C|-0--0--0---0--0--0-------------|-0--0--0---0--0--0-------------------|-5---5---4---4-------8---7---3---|


F|---------------------------------|---------------------------------|---------------------------------|
C|---------------------------------|---------------------------------|---------------------------------|
G|---------------------------------|---------------------------------|---------------------------------|
C|-0---0---0---0---0---0---0---0---|-3---0---0---0---0---0---0---0---|-5---0---0---0---0---0---0---0---|


F|---------------------------------|---------------------------------|---------------------------------|
C|---------------------------------|---------------------------------|---------------------------------|
G|---------7---8-------------------|---------------------------------|---------------------------------|
C|-7-------------------5---3---2---|-0---0---0---0---0---0---0---0---|-3---0---0---0---0---0---0---0---|


F|---------------------------------|---------------------------------|---------------------------------|
C|---------------------------------|---------------------------------|---------------------------------|
G|---------------------------------|---------7---8-------------------|---------------------------------|
C|-5---0---0---0---0---0---0---0---|-7-------------------5---3---2---|-0---0---0---0---0---0---0---0---|


F|---------------------------------|---------------------------------|---------------------------------|
C|---------------------------------|---------------------------------|---------------------------------|
G|---------------------------------|---------------------------------|---------7---8-------------------|
C|-3---0---0---0---0---0---0---0---|-5---0---0---0---0---0---0---0---|-7-------------------5---3---2---|


F|---------------------------------|---------------------------------|---------------------------------|
C|---------------------------------|---------------------------------|---------------------------------|
G|---------------------------------|---------------------------------|---------------------------------|
C|-0---0---0---0---0---0---0---0---|-3---0---0---0---0---0---0---0---|-5---0---0---0---0---0---0---0---|


F|---------------------------------|---------------------------------|---------------------------|
C|---------------------------------|---------------------------------|---------------------------|
G|---------7---8-------------------|---------------------------------|---------------------------|
C|-7-------------------5---3---2---|-0---0-------0---0-------0---0---|-----0---0-------0----0----|


F|---------------------------------|---------------------------------|---------------------------------|
C|---------------------------------|---------------------------------|---------------------------------|
G|---------------------------------|---------------------------------|---------------------------------|
C|-3---3---3---3---3---3---3---3---|-1---1---1---1---1---1---1---1---|-8---8---8---8---8---8---8---8---|


F|---------------------------------|---------------------------------|---------------------------------|
C|---------------------------------|---------------------------------|---------------------------------|
G|---------------------------------|---------------------------------|---------------------------------|
C|-8---8---8---8---8---8---8---8---|-5---5---5---5---5---5---5---5---|-5---5---5---5---5---5---5---5---|


F|---------------------------------|---------------------------|---------------------------------|
C|---------------------------------|---------------------------|---------------------------------|
G|---------------------------------|---------------------------|---------------------------------|
C|-0---0-------0---0-------0---0---|-----0---0-------0----0----|-3---3---3---3---3---3---3---3---|


F|---------------------------------|---------------------------------|---------------------------------|
C|---------------------------------|---------------------------------|---------------------------------|
G|---------------------------------|---------------------------------|---------------------------------|
C|-1---1---1---1---1---1---1---1---|-8---8---8---8---8---8---8---8---|-8---8---8---8---8---8---8---8---|


F|---------------------------------|---------------------------------|---------------------------------|
C|---------------------------------|---------------------------------|---------------------------------|
G|---------------------------------|---------------------------------|---------------------------------|
C|-5---5---5---5---5---5---5---5---|-5---5---5---5---5---5---5---5---|-0---0-------0---0-------0---0---|


F|---------------------------|---------------------------------|---------------------------------|
C|---------------------------|---------------------------------|---------------------------------|
G|---------------------------|---------------------------------|---------------------------------|
C|-----0---0-------0----0----|-3---3---3---3---3---3---3---3---|-1---1---1---1---1---1---1---1---|


F|---------------------------------|---------------------------------|---------------------------------|
C|---------------------------------|---------------------------------|---------------------------------|
G|---------------------------------|---------------------------------|---------------------------------|
C|-8---8---8---8---8---8---8---8---|-8---8---8---8---8---8---8---8---|-5---5---5---5---5---5---5---5---|


F|---------------------------------|---------------------------------|---------------------------|
C|---------------------------------|---------------------------------|---------------------------|
G|---------------------------------|---------------------------------|---------------------------|
C|-5---5---5---5---5---5---5---5---|-0---0-------0---0-------0---0---|-----0---0-------0----0----|


F|---------------------------------|---------------------------------|---------------------------------|
C|---------------------------------|---------------------------------|---------------------------------|
G|---------------------------------|---------------------------------|---------------------------------|
C|-3---3---3---3---3---3---3---3---|-1---1---1---1---1---1---1---1---|-8---8---8---8---8---8---8---8---|


F|---------------------------------|---------------------------------|---------------------------------|
C|---------------------------------|---------------------------------|---------------------------------|
G|---------------------------------|---------------------------------|---------------------------------|
C|-8---8---8---8---8---8---8---8---|-5---5---5---5---5---5---5---5---|-5---5---5---5---5---5---5---5---|


F|--------|--------|--------|--------|------------------------------------|----------------------------------|
C|--------|--------|--------|--------|------------------------------------|----------------------------------|
G|--------|--------|--------|--------|------------------------------------|----------------------------------|
C|-0------|-0------|--------|--------|-0--0--0---0--0--0---5----0--0--0---|-0--0--0---0--0--0---8----0---0---|


F|---------------------------------|------------------------------|------------------------------------|
C|---------------------------------|------------------------------|------------------------------------|
G|---------5---------------5-------|------------------------------|------------------------------------|
C|-0---0-------0---0---0-------0---|-7---7---7---7---7---7---7----|-0--0--0---0--0--0---5----0--0--0---|


F|----------------------------------|---------------------------------|------------------------------|
C|----------------------------------|---------------------------------|------------------------------|
G|----------------------------------|---------5---------------5-------|------------------------------|
C|-0--0--0---0--0--0---8----0---0---|-0---0-------0---0---0-------0---|-7---7---7---7---7---7---7----|


F|------------------------------------|----------------------------------|---------------------------------|
C|------------------------------------|----------------------------------|---------------------------------|
G|------------------------------------|----------------------------------|---------5---------------5-------|
C|-0--0--0---0--0--0---5----0--0--0---|-0--0--0---0--0--0---8----0---0---|-0---0-------0---0---0-------0---|


F|------------------------------|------------------------------------|----------------------------------|
C|------------------------------|------------------------------------|----------------------------------|
G|------------------------------|------------------------------------|----------------------------------|
C|-7---7---7---7---7---7---7----|-0--0--0---0--0--0---5----0--0--0---|-0--0--0---0--0--0---8----0---0---|


F|---------------------------------|------------------------------|---------------------------|
C|---------------------------------|------------------------------|---------------------------|
G|---------5---------------5-------|------------------------------|---------------------------|
C|-0---0-------0---0---0-------0---|-7---7---7---7---7---7---7----|-8---8---8-----8---8---8---|


F|---------------------------|------------------------------------|-------------------------------|
C|---------------------------|------------------------------------|-------------------------------|
G|---------------------------|---------------------5--------------|---------------------10---7----|
C|-5---5---5-----5---5---5---|-0--0--0---0--0--0--------0--0--0---|-0--0--0---0--0--0-------------|


F|---------------------------|---------------------------|------------------------------------|
C|---------------------------|---------------------------|------------------------------------|
G|---------------------------|---------------------------|---------------------5--------------|
C|-8---8---8-----8---8---8---|-5---5---5-----5---5---5---|-0--0--0---0--0--0--------0--0--0---|


F|-------------------------------|------------------------------------|------------------------------------|
C|-------------------------------|------------------------------------|------------------------------------|
G|---------------------10---7----|------------------------------------|------------------------------------|
C|-0--0--0---0--0--0-------------|-0--0-------0--0--0--0------0---2---|-0--0-------0--0--0--0------0---2---|


F|---------------------------------|---------------------------|------------------------------------|
C|---------------------------------|---------------------------|------------------------------------|
G|---------------------------------|---------------------------|------------------------------------|
C|-5---5-------5---5---5-------5---|-3---3-------3---2----1----|-0--0-------0--0--0--0------0---2---|


F|------------------------------------|---------------------------------|---------------------------|
C|------------------------------------|---------------------------------|---------------------------|
G|------------------------------------|---------------------------------|---------------------------|
C|-0--0-------0--0--0--0------0---2---|-5---5-------5---5---5-------5---|-3---3-------3---2----1----|


F|------------------------------------|------------------------------------|---------------------------------|
C|------------------------------------|------------------------------------|---------------------------------|
G|------------------------------------|------------------------------------|---------------------------------|
C|-0--0-------0--0--0--0------0---2---|-0--0-------0--0--0--0------0---2---|-5---5-------5---5---5-------5---|


F|---------------------------|------------------------------------|------------------------------------|
C|---------------------------|------------------------------------|------------------------------------|
G|---------------------------|------------------------------------|------------------------------------|
C|-3---3-------3---2----1----|-0--0-------0--0--0--0------0---2---|-0--0-------0--0--0--0------0---2---|


F|---------------------------------|---------------------------|--------|--------|
C|---------------------------------|---------------------------|--------|--------|
G|---------------------------------|---------------------------|--------|--------|
C|-5---5-------5---5---5-------5---|-3---3-------3---2----1----|-0------|-8------|


F|--------|--------|--------|--------|--------|--------|---------------------------------------------------------|
C|--------|--------|--------|--------|--------|--------|---------------------------------------------------------|
G|--------|--------|--------|--------|--------|--------|---------------------------------------------------------|
C|-5------|-7------|-0------|-8------|-5------|-7------|-0-0-0-0-0-----0-0-0-0-0-----0-0-0-0-0-----0-0-0-0-0-----|


F|---------------------------------------------------------|---------------------------------------------------------|
C|---------------------------------------------------------|---------------------------------------------------------|
G|---------------------------------------------------------|---------------------------------------------------------|
C|-8-8-8-8-8-----8-8-8-8-8-----8-8-8-8-8-----8-8-8-8-8-----|-5-5-5-5-5-----5-5-5-5-5-----5-5-5-5-5-----5-5-5-5-5-----|


F|---------------------------------------------------------|---------------------------------------------------------|
C|---------------------------------------------------------|---------------------------------------------------------|
G|---------------------------------------------------------|---------------------------------------------------------|
C|-7-7-7-7-7-----7-7-7-7-7-----7-7-7-7-7-----7-7-7-7-7-----|-0-0-0-0-0-----0-0-0-0-0-----0-0-0-0-0-----0-0-0-0-0-----|


F|---------------------------------------------------------|---------------------------------------------------------|
C|---------------------------------------------------------|---------------------------------------------------------|
G|---------------------------------------------------------|---------------------------------------------------------|
C|-8-8-8-8-8-----8-8-8-8-8-----8-8-8-8-8-----8-8-8-8-8-----|-5-5-5-5-5-----5-5-5-5-5-----5-5-5-5-5-----5-5-5-5-5-----|


F|---------------------------------------------------------|------------------------------|
C|---------------------------------------------------------|------------------------------|
G|---------------------------------------------------------|------------------------------|
C|-7-7-7-7-7-----7-7-7-7-7-----7-7-7-7-7-----7-7-7-7-7-----|-0----0---0---3---0---0---0---|


F|------------------------------|---------------------------------|------------------------------|
C|------------------------------|---------------------------------|------------------------------|
G|------------------------------|---------------------------------|------------------------------|
C|-6---5---3---5---0----0---0---|-3---0---0---0---6---5---3---5---|-0----0---0---3---0---0---0---|


F|------------------------------|---------------------------------|------------------------------|
C|------------------------------|---------------------------------|------------------------------|
G|------------------------------|---------------------------------|------------------------------|
C|-6---5---3---5---0----0---0---|-3---0---0---0---6---5---3---5---|-0----0---0---3---0---0---0---|


F|------------------------------|---------------------------------|------------------------------|
C|------------------------------|---------------------------------|------------------------------|
G|------------------------------|---------------------------------|------------------------------|
C|-6---5---3---5---0----0---0---|-3---0---0---0---6---5---3---5---|-0----0---0---3---0---0---0---|


F|------------------------------|---------------------------------|-----------------------------------|
C|------------------------------|---------------------------------|-----------------------------------|
G|------------------------------|---------------------------------|-----------------------------------|
C|-6---5---3---5---0----0---0---|-3---0---0---0---6---5---3---5---|-0----0--0--0--0--3----0--0--0--0--|


F|----------------------------------|-----------------------------------|----------------------------------|
C|----------------------------------|-----------------------------------|----------------------------------|
G|----------------------------------|-----------------------------------|----------------------------------|
C|-5----0--0--0--0--6---5---3---5---|-0----0--0--0--0--3----0--0--0--0--|-5----0--0--0--0--6---5---3---5---|


F|-----------------------------------|----------------------------------|-----------------------------------|
C|-----------------------------------|----------------------------------|-----------------------------------|
G|-----------------------------------|----------------------------------|-----------------------------------|
C|-0----0--0--0--0--3----0--0--0--0--|-5----0--0--0--0--6---5---3---5---|-0----0--0--0--0--3----0--0--0--0--|


F|----------------------------------|-----------------------------------|----------------------------------|
C|----------------------------------|-----------------------------------|----------------------------------|
G|----------------------------------|-----------------------------------|----------------------------------|
C|-5----0--0--0--0--6---5---3---5---|-0----0--0--0--0--3----0--0--0--0--|-5----0--0--0--0--6---5---3---5---|


F|-----------------------------------|----------------------------------|-----------------------------------|
C|-----------------------------------|----------------------------------|-----------------------------------|
G|-----------------------------------|----------------------------------|-----------------------------------|
C|-0----0--0--0--0--3----0--0--0--0--|-5----0--0--0--0--6---5---3---5---|-0----0--0--0--0--3----0--0--0--0--|


F|----------------------------------|-----------------------------------|----------------------------------|
C|----------------------------------|-----------------------------------|----------------------------------|
G|----------------------------------|-----------------------------------|----------------------------------|
C|-5----0--0--0--0--6---5---3---5---|-0----0--0--0--0--3----0--0--0--0--|-5----0--0--0--0--6---5---3---5---|


F|---------------------------------|---------------------------|---------------------------------|
C|---------------------------------|---------------------------|---------------------------------|
G|---------------------------------|---------------------------|---------------------------------|
C|-0---0-------0---0-------0---0---|-----0---0-------0----0----|-3---3---3---3---3---3---3---3---|


F|---------------------------------|---------------------------------|---------------------------------|
C|---------------------------------|---------------------------------|---------------------------------|
G|---------------------------------|---------------------------------|---------------------------------|
C|-1---1---1---1---1---1---1---1---|-8---8---8---8---8---8---8---8---|-8---8---8---8---8---8---8---8---|


F|---------------------------------|---------------------------------|---------------------------------|
C|---------------------------------|---------------------------------|---------------------------------|
G|---------------------------------|---------------------------------|---------------------------------|
C|-5---5---5---5---5---5---5---5---|-5---5---5---5---5---5---5---5---|-0---0-------0---0-------0---0---|


F|---------------------------|---------------------------------|---------------------------------|
C|---------------------------|---------------------------------|---------------------------------|
G|---------------------------|---------------------------------|---------------------------------|
C|-----0---0-------0----0----|-3---3---3---3---3---3---3---3---|-1---1---1---1---1---1---1---1---|


F|---------------------------------|---------------------------------|---------------------------------|
C|---------------------------------|---------------------------------|---------------------------------|
G|---------------------------------|---------------------------------|---------------------------------|
C|-8---8---8---8---8---8---8---8---|-8---8---8---8---8---8---8---8---|-5---5---5---5---5---5---5---5---|


F|---------------------------------|---------------------------------|---------------------------|
C|---------------------------------|---------------------------------|---------------------------|
G|---------------------------------|---------------------------------|---------------------------|
C|-5---5---5---5---5---5---5---5---|-0---0-------0---0-------0---0---|-----0---0-------0----0----|


F|---------------------------------|---------------------------------|---------------------------------|
C|---------------------------------|---------------------------------|---------------------------------|
G|---------------------------------|---------------------------------|---------------------------------|
C|-3---3---3---3---3---3---3---3---|-1---1---1---1---1---1---1---1---|-8---8---8---8---8---8---8---8---|


F|---------------------------------|---------------------------------|---------------------------------|
C|---------------------------------|---------------------------------|---------------------------------|
G|---------------------------------|---------------------------------|---------------------------------|
C|-8---8---8---8---8---8---8---8---|-5---5---5---5---5---5---5---5---|-5---5---5---5---5---5---5---5---|


F|---------------------------------|---------------------------|---------------------------------|
C|---------------------------------|---------------------------|---------------------------------|
G|---------------------------------|---------------------------|---------------------------------|
C|-0---0-------0---0-------0---0---|-----0---0-------0----0----|-3---3---3---3---3---3---3---3---|


F|---------------------------------|---------------------------------|---------------------------------|
C|---------------------------------|---------------------------------|---------------------------------|
G|---------------------------------|---------------------------------|---------------------------------|
C|-1---1---1---1---1---1---1---1---|-8---8---8---8---8---8---8---8---|-8---8---8---8---8---8---8---8---|


F|---------------------------------|---------------------------------|---------------------------------|
C|---------------------------------|---------------------------------|---------------------------------|
G|---------------------------------|---------------------------------|---------------------------------|
C|-5---5---5---5---5---5---5---5---|-5---5---5---5---5---5---5---5---|-0---0---0---0---0---0---0---0---|


F|---------------------------------|---------------------------------|-----------------|
C|---------------------------------|---------------------------------|-----------------|
G|---------------------------------|---------------------------------|-----------------|
C|-0---0---0---0---0---0---0---0---|-0---0---0---0---0---0---0---0---|-0---------------|