Site menu:

    

Browse: 0-9 A B C D E F G H I J K L N O P Q R S T U V W X Y Z

infliction of need - no one will mourn my death:



Title: No One Will Mourn My Death
Artist: 
Album: 
Author: Ben Robinson and Josh Sullivan


Track 1: Ishwa

D|---------------------------------------------|---------------------------------------------|
A|---------------------------------------------|---------------------------------------------|
F|---------------------------------------------|---------------------------------------------|
C|-------------------9---------------------9---|----------10--------------------9------------|
G|-7--7--7--7--7--7--7---7--7--7--7--7--7--7---|-7--7--7--7---7--7--7--7--7--7--7---7--7--5--|
D|---------------------------------------------|---------------------------------------------|


D|---------------------------------------------|-------------------------------------------|
A|---------------------------------------------|-------------------------------------------|
F|---------------------------------------------|-------------------------------------------|
C|----------7------------5---------------------|-9---------------------9------------10-----|
G|-5--5--5--5---3--3--3--3---7--7--7--7--7--7--|-7---7--7--7--7--7--7--7---7--7--7--7---7--|
D|---------------------------------------------|-------------------------------------------|


D|---------------------------------------------|-----------------------------------------------|
A|---------------------------------------------|-----------------------------------------------|
F|---------------------------------------------|-----------------------------------------------|
C|----------------9---------------------7------|-------5---------------------------------------|
G|-7--7--7--7--7--7---7--7--5--5--5--5--5---3--|-3--3--3---------------------------------------|
D|---------------------------------------------|-----------0--0--0--0--0--0--1--0--0--0--0--0--|


D|-------------------------------------------|-----------------------------------------------|
A|-------------------------------------------|-----------------------------------------------|
F|-------------------------------------------|-----------------------------------------------|
C|----------------5---4---4--5---------------|----------------------------------------9---7--|
G|----------------3---2---2--3---------------|----------------------------------------7---5--|
D|-1--0--0--0--0-----------------0--0--0--0--|-0--0--1--0--0--0--0--0--1--0--0--0--0---------|


D|-----------------------------------------------|-------------------------------------------|
A|-----------------------------------------------|-------------------------------------------|
F|-----------------------------------------------|-------------------------------------------|
C|----9--9---------------------------------------|----------------5---4---4--5---------------|
G|----7--7---------------------------------------|----------------3---2---2--3---------------|
D|-----------0--0--0--0--0--0--1--0--0--0--0--0--|-1--0--0--0--0-----------------0--0--0--0--|


D|-----------------------------------------------|-----------------------------------------------|
A|-----------------------------------------------|-----------------------------------------------|
F|-----------------------------------------------|-----------------------------------------------|
C|----------------------------------------9---7--|----9--9---------------------------------------|
G|----------------------------------------7---5--|----7--7---------------------------------------|
D|-0--0--1--0--0--0--0--0--1--0--0--0--0---------|-----------0--0--0--0--0--0--1--0--0--0--0--0--|


D|-------------------------------------------|-----------------------------------------------|
A|-------------------------------------------|-----------------------------------------------|
F|-------------------------------------------|-----------------------------------------------|
C|----------------5---4---4--5---------------|----------------------------------------9---7--|
G|----------------3---2---2--3---------------|----------------------------------------7---5--|
D|-1--0--0--0--0-----------------0--0--0--0--|-0--0--1--0--0--0--0--0--1--0--0--0--0---------|


D|-----------------------------------------------|-------------------------------------------|
A|-----------------------------------------------|-------------------------------------------|
F|-----------------------------------------------|-------------------------------------------|
C|----9--9---------------------------------------|----------------5---4---4--5---------------|
G|----7--7---------------------------------------|----------------3---2---2--3---------------|
D|-----------0--0--0--0--0--0--1--0--0--0--0--0--|-1--0--0--0--0-----------------0--0--0--0--|


D|-----------------------------------------------|------------------------------------|
A|-----------------------------------------------|------------------------------------|
F|-----------------------------------------------|------------------------------------|
C|----------------------------------------9---7--|----9--9----------------------------|
G|----------------------------------------7---5--|----7--7---2--2--2--------2--2--2---|
D|-0--0--1--0--0--0--0--0--1--0--0--0--0---------|-----------0--0--0--------0--0--0---|


D|--------------------------------------|-------------------------------|--------------------------------------|
A|--------------------------------------|-------------------------------|--------------------------------------|
F|--------------------------------------|-------------------------------|--------------------------------------|
C|--------------------------------------|-------------------------------|--------------------------------------|
G|------2--2--2--2--2--2--2--2--2-------|------2--2--2--------2--2--2---|------2--2--2--2--2--2--2--2--2-------|
D|------0--0--0--0--0--0--0--0--0-------|------0--0--0--------0--0--0---|------0--0--0--0--0--0--0--0--0-------|


D|-------------------------------|--------------------------------------|-------------------------------|
A|-------------------------------|--------------------------------------|-------------------------------|
F|-------------------------------|--------------------------------------|-------------------------------|
C|-------------------------------|--------------------------------------|-------------------------------|
G|------5--5--5--------5--5--5---|------5--5--5--5--5--5--5--5--5-------|------2--2--2--------2--2--2---|
D|------3--3--3--------3--3--3---|------3--3--3--3--3--3--3--3--3-------|------0--0--0--------0--0--0---|


D|--------------------------------------|------------------------------|---------------------------------|
A|--------------------------------------|------------------------------|---------------------------------|
F|--------------------------------------|------------------------------|---------------------------------|
C|--------------------------------------|----------10------9-------7---|-------------7-------5-----------|
G|------2--2--2--2--2--2--2--2--2-------|------------------------------|-----9-----------------------5---|
D|------0--0--0--0--0--0--0--0--0-------|------0-------0-------0-------|-0-------0-------0-------0-------|


D|---------------------------------|------------------------------|------------------------------|
A|---------------------------------|------------------------------|------------------------------|
F|---------------------------------|----------------------9---7---|-10---------------------------|
C|---------------------------------|------------------------------|----------10------9-------7---|
G|-----3-----------5---4-----------|-8----5---4-----------7---5---|-8----------------------------|
D|-0-------0---0---3---2---0---0---|-6----3---2---0---0-----------|------0-------0-------0-------|


D|---------------------------------|---------------------------------|------------------------------|
A|---------------------------------|---------------------------------|------------------------------|
F|---------------------------------|---------------------------------|----------------------9---9---|
C|-------------7-------5-----------|---------------------------------|------------------------------|
G|-----9-----------------------5---|-----3-----------5---4-----------|-8----5---4-----------7---7---|
D|-0-------0-------0-------0-------|-0-------0---0---3---2---0---0---|-6----3---2---0---0-----------|


D|-----------------------------------------|------------------------------|--------------------------------------|
A|-----------------------------------------|------------------------------|--------------------------------------|
F|-10--7-----------------------------------|------------------------------|-8------------------------------------|
C|-----------------------------------------|------------------------------|-8------------------------------------|
G|-8---5---5---4---------------------------|-5---4---2---2---7---6---6----|------5---4---------------------------|
D|---------3---2---0--0--0--0--0--0--0--0--|-3---2---0---0---5---4---6----|------3---2---0--0--0--0--0--0--0--0--|


D|---------------------------------|--------------------------------------|------------------------------|
A|---------------------------------|--------------------------------------|------------------------------|
F|-------------------------9---7---|-10-----------------------------------|------------------------------|
C|---------------------------------|--------------------------------------|------------------------------|
G|-5---4---2---2---7---6---7---5---|-8----5---4---------------------------|-5---4---2---2---7---6---6----|
D|-3---2---0---0---5---4-----------|------3---2---0--0--0--0--0--0--0--0--|-3---2---0---0---5---4---6----|


D|--------------------------------------|---------------------------------|-----------------------------------------|
A|--------------------------------------|---------------------------------|-----------------------------------------|
F|-8------------------------------------|-------------------------9---9---|-10--7-----------------------------------|
C|-8------------------------------------|---------------------------------|-----------------------------------------|
G|------5---4---------------------------|-5---4---2---2---7---6---7---7---|-8---5---5---4---------------------------|
D|------3---2---0--0--0--0--0--0--0--0--|-3---2---0---0---5---4-----------|---------3---2---0--0--0--0--0--0--0--0--|


D|------------------------------|--------------------------------------|---------------------------------|
A|------------------------------|--------------------------------------|---------------------------------|
F|------------------------------|-8------------------------------------|-------------------------9---7---|
C|------------------------------|-8------------------------------------|---------------------------------|
G|-5---4---2---2---7---6---6----|------5---4---------------------------|-5---4---2---2---7---6---7---5---|
D|-3---2---0---0---5---4---6----|------3---2---0--0--0--0--0--0--0--0--|-3---2---0---0---5---4-----------|


D|--------------------------------------|------------------------------|--------------------------------------|
A|--------------------------------------|------------------------------|--------------------------------------|
F|-10-----------------------------------|------------------------------|-8------------------------------------|
C|--------------------------------------|------------------------------|-8------------------------------------|
G|-8----5---4---------------------------|-5---4---2---2---7---6---6----|------5---4---------------------------|
D|------3---2---0--0--0--0--0--0--0--0--|-3---2---0---0---5---4---6----|------3---2---0--0--0--0--0--0--0--0--|


D|---------------------------|-------------------------------------|-------------------------------------|
A|---------------------------|-------------------------------------|-------------------------------------|
F|-------------------9---9---|-10--7-------------------------------|-------------------------------------|
C|---------------------------|-------------------------------------|-9---10--------------------9--9--9---|
G|-5---4---2---------7---7---|-8---5---2--2--2---2---2---7--7--7---|---------2--2--2---2---2-------------|
D|-3---2---0-----------------|---------0--0--0---0---0-------------|---------0--0--0---0---0-------------|


D|-----------------------------------------|-----------------------------------|-------------------------------------|
A|-----------------------------------------|-------------------------------10--|-8-----------------------------------|
F|-----------------------------------------|-------------------9---7-----------|-----7-------------------------------|
C|-7---------------------------------------|---------------------------9-------|-------------------------------------|
G|-----7---------------9---10--------------|-10--5---7-------------------------|---------2--2--2---2---2---7--7--7---|
D|---------0--0--0--0----------0--0--0--0--|-------------0--0------------------|---------0--0--0---0---0-------------|


D|-------------------------------------|-----------------------------------------|
A|-------------------------------------|-----------------------------------------|
F|-------------------------------------|-----------------------------------------|
C|-9---10--------------------9--9--9---|-7---------------------------------------|
G|---------2--2--2---2---2-------------|-----7---------------9---10--------------|
D|---------0--0--0---0---0-------------|---------0--0--0--0----------0--0--0--0--|


D|-----------------------------------|-------------------------------------|-------------------------------------|
A|-----------------------------------|-------------------------------------|-------------------------------------|
F|---------------------------7---5---|-4-----------------------------------|-------------------------------------|
C|-------------------7---9-----------|-----5-------------------------------|-9---10--------------------9--9--9---|
G|-10--5---7-------------------------|---------2--2--2---2---2---7--7--7---|---------2--2--2---2---2-------------|
D|-------------0--0------------------|---------0--0--0---0---0-------------|---------0--0--0---0---0-------------|


D|-----------------------------------------|-----------------------------------|-------------------------------------|
A|-----------------------------------------|-------------------------------10--|-8-----------------------------------|
F|-----------------------------------------|-------------------9---7-----------|-----7-------------------------------|
C|-7---------------------------------------|---------------------------9-------|-------------------------------------|
G|-----7---------------9---10--------------|-10--5---7-------------------------|---------2--2--2---2---2---7--7--7---|
D|---------0--0--0--0----------0--0--0--0--|-------------0--0------------------|---------0--0--0---0---0-------------|


D|-------------------------------------|-----------------------------------------|
A|-------------------------------------|-----------------------------------------|
F|-------------------------------------|-----------------------------------------|
C|-9---10--------------------9--9--9---|-7---------------------------------------|
G|---------2--2--2---2---2-------------|-----7---------------9---10--------------|
D|---------0--0--0---0---0-------------|---------0--0--0--0----------0--0--0--0--|


D|-----------------------------------|-------------------------------------|---------------------------------------|
A|-----------------------------------|-------------------------------------|---------------------------------------|
F|---------------------------7---5---|-4-----------------------------------|---------------------------------------|
C|-------------------7---9-----------|-----5-----------------5---4---------|-----------5---4-----------------------|
G|-10--5---7-------------------------|---------3--3---3--3-----------3--3--|----3--3-----------2---2---2--2--2--2--|
D|-------------0--0------------------|---------3--3---3--3---3---2---3--3--|----3--3---3---2---2---2---2--2--2--2--|


D|---------------------------------------|---------------------------------------|
A|---------------------------------------|---------------------------------------|
F|---------------------------------------|---------------------------------------|
C|-------------------------5---4---------|-----------5---4-----------------------|
G|-2--2---2--3--3---3--3-----------3--3--|----3--3-----------2---2---2--2--2--2--|
D|-2--2---2--3--3---3--3---3---2---3--3--|----3--3---3---2---2---2---2--2--2--2--|


D|---------------------------------------|---------------------------------------|
A|---------------------------------------|---------------------------------------|
F|---------------------------------------|---------------------------------------|
C|-------------------------5---4---------|-----------5---4-----------------------|
G|-2--2---2--3--3---3--3-----------3--3--|----3--3-----------2---2---2--2--2--2--|
D|-2--2---2--3--3---3--3---3---2---3--3--|----3--3---3---2---2---2---2--2--2--2--|


D|---------------------------------------|-------------------------------------|------------------------------|
A|---------------------------------------|-------------------------------------|------------------------------|
F|---------------------------------------|-------------------------------------|------------------------------|
C|-------------------------5---4---------|-----------5---4---------------------|----------10------9-------7---|
G|-2--2---2--3--3---3--3-----------3--3--|----3--3-----------2--2---2--2-------|------------------------------|
D|-2--2---2--3--3---3--3---3---2---3--3--|----3--3---3---2---2--2---2--2-------|------0-------0-------0-------|


D|---------------------------------|---------------------------------|------------------------------|
A|---------------------------------|---------------------------------|------------------------------|
F|---------------------------------|---------------------------------|----------------------9---7---|
C|-------------7-------5-----------|---------------------------------|------------------------------|
G|-----9-----------------------5---|-----3-----------5---4-----------|-8----5---4-----------7---5---|
D|-0-------0-------0-------0-------|-0-------0---0---3---2---0---0---|-6----3---2---0---0-----------|


D|------------------------------|---------------------------------|---------------------------------|
A|------------------------------|---------------------------------|---------------------------------|
F|-10---------------------------|---------------------------------|---------------------------------|
C|----------10------9-------7---|-------------7-------5-----------|---------------------------------|
G|-8----------------------------|-----9-----------------------5---|-----3-----------5---4-----------|
D|------0-------0-------0-------|-0-------0-------0-------0-------|-0-------0---0---3---2---0---0---|


D|------------------------------|-----------------------------------------|------------------------------|
A|------------------------------|-----------------------------------------|------------------------------|
F|----------------------9---9---|-10--7-----------------------------------|------------------------------|
C|------------------------------|-----------------------------------------|------------------------------|
G|-8----5---4-----------7---7---|-8---5---5---4---------------------------|-5---4---2---2---7---6---6----|
D|-6----3---2---0---0-----------|---------3---2---0--0--0--0--0--0--0--0--|-3---2---0---0---5---4---6----|


D|--------------------------------------|---------------------------------|--------------------------------------|
A|--------------------------------------|---------------------------------|--------------------------------------|
F|-8------------------------------------|-------------------------9---7---|-10-----------------------------------|
C|-8------------------------------------|---------------------------------|--------------------------------------|
G|------5---4---------------------------|-5---4---2---2---7---6---7---5---|-8----5---4---------------------------|
D|------3---2---0--0--0--0--0--0--0--0--|-3---2---0---0---5---4-----------|------3---2---0--0--0--0--0--0--0--0--|


D|------------------------------|--------------------------------------|---------------------------------|
A|------------------------------|--------------------------------------|---------------------------------|
F|------------------------------|-8------------------------------------|-------------------------9---9---|
C|------------------------------|-8------------------------------------|---------------------------------|
G|-5---4---2---2---7---6---6----|------5---4---------------------------|-5---4---2---2---7---6---7---7---|
D|-3---2---0---0---5---4---6----|------3---2---0--0--0--0--0--0--0--0--|-3---2---0---0---5---4-----------|


D|-----------------------------------------|------------------------------|--------------------------------------|
A|-----------------------------------------|------------------------------|--------------------------------------|
F|-10--7-----------------------------------|------------------------------|-8------------------------------------|
C|-----------------------------------------|------------------------------|-8------------------------------------|
G|-8---5---5---4---------------------------|-5---4---2---2---7---6---6----|------5---4---------------------------|
D|---------3---2---0--0--0--0--0--0--0--0--|-3---2---0---0---5---4---6----|------3---2---0--0--0--0--0--0--0--0--|


D|---------------------------------|--------------------------------------|------------------------------|
A|---------------------------------|--------------------------------------|------------------------------|
F|-------------------------9---7---|-10-----------------------------------|------------------------------|
C|---------------------------------|--------------------------------------|------------------------------|
G|-5---4---2---2---7---6---7---5---|-8----5---4---------------------------|-5---4---2---2---7---6---6----|
D|-3---2---0---0---5---4-----------|------3---2---0--0--0--0--0--0--0--0--|-3---2---0---0---5---4---6----|


D|--------------------------------------|---------------------------|-------------------------------------|
A|--------------------------------------|---------------------------|-------------------------------------|
F|-8------------------------------------|-------------------9---9---|-10--7-------------------------------|
C|-8------------------------------------|---------------------------|-------------------------------------|
G|------5---4---------------------------|-5---4---2---------7---7---|-8---5---2--2--2---2---2---7--7--7---|
D|------3---2---0--0--0--0--0--0--0--0--|-3---2---0-----------------|---------0--0--0---0---0-------------|


D|-------------------------------------|-----------------------------------------|
A|-------------------------------------|-----------------------------------------|
F|-------------------------------------|-----------------------------------------|
C|-9---10--------------------9--9--9---|-7---------------------------------------|
G|---------2--2--2---2---2-------------|-----7---------------9---10--------------|
D|---------0--0--0---0---0-------------|---------0--0--0--0----------0--0--0--0--|


D|-----------------------------------|-------------------------------------|-------------------------------------|
A|-------------------------------10--|-8-----------------------------------|-------------------------------------|
F|-------------------9---7-----------|-----7-------------------------------|-------------------------------------|
C|---------------------------9-------|-------------------------------------|-9---10--------------------9--9--9---|
G|-10--5---7-------------------------|---------2--2--2---2---2---7--7--7---|---------2--2--2---2---2-------------|
D|-------------0--0------------------|---------0--0--0---0---0-------------|---------0--0--0---0---0-------------|


D|-----------------------------------------|-----------------------------------|-------------------------------------|
A|-----------------------------------------|-----------------------------------|-------------------------------------|
F|-----------------------------------------|---------------------------7---5---|-4-----------------------------------|
C|-7---------------------------------------|-------------------7---9-----------|-----5-------------------------------|
G|-----7---------------9---10--------------|-10--5---7-------------------------|---------2--2--2---2---2---7--7--7---|
D|---------0--0--0--0----------0--0--0--0--|-------------0--0------------------|---------0--0--0---0---0-------------|


D|-------------------------------------|-----------------------------------------|
A|-------------------------------------|-----------------------------------------|
F|-------------------------------------|-----------------------------------------|
C|-9---10--------------------9--9--9---|-7---------------------------------------|
G|---------2--2--2---2---2-------------|-----7---------------9---10--------------|
D|---------0--0--0---0---0-------------|---------0--0--0--0----------0--0--0--0--|


D|-----------------------------------|-------------------------------------|-------------------------------------|
A|-------------------------------10--|-8-----------------------------------|-------------------------------------|
F|-------------------9---7-----------|-----7-------------------------------|-------------------------------------|
C|---------------------------9-------|-------------------------------------|-9---10--------------------9--9--9---|
G|-10--5---7-------------------------|---------2--2--2---2---2---7--7--7---|---------2--2--2---2---2-------------|
D|-------------0--0------------------|---------0--0--0---0---0-------------|---------0--0--0---0---0-------------|


D|-----------------------------------------|-----------------------------------|-----------------------------------|
A|-----------------------------------------|-----------------------------------|-----------------------------------|
F|-----------------------------------------|---------------------------7---5---|-4---------------------------------|
C|-7---------------------------------------|-------------------7---9-----------|-----5-----------------------------|
G|-----7---------------9---10--------------|-10--5---7-------------------------|---------2---2---2--2--2---2---2---|
D|---------0--0--0--0----------0--0--0--0--|-------------0--0------------------|---------0---0---0--0--0---0---0---|


D|--------------------------------|-----------------------------------------|-------------------------------------|
A|--------------------------------|-----------------------------------------|-------------------------------------|
F|--------------------------------|-----------------------------------------|-------------------------------------|
C|-5---4---6----------------------|---------3--5--3--2--3--2--4-------------|-------------------------------------|
G|-3---2---4----2---2---2--2--2---|-2---2-------------------------3--3--3---|-3--3------2---2---2--2--2---2---2---|
D|--------------0---0---0--0--0---|-0---0-------------------------1--1--1---|-1--1------0---0---0--0--0---0---0---|


D|--------------------------------|-----------------------------------------|-----------------------------------|
A|--------------------------------|-----------------------------------------|-----------------------------------|
F|--------------------------------|-----------------------------------------|-----------------------------------|
C|-5---4---6----------------------|---------3--5--3--2--3--2--4-------------|-----------4---4-------------------|
G|-3---2---4----2---2---2--2--2---|-2---2-------------------------3--3--3---|-3--3------2---2---2---2---2---2---|
D|--------------0---0---0--0--0---|-0---0-------------------------1--1--1---|-1--1--------------0---0---0---0---|


D|---------------------------|---------------------------------------|------------------------------|
A|---------------------------|---------------------------------------|------------------------------|
F|---------------------------|---------------------------------------|------------------------------|
C|-7---5---7----5----4---4---|---------3--5--3--2--3--2--4-----------|-5----4---4-------------------|
G|-5---3---5----3----2---2---|-2---2-------------------------2---2---|-3----2---2---2---2---2---2---|
D|---------------------------|-0---0-------------------------0---0---|--------------0---0---0---0---|


D|---------------------------|---------------------------------------|------------------------------|
A|---------------------------|---------------------------------------|------------------------------|
F|---------------------------|---------------------------------------|------------------------------|
C|-7---5---7----5----4---4---|---------3--5--3--2--3--2--4-----------|-5----4---4-------------------|
G|-5---3---5----3----2---2---|-2---2-------------------------2---2---|-3----2---2---2---2---2---2---|
D|---------------------------|-0---0-------------------------0---0---|--------------0---0---0---0---|


D|---------------------------|---------------------------------------|------------------------------|
A|---------------------------|---------------------------------------|------------------------------|
F|---------------------------|---------------------------------------|------------------------------|
C|-7---5---7----5----4---4---|---------3--5--3--2--3--2--4-----------|-5----4---4-------------------|
G|-5---3---5----3----2---2---|-2---2-------------------------2---2---|-3----2---2---2---2---2---2---|
D|---------------------------|-0---0-------------------------0---0---|--------------0---0---0---0---|


D|---------------------------|---------------------------------------|------------------------------|
A|---------------------------|---------------------------------------|------------------------------|
F|---------------------------|---------------------------------------|------------------------------|
C|-7---5---7----5----4---4---|---------3--5--3--2--3--2--4-----------|-5----4---4-------------------|
G|-5---3---5----3----2---2---|-2---2-------------------------2---2---|-3----2---2---2---2---2---2---|
D|---------------------------|-0---0-------------------------0---0---|--------------0---0---0---0---|


D|---------------------------|---------------------------------------|------------------------------|
A|---------------------------|---------------------------------------|------------------------------|
F|---------------------------|---------------------------------------|------------------------------|
C|-7---5---7----5----4---4---|---------3--5--3--2--3--2--4-----------|-5----4---4-------------------|
G|-5---3---5----3----2---2---|-2---2-------------------------2---2---|-3----2---2---2---2---2---2---|
D|---------------------------|-0---0-------------------------0---0---|--------------0---0---0---0---|


D|---------------------------|---------------------------------------|----------------------------------|
A|---------------------------|---------------------------------------|----------------------------------|
F|---------------------------|---------------------------------------|----------------------------------|
C|-7---5---7----5----4---4---|---------3--5--3--2--3--2--4-----------|-5--------------------------------|
G|-5---3---5----3----2---2---|-2---2-------------------------2---2---|-3----2--2--2---2---2---7--7--7---|
D|---------------------------|-0---0-------------------------0---0---|------0--0--0---0---0-------------|


D|-------------------------------------|-----------------------------------------|
A|-------------------------------------|-----------------------------------------|
F|-------------------------------------|-----------------------------------------|
C|-9---10--------------------9--9--9---|-7---------------------------------------|
G|---------2--2--2---2---2-------------|-----7---------------9---10--------------|
D|---------0--0--0---0---0-------------|---------0--0--0--0----------0--0--0--0--|


D|-----------------------------------|-------------------------------------|-------------------------------------|
A|-------------------------------10--|-8-----------------------------------|-------------------------------------|
F|-------------------9---7-----------|-----7-------------------------------|-------------------------------------|
C|---------------------------9-------|-------------------------------------|-9---10--------------------9--9--9---|
G|-10--5---7-------------------------|---------2--2--2---2---2---7--7--7---|---------2--2--2---2---2-------------|
D|-------------0--0------------------|---------0--0--0---0---0-------------|---------0--0--0---0---0-------------|


D|-----------------------------------------|-----------------------------------|-------------------------------------|
A|-----------------------------------------|-----------------------------------|-------------------------------------|
F|-----------------------------------------|---------------------------7---5---|-4-----------------------------------|
C|-7---------------------------------------|-------------------7---9-----------|-----5-------------------------------|
G|-----7---------------9---10--------------|-10--5---7-------------------------|---------2--2--2---2---2---7--7--7---|
D|---------0--0--0--0----------0--0--0--0--|-------------0--0------------------|---------0--0--0---0---0-------------|


D|-------------------------------------|-----------------------------------------|
A|-------------------------------------|-----------------------------------------|
F|-------------------------------------|-----------------------------------------|
C|-9---10--------------------9--9--9---|-7---------------------------------------|
G|---------2--2--2---2---2-------------|-----7---------------9---10--------------|
D|---------0--0--0---0---0-------------|---------0--0--0--0----------0--0--0--0--|


D|-----------------------------------|-------------------------------------|-------------------------------------|
A|-------------------------------10--|-8-----------------------------------|-------------------------------------|
F|-------------------9---7-----------|-----7-------------------------------|-------------------------------------|
C|---------------------------9-------|-------------------------------------|-9---10--------------------9--9--9---|
G|-10--5---7-------------------------|---------2--2--2---2---2---7--7--7---|---------2--2--2---2---2-------------|
D|-------------0--0------------------|---------0--0--0---0---0-------------|---------0--0--0---0---0-------------|


D|-----------------------------------------|-----------------------------------|------------------------------|
A|-----------------------------------------|-----------------------------------|------------------------------|
F|-----------------------------------------|---------------------------7---5---|-4----------------------------|
C|-7---------------------------------------|-------------------7---9-----------|-----5------------------------|
G|-----7---------------9---10--------------|-10--5---7-------------------------|---------2---2---2----2-------|
D|---------0--0--0--0----------0--0--0--0--|-------------0--0------------------|---------0---0---0----0-------|


D|------------------------------------|------------------------------------|------------------------------|
A|------------------------------------|------------------------------------|------------------------------|
F|------------------------------------|------------------------------------|------------------------------|
C|------------------------------------|------------------------------------|------------------------------|
G|-2--2--2--2--2---2---2--------2--2--|-2--2--2---2---2--------2--2--2--2--|-2-------2---2---2----2-------|
D|-0--0--0--0--0---0---0--------0--0--|-0--0--0---0---0--------0--0--0--0--|-0-------0---0---0----0-------|


D|------------------------------------|------------------------------------|---------------------------------------|
A|------------------------------------|------------------------------------|---------------------------------------|
F|------------------------------------|------------------------------------|---------------------------------------|
C|------------------------------------|------------------------------------|---------------------------------------|
G|-2--2--2--2--2---2---2--------2--2--|-2--2--2---2---2--------2--2--2--2--|-2-------------------------------------|
D|-0--0--0--0--0---0---0--------0--0--|-0--0--0---0---0--------0--0--0--0--|-0-------0--0--0---0--0--0---0--0--0---|


D|---------------------------------------|-------------------------------------|-------------------------------------|
A|---------------------13--15------------|-13--12------------13--12--10-10-10--|-12--13------------13--15------------|
F|-----------14-14-14----------12-12-12--|---------12-12-12--------------------|---------14-14-14----------12-12-12--|
C|---------------------------------------|-------------------------------------|-------------------------------------|
G|---------------------------------------|-------------------------------------|-------------------------------------|
D|-0--0--0-------------------------------|-------------------------------------|-------------------------------------|


D|-------------------------------------|-------------------------------------|-------------------------------------|
A|-13--12------------13--12--10-10-10--|-12--13------------13--15------------|-13--12------------13--12--10-10-10--|
F|---------12-12-12--------------------|---------14-14-14----------12-12-12--|---------12-12-12--------------------|
C|-------------------------------------|-------------------------------------|-------------------------------------|
G|-------------------------------------|-------------------------------------|-------------------------------------|
D|-------------------------------------|-------------------------------------|-------------------------------------|


D|-------------------------------------|-------------------------------------|-------------------------------------------|
A|-12--13------------13--15------------|-13--12------------13--12--10-10-10--|-12--13------------------------------------|
F|---------14-14-14----------12-12-12--|---------12-12-12--------------------|-------------------------------------------|
C|-------------------------------------|-------------------------------------|---------------------------9---------------|
G|-------------------------------------|-------------------------------------|---------7--7--7--7--7--7--7---7--7--7--7--|
D|-------------------------------------|-------------------------------------|-------------------------------------------|


D|---------------------------------------------|---------------------------------------------|
A|---------------------------------------------|---------------------------------------------|
F|---------------------------------------------|---------------------------------------------|
C|-------9------------10--------------------9--|----------------------7------------5---------|
G|-7--7--7---7--7--7--7---7--7--7--7--7--7--7--|----7--7--5--5--5--5--5---3--3--3--3---7--7--|
D|---------------------------------------------|---------------------------------------------|


D|---------------------------------------------|---------------------------------------------|
A|---------------------------------------------|---------------------------------------------|
F|---------------------------------------------|---------------------------------------------|
C|-------------9---------------------9---------|----10--------------------9------------------|
G|-7--7--7--7--7---7--7--7--7--7--7--7---7--7--|-7--7---7--7--7--7--7--7--7---7--7--5--5--5--|
D|---------------------------------------------|---------------------------------------------|


D|-----------------------------------------|---------------------------------------|
A|-----------------------------------------|---------------------------------------|
F|-----------------------------------------|---------------------------------------|
C|----7------------5-----------------------|-------------------9---7-------7-------|
G|-5--5---3--3--3--3-----------------------|-------------------7---5-------5-------|
D|---------------------0--0--0---0---0--0--|-0--0--0--0--0--0----------0-------0---|


D|-----------------------------------------|-----------------------------------|-------------------------------------------|
A|-----------------------------------------|-----------------------------------|-------------------------------------------|
F|-----------------------------------------|-----------------------------------|-------------------------------------------|
C|-7---9-----------------------------------|-------9---7-------7-------7-------|---------------------------------------9---|
G|-5---7-----------------------------------|-------7---5-------5-------5---7---|---------------------------------------7---|
D|---------0--0--0---0---0--0--0--0--0--0--|-0--0----------0-------0-------0---|-0--0--0---0---0--0--0--0--0--0--0--0------|


D|-----------------------------------|-----------------------------------------|-------------------------------------|
A|-----------------------------------|-----------------------------------------|-------------------------------------|
F|-----------------------------------|-----------------------------------------|-------------------------------------|
C|-7-------7-------7---9-------------|-----------------------------9---7-------|-7-------7---------------------------|
G|-5-------5-------5---7-------------|-----------------------------7---5-------|-5-------5---7-----------------------|
D|-----0-------0-----------0--0--0---|-0---0--0--0--0--0--0--0--0----------0---|-----0-------0---0--0--0---0---0--0--|


D|---------------------------------------|-----------------------------------------|
A|---------------------------------------|-----------------------------------------|
F|---------------------------------------|-----------------------------------------|
C|-------------------9---7-------7-------|-7---9-----------------------------------|
G|-------------------7---5-------5-------|-5---7-----------------------------------|
D|-0--0--0--0--0--0----------0-------0---|---------0--0--0---0---0--0--0--0--0--0--|


D|-----------------------------------|-------------------------------------------|
A|-----------------------------------|-------------------------------------------|
F|-----------------------------------|-------------------------------------------|
C|-------9---7-------7-------7-------|---------------------------------------9---|
G|-------7---5-------5-------5---7---|---------------------------------------7---|
D|-0--0----------0-------0-------0---|-0--0--0---0---0--0--0--0--0--0--0--0------|


D|-----------------------------------|-----------------------------------------|-----------------------|
A|-----------------------------------|-----------------------------------------|-----------------------|
F|-----------------------------------|-----------------------------------------|-----------------------|
C|-7-------7-------7---9-------------|-----------------------------9---7-------|-7-------7-------------|
G|-5-------5-------5---7-------------|-----------------------------7---5-------|-5-------5---7---------|
D|-----0-------0-----------0--0--0---|-0---0--0--0--0--0--0--0--0----------0---|-----0-------0---------|





Track 2: Benoit

D|--------|--------|--------|--------|--------|--------|--------|--------|--------|
A|--------|--------|--------|--------|--------|--------|--------|--------|--------|
F|--------|--------|--------|--------|--------|--------|--------|--------|--------|
C|--------|--------|--------|--------|--------|--------|--------|--------|--------|
G|--------|--------|--------|--------|--------|--------|--------|--------|--------|
D|--------|--------|--------|--------|--------|--------|--------|--------|--------|


D|--------|--------|--------|--------|--------|--------|--------|--------|----------------------------------|
A|--------|--------|--------|--------|--------|--------|--------|--------|----------------13--15------------|
F|--------|--------|--------|--------|--------|--------|--------|--------|------14-14-14----------12-12-12--|
C|--------|--------|--------|--------|--------|--------|--------|--------|----------------------------------|
G|--------|--------|--------|--------|--------|--------|--------|--------|----------------------------------|
D|--------|--------|--------|--------|--------|--------|--------|--------|----------------------------------|


D|-------------------------------------|-------------------------------------|-------------------------------------|
A|-13--12------------13--12--10-10-10--|-12--13------------13--15------------|-13--12------------13--12--10-10-10--|
F|---------12-12-12--------------------|---------14-14-14----------12-12-12--|---------12-12-12--------------------|
C|-------------------------------------|-------------------------------------|-------------------------------------|
G|-------------------------------------|-------------------------------------|-------------------------------------|
D|-------------------------------------|-------------------------------------|-------------------------------------|


D|-------------------------------------|-------------------------------------|-------------------------------------|
A|-12--13------------13--15------------|-13--12------------13--12--10-10-10--|-12--13------------13--15------------|
F|---------14-14-14----------12-12-12--|---------12-12-12--------------------|---------14-14-14----------12-12-12--|
C|-------------------------------------|-------------------------------------|-------------------------------------|
G|-------------------------------------|-------------------------------------|-------------------------------------|
D|-------------------------------------|-------------------------------------|-------------------------------------|


D|-------------------------------------|----------------|--------|--------|--------|
A|-13--12------------13--12--10-10-10--|-12--13---------|--------|--------|--------|
F|---------12-12-12--------------------|----------------|--------|--------|--------|
C|-------------------------------------|----------------|--------|--------|--------|
G|-------------------------------------|----------------|--------|--------|--------|
D|-------------------------------------|----------------|--------|--------|--------|


D|--------|--------|--------|--------|--------|--------|--------|--------|--------|
A|--------|--------|--------|--------|--------|--------|--------|--------|--------|
F|--------|--------|--------|--------|--------|--------|--------|--------|--------|
C|--------|--------|--------|--------|--------|--------|--------|--------|--------|
G|--------|--------|--------|--------|--------|--------|--------|--------|--------|
D|--------|--------|--------|--------|--------|--------|--------|--------|--------|


D|--------|--------|--------|--------|--------|--------|--------|--------|--------|
A|--------|--------|--------|--------|--------|--------|--------|--------|--------|
F|--------|--------|--------|--------|--------|--------|--------|--------|--------|
C|--------|--------|--------|--------|--------|--------|--------|--------|--------|
G|--------|--------|--------|--------|--------|--------|--------|--------|--------|
D|--------|--------|--------|--------|--------|--------|--------|--------|--------|


D|--------|--------|----------------------------------|-------------------------------------|
A|--------|--------|----------------------------------|-------------------------------------|
F|--------|--------|----------------------------------|-------------------------------------|
C|--------|--------|----------------------------------|-9---10--------------------9--9--9---|
G|--------|--------|------2--2--2---2---2---7--7--7---|---------2--2--2---2---2-------------|
D|--------|--------|------0--0--0---0---0-------------|---------0--0--0---0---0-------------|


D|-----------------------------------------|-----------------------------------|-------------------------------------|
A|-----------------------------------------|-----------------------------------|-------------------------------------|
F|-----------------------------------------|-------------------------------9---|-7-----------------------------------|
C|-7---------------------------------------|-------------------10--9-----------|-----9-------------------------------|
G|-----7---------------9---10--------------|-10--5---7-----------------10------|---------2--2--2---2---2---7--7--7---|
D|---------0--0--0--0----------0--0--0--0--|-------------0--0------------------|---------0--0--0---0---0-------------|


D|-------------------------------------|-----------------------------------------|
A|-------------------------------------|-----------------------------------------|
F|-------------------------------------|-----------------------------------------|
C|-9---10--------------------9--9--9---|-7---------------------------------------|
G|---------2--2--2---2---2-------------|-----7---------------9---10--------------|
D|---------0--0--0---0---0-------------|---------0--0--0--0----------0--0--0--0--|


D|-----------------------------------|-------------------------------------|-------------------------------------|
A|-----------------------------------|-------------------------------------|-------------------------------------|
F|-----------------------------------|-------------------------------------|-------------------------------------|
C|---------------------------9---7---|-5-----------------------------------|-9---10--------------------9--9--9---|
G|-10--5---7---------9---10----------|-----7---2--2--2---2---2---7--7--7---|---------2--2--2---2---2-------------|
D|-------------0--0------------------|---------0--0--0---0---0-------------|---------0--0--0---0---0-------------|


D|-----------------------------------------|-----------------------------------|-------------------------------------|
A|-----------------------------------------|-----------------------------------|-------------------------------------|
F|-----------------------------------------|-------------------------------9---|-7-----------------------------------|
C|-7---------------------------------------|-------------------10--9-----------|-----9-------------------------------|
G|-----7---------------9---10--------------|-10--5---7-----------------10------|---------2--2--2---2---2---7--7--7---|
D|---------0--0--0--0----------0--0--0--0--|-------------0--0------------------|---------0--0--0---0---0-------------|


D|-------------------------------------|-----------------------------------------|
A|-------------------------------------|-----------------------------------------|
F|-------------------------------------|-----------------------------------------|
C|-9---10--------------------9--9--9---|-7---------------------------------------|
G|---------2--2--2---2---2-------------|-----7---------------9---10--------------|
D|---------0--0--0---0---0-------------|---------0--0--0--0----------0--0--0--0--|


D|-----------------------------------|----------------|--------|--------|--------|
A|-----------------------------------|----------------|--------|--------|--------|
F|-----------------------------------|----------------|--------|--------|--------|
C|---------------------------9---7---|-5--------------|--------|--------|--------|
G|-10--5---7---------9---10----------|-----7----------|--------|--------|--------|
D|-------------0--0------------------|----------------|--------|--------|--------|


D|--------|--------|--------|--------|--------|--------|--------|--------|--------|
A|--------|--------|--------|--------|--------|--------|--------|--------|--------|
F|--------|--------|--------|--------|--------|--------|--------|--------|--------|
C|--------|--------|--------|--------|--------|--------|--------|--------|--------|
G|--------|--------|--------|--------|--------|--------|--------|--------|--------|
D|--------|--------|--------|--------|--------|--------|--------|--------|--------|


D|--------|--------|--------|--------|--------|--------|--------|--------|--------|
A|--------|--------|--------|--------|--------|--------|--------|--------|--------|
F|--------|--------|--------|--------|--------|--------|--------|--------|--------|
C|--------|--------|--------|--------|--------|--------|--------|--------|--------|
G|--------|--------|--------|--------|--------|--------|--------|--------|--------|
D|--------|--------|--------|--------|--------|--------|--------|--------|--------|


D|--------|--------|--------|--------|--------|--------|--------|--------|--------|
A|--------|--------|--------|--------|--------|--------|--------|--------|--------|
F|--------|--------|--------|--------|--------|--------|--------|--------|--------|
C|--------|--------|--------|--------|--------|--------|--------|--------|--------|
G|--------|--------|--------|--------|--------|--------|--------|--------|--------|
D|--------|--------|--------|--------|--------|--------|--------|--------|--------|


D|--------|----------------------------------|-------------------------------------|
A|--------|----------------------------------|-------------------------------------|
F|--------|----------------------------------|-------------------------------------|
C|--------|----------------------------------|-9---10--------------------9--9--9---|
G|--------|------2--2--2---2---2---7--7--7---|---------2--2--2---2---2-------------|
D|--------|------0--0--0---0---0-------------|---------0--0--0---0---0-------------|


D|-----------------------------------------|-----------------------------------|-------------------------------------|
A|-----------------------------------------|-----------------------------------|-------------------------------------|
F|-----------------------------------------|-------------------------------9---|-7-----------------------------------|
C|-7---------------------------------------|-------------------10--9-----------|-----9-------------------------------|
G|-----7---------------9---10--------------|-10--5---7-----------------10------|---------2--2--2---2---2---7--7--7---|
D|---------0--0--0--0----------0--0--0--0--|-------------0--0------------------|---------0--0--0---0---0-------------|


D|-------------------------------------|-----------------------------------------|
A|-------------------------------------|-----------------------------------------|
F|-------------------------------------|-----------------------------------------|
C|-9---10--------------------9--9--9---|-7---------------------------------------|
G|---------2--2--2---2---2-------------|-----7---------------9---10--------------|
D|---------0--0--0---0---0-------------|---------0--0--0--0----------0--0--0--0--|


D|-----------------------------------|-------------------------------------|-------------------------------------|
A|-----------------------------------|-------------------------------------|-------------------------------------|
F|-----------------------------------|-------------------------------------|-------------------------------------|
C|---------------------------9---7---|-5-----------------------------------|-9---10--------------------9--9--9---|
G|-10--5---7---------9---10----------|-----7---2--2--2---2---2---7--7--7---|---------2--2--2---2---2-------------|
D|-------------0--0------------------|---------0--0--0---0---0-------------|---------0--0--0---0---0-------------|


D|-----------------------------------------|-----------------------------------|-------------------------------------|
A|-----------------------------------------|-----------------------------------|-------------------------------------|
F|-----------------------------------------|-------------------------------9---|-7-----------------------------------|
C|-7---------------------------------------|-------------------10--9-----------|-----9-------------------------------|
G|-----7---------------9---10--------------|-10--5---7-----------------10------|---------2--2--2---2---2---7--7--7---|
D|---------0--0--0--0----------0--0--0--0--|-------------0--0------------------|---------0--0--0---0---0-------------|


D|-------------------------------------|-----------------------------------------|
A|-------------------------------------|-----------------------------------------|
F|-------------------------------------|-----------------------------------------|
C|-9---10--------------------9--9--9---|-7---------------------------------------|
G|---------2--2--2---2---2-------------|-----7---------------9---10--------------|
D|---------0--0--0---0---0-------------|---------0--0--0--0----------0--0--0--0--|


D|-----------------------------------|-----------------------------------|--------------------------------|
A|-----------------------------------|-----------------------------------|--------------------------------|
F|-----------------------------------|-----------------------------------|--------------------------------|
C|---------------------------9---7---|-5---------------------------------|-5---4---6----------------------|
G|-10--5---7---------9---10----------|-----7---2---2---2--2--2---2---2---|-3---2---4----2---2---2--2--2---|
D|-------------0--0------------------|---------0---0---0--0--0---0---0---|--------------0---0---0--0--0---|


D|-----------------------------------------|-------------------------------------|
A|-----------------------------------------|-------------------------------------|
F|-----------------------------------------|-------------------------------------|
C|-----------------------------------------|-------------------------------------|
G|-2---2---5--7--5--4--5--4--6---3--3--3---|-3--3------2---2---2--2--2---2---2---|
D|-0---0-------------------------1--1--1---|-1--1------0---0---0--0--0---0---0---|


D|--------------------------------|-----------------------------------------|------------------|
A|--------------------------------|-----------------------------------------|------------------|
F|--------------------------------|-----------------------------------------|------------------|
C|-5---4---6----------------------|-----------------------------------------|------------------|
G|-3---2---4----2---2---2--2--2---|-2---2---5--7--5--4--5--4--6---3--3--3---|-3--3-------------|
D|--------------0---0---0--0--0---|-0---0-------------------------1--1--1---|-1--1-------------|


D|--------|--------|--------------------|--------|------------------------------------|
A|--------|--------|--------------------|--------|------------------------------------|
F|--------|--------|------4---4---------|--------|------------------------------------|
C|--------|--------|------4---4---------|--------|------------------------------------|
G|--------|--------|------2---2---------|--------|------5--7--5--4--5--4--6---2---2---|
D|--------|--------|--------------------|--------|----------------------------0---0---|


D|------------------------------|---------------------------|---------------------------------------|
A|------------------------------|---------------------------|---------------------------------------|
F|------------------------------|---------------------------|---------------------------------------|
C|-5----4---4-------------------|-7---5---7----5----4---4---|---------------------------------------|
G|-3----2---2---2---2---2---2---|-5---3---5----3----2---2---|-2---2---5--7--5--4--5--4--6---2---2---|
D|--------------0---0---0---0---|---------------------------|-0---0-------------------------0---0---|


D|------------------------------|---------------------------|---------------------------------------|
A|------------------------------|---------------------------|---------------------------------------|
F|------------------------------|---------------------------|---------------------------------------|
C|-5----4---4-------------------|-7---5---7----5----4---4---|---------------------------------------|
G|-3----2---2---2---2---2---2---|-5---3---5----3----2---2---|-2---2---5--7--5--4--5--4--6---2---2---|
D|--------------0---0---0---0---|---------------------------|-0---0-------------------------0---0---|


D|------------------------------|---------------------------|---------------------------------------|
A|------------------------------|---------------------------|---------------------------------------|
F|------------------------------|---------------------------|---------------------------------------|
C|-5----4---4-------------------|-7---5---7----5----4---4---|---------------------------------------|
G|-3----2---2---2---2---2---2---|-5---3---5----3----2---2---|-2---2---5--7--5--4--5--4--6---2---2---|
D|--------------0---0---0---0---|---------------------------|-0---0-------------------------0---0---|


D|------------------------------|---------------------------|---------------------------------------|
A|------------------------------|---------------------------|---------------------------------------|
F|------------------------------|---------------------------|---------------------------------------|
C|-5----4---4-------------------|-7---5---7----5----4---4---|---------------------------------------|
G|-3----2---2---2---2---2---2---|-5---3---5----3----2---2---|-2---2---5--7--5--4--5--4--6---2---2---|
D|--------------0---0---0---0---|---------------------------|-0---0-------------------------0---0---|


D|----------------------------------|-------------------------------------|-----------------------------------------|
A|----------------------------------|-------------------------------------|-----------------------------------------|
F|----------------------------------|-------------------------------------|-----------------------------------------|
C|-5--------------------------------|-9---10--------------------9--9--9---|-7---------------------------------------|
G|-3----2--2--2---2---2---7--7--7---|---------2--2--2---2---2-------------|-----7---------------9---10--------------|
D|------0--0--0---0---0-------------|---------0--0--0---0---0-------------|---------0--0--0--0----------0--0--0--0--|


D|-----------------------------------|-------------------------------------|-------------------------------------|
A|-----------------------------------|-------------------------------------|-------------------------------------|
F|-------------------------------9---|-7-----------------------------------|-------------------------------------|
C|-------------------10--9-----------|-----9-------------------------------|-9---10--------------------9--9--9---|
G|-10--5---7-----------------10------|---------2--2--2---2---2---7--7--7---|---------2--2--2---2---2-------------|
D|-------------0--0------------------|---------0--0--0---0---0-------------|---------0--0--0---0---0-------------|


D|-----------------------------------------|-----------------------------------|-------------------------------------|
A|-----------------------------------------|-----------------------------------|-------------------------------------|
F|-----------------------------------------|-----------------------------------|-------------------------------------|
C|-7---------------------------------------|---------------------------9---7---|-5-----------------------------------|
G|-----7---------------9---10--------------|-10--5---7---------9---10----------|-----7---2--2--2---2---2---7--7--7---|
D|---------0--0--0--0----------0--0--0--0--|-------------0--0------------------|---------0--0--0---0---0-------------|


D|-------------------------------------|-----------------------------------------|
A|-------------------------------------|-----------------------------------------|
F|-------------------------------------|-----------------------------------------|
C|-9---10--------------------9--9--9---|-7---------------------------------------|
G|---------2--2--2---2---2-------------|-----7---------------9---10--------------|
D|---------0--0--0---0---0-------------|---------0--0--0--0----------0--0--0--0--|


D|-----------------------------------|-------------------------------------|-------------------------------------|
A|-----------------------------------|-------------------------------------|-------------------------------------|
F|-------------------------------9---|-7-----------------------------------|-------------------------------------|
C|-------------------10--9-----------|-----9-------------------------------|-9---10--------------------9--9--9---|
G|-10--5---7-----------------10------|---------2--2--2---2---2---7--7--7---|---------2--2--2---2---2-------------|
D|-------------0--0------------------|---------0--0--0---0---0-------------|---------0--0--0---0---0-------------|


D|-----------------------------------------|-----------------------------------|----------------|
A|-----------------------------------------|-----------------------------------|----------------|
F|-----------------------------------------|-----------------------------------|----------------|
C|-7---------------------------------------|---------------------------9---7---|-5--------------|
G|-----7---------------9---10--------------|-10--5---7---------9---10----------|-----7----------|
D|---------0--0--0--0----------0--0--0--0--|-------------0--0------------------|----------------|


D|--------|--------|--------|--------|--------|--------|-------------------------------|
A|--------|--------|--------|--------|--------|--------|-------------------------------|
F|--------|--------|--------|--------|--------|--------|-------------------------------|
C|--------|--------|--------|--------|--------|--------|-------------------------------|
G|--------|--------|--------|--------|--------|--------|------2--2--2--------2--2--2---|
D|--------|--------|--------|--------|--------|--------|------0--0--0--------0--0--0---|


D|--------------------------------------|-------------------------------|--------------------------------------|
A|--------------------------------------|-------------------------------|--------------------------------------|
F|--------------------------------------|-------------------------------|--------------------------------------|
C|--------------------------------------|-------------------------------|--------------------------------------|
G|------2--2--2--2--2--2--2--2--2-------|------2--2--2--------2--2--2---|------2--2--2--2--2--2--2--2--2-------|
D|------0--0--0--0--0--0--0--0--0-------|------0--0--0--------0--0--0---|------0--0--0--0--0--0--0--0--0-------|


D|-------------------------------|--------------------------------------|-------------------------------|
A|-------------------------------|--------------------------------------|-------------------------------|
F|-------------------------------|--------------------------------------|-------------------------------|
C|-------------------------------|--------------------------------------|-------------------------------|
G|------5--5--5--------5--5--5---|------5--5--5--5--5--5--5--5--5-------|------2--2--2--------2--2--2---|
D|------3--3--3--------3--3--3---|------3--3--3--3--3--3--3--3--3-------|------0--0--0--------0--0--0---|


D|--------------------------------------|-------------|--------|--------|--------|
A|--------------------------------------|-------------|--------|--------|--------|
F|--------------------------------------|-------------|--------|--------|--------|
C|--------------------------------------|-------------|--------|--------|--------|
G|------2--2--2--2--2--2--2--2--2-------|-------------|--------|--------|--------|
D|------0--0--0--0--0--0--0--0--0-------|-------------|--------|--------|--------|


D|--------|--------|--------|--------|--------|--------|--------|--------|--------|
A|--------|--------|--------|--------|--------|--------|--------|--------|--------|
F|--------|--------|--------|--------|--------|--------|--------|--------|--------|
C|--------|--------|--------|--------|--------|--------|--------|--------|--------|
G|--------|--------|--------|--------|--------|--------|--------|--------|--------|
D|--------|--------|--------|--------|--------|--------|--------|--------|--------|


D|--------|--------|--------|--------|--------|--------|--------|
A|--------|--------|--------|--------|--------|--------|--------|
F|--------|--------|--------|--------|--------|--------|--------|
C|--------|--------|--------|--------|--------|--------|--------|
G|--------|--------|--------|--------|--------|--------|--------|
D|--------|--------|--------|--------|--------|--------|--------|





Track 3: Ishwa

D|--------|--------|--------|--------|--------|--------|--------|--------|--------|
A|--------|--------|--------|--------|--------|--------|--------|--------|--------|
F|--------|--------|--------|--------|--------|--------|--------|--------|--------|
C|--------|--------|--------|--------|--------|--------|--------|--------|--------|
G|--------|--------|--------|--------|--------|--------|--------|--------|--------|
D|--------|--------|--------|--------|--------|--------|--------|--------|--------|


D|--------|--------|--------|--------|--------|--------|--------|--------|--------|
A|--------|--------|--------|--------|--------|--------|--------|--------|--------|
F|--------|--------|--------|--------|--------|--------|--------|--------|--------|
C|--------|--------|--------|--------|--------|--------|--------|--------|--------|
G|--------|--------|--------|--------|--------|--------|--------|--------|--------|
D|--------|--------|--------|--------|--------|--------|--------|--------|--------|


D|--------|--------|--------|--------|--------|--------|--------|--------|--------|
A|--------|--------|--------|--------|--------|--------|--------|--------|--------|
F|--------|--------|--------|--------|--------|--------|--------|--------|--------|
C|--------|--------|--------|--------|--------|--------|--------|--------|--------|
G|--------|--------|--------|--------|--------|--------|--------|--------|--------|
D|--------|--------|--------|--------|--------|--------|--------|--------|--------|


D|--------|--------|--------|--------|--------|--------|--------|--------|--------|
A|--------|--------|--------|--------|--------|--------|--------|--------|--------|
F|--------|--------|--------|--------|--------|--------|--------|--------|--------|
C|--------|--------|--------|--------|--------|--------|--------|--------|--------|
G|--------|--------|--------|--------|--------|--------|--------|--------|--------|
D|--------|--------|--------|--------|--------|--------|--------|--------|--------|


D|--------|--------|--------|--------|--------|--------|--------|--------|--------|
A|--------|--------|--------|--------|--------|--------|--------|--------|--------|
F|--------|--------|--------|--------|--------|--------|--------|--------|--------|
C|--------|--------|--------|--------|--------|--------|--------|--------|--------|
G|--------|--------|--------|--------|--------|--------|--------|--------|--------|
D|--------|--------|--------|--------|--------|--------|--------|--------|--------|


D|--------|--------|--------|--------|--------|--------|--------|--------|--------|
A|--------|--------|--------|--------|--------|--------|--------|--------|--------|
F|--------|--------|--------|--------|--------|--------|--------|--------|--------|
C|--------|--------|--------|--------|--------|--------|--------|--------|--------|
G|--------|--------|--------|--------|--------|--------|--------|--------|--------|
D|--------|--------|--------|--------|--------|--------|--------|--------|--------|


D|--------|--------|--------|--------|--------|--------|--------|--------|--------|
A|--------|--------|--------|--------|--------|--------|--------|--------|--------|
F|--------|--------|--------|--------|--------|--------|--------|--------|--------|
C|--------|--------|--------|--------|--------|--------|--------|--------|--------|
G|--------|--------|--------|--------|--------|--------|--------|--------|--------|
D|--------|--------|--------|--------|--------|--------|--------|--------|--------|


D|--------|--------|--------|--------|--------|--------|--------|--------|--------|
A|--------|--------|--------|--------|--------|--------|--------|--------|--------|
F|--------|--------|--------|--------|--------|--------|--------|--------|--------|
C|--------|--------|--------|--------|--------|--------|--------|--------|--------|
G|--------|--------|--------|--------|--------|--------|--------|--------|--------|
D|--------|--------|--------|--------|--------|--------|--------|--------|--------|


D|--------|--------|--------|--------|--------|--------|--------|--------|--------|
A|--------|--------|--------|--------|--------|--------|--------|--------|--------|
F|--------|--------|--------|--------|--------|--------|--------|--------|--------|
C|--------|--------|--------|--------|--------|--------|--------|--------|--------|
G|--------|--------|--------|--------|--------|--------|--------|--------|--------|
D|--------|--------|--------|--------|--------|--------|--------|--------|--------|


D|--------|--------|--------|--------|--------|--------|--------|--------|--------|
A|--------|--------|--------|--------|--------|--------|--------|--------|--------|
F|--------|--------|--------|--------|--------|--------|--------|--------|--------|
C|--------|--------|--------|--------|--------|--------|--------|--------|--------|
G|--------|--------|--------|--------|--------|--------|--------|--------|--------|
D|--------|--------|--------|--------|--------|--------|--------|--------|--------|


D|--------|--------|--------|--------|--------|--------|--------|--------|--------|
A|--------|--------|--------|--------|--------|--------|--------|--------|--------|
F|--------|--------|--------|--------|--------|--------|--------|--------|--------|
C|--------|--------|--------|--------|--------|--------|--------|--------|--------|
G|--------|--------|--------|--------|--------|--------|--------|--------|--------|
D|--------|--------|--------|--------|--------|--------|--------|--------|--------|


D|--------|--------|--------|--------|--------|--------|--------|--------|--------|
A|--------|--------|--------|--------|--------|--------|--------|--------|--------|
F|--------|--------|--------|--------|--------|--------|--------|--------|--------|
C|--------|--------|--------|--------|--------|--------|--------|--------|--------|
G|--------|--------|--------|--------|--------|--------|--------|--------|--------|
D|--------|--------|--------|--------|--------|--------|--------|--------|--------|


D|--------|--------|--------|--------|--------|--------|--------|--------|--------|
A|--------|--------|--------|--------|--------|--------|--------|--------|--------|
F|--------|--------|--------|--------|--------|--------|--------|--------|--------|
C|--------|--------|--------|--------|--------|--------|--------|--------|--------|
G|--------|--------|--------|--------|--------|--------|--------|--------|--------|
D|--------|--------|--------|--------|--------|--------|--------|--------|--------|


D|--------|--------|-------------|-------------|--------------------|-------------|
A|--------|--------|-------------|-------------|--------------------|-------------|
F|--------|--------|-------------|-------------|--------------------|-------------|
C|--------|--------|-------------|-------------|--------------------|-5-----------|
G|--------|--------|-------------|-------------|------------2---2---|-3-----------|
D|--------|--------|-------------|-------------|------------0---0---|-------------|


D|--------|--------|--------|--------|--------|--------|--------|--------|--------|
A|--------|--------|--------|--------|--------|--------|--------|--------|--------|
F|--------|--------|--------|--------|--------|--------|--------|--------|--------|
C|--------|--------|--------|--------|--------|--------|--------|--------|--------|
G|--------|--------|--------|--------|--------|--------|--------|--------|--------|
D|--------|--------|--------|--------|--------|--------|--------|--------|--------|


D|--------|--------|--------|--------|--------|--------|--------|--------|--------|
A|--------|--------|--------|--------|--------|--------|--------|--------|--------|
F|--------|--------|--------|--------|--------|--------|--------|--------|--------|
C|--------|--------|--------|--------|--------|--------|--------|--------|--------|
G|--------|--------|--------|--------|--------|--------|--------|--------|--------|
D|--------|--------|--------|--------|--------|--------|--------|--------|--------|


D|--------|--------|--------|--------|--------|--------|--------|--------|--------|
A|--------|--------|--------|--------|--------|--------|--------|--------|--------|
F|--------|--------|--------|--------|--------|--------|--------|--------|--------|
C|--------|--------|--------|--------|--------|--------|--------|--------|--------|
G|--------|--------|--------|--------|--------|--------|--------|--------|--------|
D|--------|--------|--------|--------|--------|--------|--------|--------|--------|


D|--------|--------|--------|--------|--------|--------|--------|--------|--------|
A|--------|--------|--------|--------|--------|--------|--------|--------|--------|
F|--------|--------|--------|--------|--------|--------|--------|--------|--------|
C|--------|--------|--------|--------|--------|--------|--------|--------|--------|
G|--------|--------|--------|--------|--------|--------|--------|--------|--------|
D|--------|--------|--------|--------|--------|--------|--------|--------|--------|


D|--------|--------|--------|--------|--------|--------|--------|--------|--------|
A|--------|--------|--------|--------|--------|--------|--------|--------|--------|
F|--------|--------|--------|--------|--------|--------|--------|--------|--------|
C|--------|--------|--------|--------|--------|--------|--------|--------|--------|
G|--------|--------|--------|--------|--------|--------|--------|--------|--------|
D|--------|--------|--------|--------|--------|--------|--------|--------|--------|


D|--------|--------|--------|--------|--------|--------|--------|--------|--------|
A|--------|--------|--------|--------|--------|--------|--------|--------|--------|
F|--------|--------|--------|--------|--------|--------|--------|--------|--------|
C|--------|--------|--------|--------|--------|--------|--------|--------|--------|
G|--------|--------|--------|--------|--------|--------|--------|--------|--------|
D|--------|--------|--------|--------|--------|--------|--------|--------|--------|


D|--------|--------|--------|--------|--------|--------|--------|--------|--------|
A|--------|--------|--------|--------|--------|--------|--------|--------|--------|
F|--------|--------|--------|--------|--------|--------|--------|--------|--------|
C|--------|--------|--------|--------|--------|--------|--------|--------|--------|
G|--------|--------|--------|--------|--------|--------|--------|--------|--------|
D|--------|--------|--------|--------|--------|--------|--------|--------|--------|


D|--------|--------|
A|--------|--------|
F|--------|--------|
C|--------|--------|
G|--------|--------|
D|--------|--------|





Track 4: pick scrapes

D|--------|--------|--------|--------|--------|--------|--------|--------|--------|
A|--------|--------|--------|--------|--------|--------|--------|--------|--------|
F|--------|--------|--------|--------|--------|--------|--------|--------|--------|
C|--------|--------|--------|--------|--------|--------|--------|--------|--------|
G|--------|--------|--------|--------|--------|--------|--------|--------|--------|
D|--------|--------|--------|--------|--------|--------|--------|--------|--------|


D|--------|--------|--------|--------|--------|--------|--------|--------|--------|
A|--------|--------|--------|--------|--------|--------|--------|--------|--------|
F|--------|--------|--------|--------|--------|--------|--------|--------|--------|
C|--------|--------|--------|--------|--------|--------|--------|--------|--------|
G|--------|--------|--------|--------|--------|--------|--------|--------|--------|
D|--------|--------|--------|--------|--------|--------|--------|--------|--------|


D|--------|--------|--------|--------|--------|--------|--------|--------|--------|
A|--------|--------|--------|--------|--------|--------|--------|--------|--------|
F|--------|--------|--------|--------|--------|--------|--------|--------|--------|
C|--------|--------|--------|--------|--------|--------|--------|--------|--------|
G|--------|--------|--------|--------|--------|--------|--------|--------|--------|
D|--------|--------|--------|--------|--------|--------|--------|--------|--------|


D|--------|--------|--------|--------|--------|--------|--------|--------|--------|
A|--------|--------|--------|--------|--------|--------|--------|--------|--------|
F|--------|--------|--------|--------|--------|--------|--------|--------|--------|
C|--------|--------|--------|--------|--------|--------|--------|--------|--------|
G|--------|--------|--------|--------|--------|--------|--------|--------|--------|
D|--------|--------|--------|--------|--------|--------|--------|--------|--------|


D|--------|--------|--------|--------|--------|--------|--------|--------|--------|
A|--------|--------|--------|--------|--------|--------|--------|--------|--------|
F|--------|--------|--------|--------|--------|--------|--------|--------|--------|
C|--------|--------|--------|--------|--------|--------|--------|--------|--------|
G|--------|--------|--------|--------|--------|--------|--------|--------|--------|
D|--------|--------|--------|--------|--------|--------|--------|--------|--------|


D|--------|--------|--------|--------|--------|--------|--------|--------|--------|
A|--------|--------|--------|--------|--------|--------|--------|--------|--------|
F|--------|--------|--------|--------|--------|--------|--------|--------|--------|
C|--------|--------|--------|--------|--------|--------|--------|--------|--------|
G|--------|--------|--------|--------|--------|--------|--------|--------|--------|
D|--------|--------|--------|--------|--------|--------|--------|--------|--------|


D|--------|--------|--------|--------|--------|--------|--------|--------|--------|
A|--------|--------|--------|--------|--------|--------|--------|--------|--------|
F|--------|--------|--------|--------|--------|--------|--------|--------|--------|
C|--------|--------|--------|--------|--------|--------|--------|--------|--------|
G|--------|--------|--------|--------|--------|--------|--------|--------|--------|
D|--------|--------|--------|--------|--------|--------|--------|--------|--------|


D|--------|--------|--------|--------|--------|--------|--------|--------|--------|
A|--------|--------|--------|--------|--------|--------|--------|--------|--------|
F|--------|--------|--------|--------|--------|--------|--------|--------|--------|
C|--------|--------|--------|--------|--------|--------|--------|--------|--------|
G|--------|--------|--------|--------|--------|--------|--------|--------|--------|
D|--------|--------|--------|--------|--------|--------|--------|--------|--------|


D|--------|--------|--------|--------|--------|--------|--------|--------|--------|
A|--------|--------|--------|--------|--------|--------|--------|--------|--------|
F|--------|--------|--------|--------|--------|--------|--------|--------|--------|
C|--------|--------|--------|--------|--------|--------|--------|--------|--------|
G|--------|--------|--------|--------|--------|--------|--------|--------|--------|
D|--------|--------|--------|--------|--------|--------|--------|--------|--------|


D|--------|--------|--------|--------|--------|--------|--------|--------|--------|
A|--------|--------|--------|--------|--------|--------|--------|--------|--------|
F|--------|--------|--------|--------|--------|--------|--------|--------|--------|
C|--------|--------|--------|--------|--------|--------|--------|--------|--------|
G|--------|--------|--------|--------|--------|--------|--------|--------|--------|
D|--------|--------|--------|--------|--------|--------|--------|--------|--------|


D|--------|--------|--------|--------|--------|--------|--------|--------|--------|
A|--------|--------|--------|--------|--------|--------|--------|--------|--------|
F|--------|--------|--------|--------|--------|--------|--------|--------|--------|
C|--------|--------|--------|--------|--------|--------|--------|--------|--------|
G|--------|--------|--------|--------|--------|--------|--------|--------|--------|
D|--------|--------|--------|--------|--------|--------|--------|--------|--------|


D|--------|--------|--------|--------|--------|--------|--------|--------|--------|
A|--------|--------|--------|--------|--------|--------|--------|--------|--------|
F|--------|--------|--------|--------|--------|--------|--------|--------|--------|
C|--------|--------|--------|--------|--------|--------|--------|--------|--------|
G|--------|--------|--------|--------|--------|--------|--------|--------|--------|
D|--------|--------|--------|--------|--------|--------|--------|--------|--------|


D|--------|--------|--------|--------|--------|--------|--------|--------|--------|
A|--------|--------|--------|--------|--------|--------|--------|--------|--------|
F|--------|--------|--------|--------|--------|--------|--------|--------|--------|
C|--------|--------|--------|--------|--------|--------|--------|--------|--------|
G|--------|--------|--------|--------|--------|--------|--------|--------|--------|
D|--------|--------|--------|--------|--------|--------|--------|--------|--------|


D|--------|--------|--------|--------|--------|-----------------------|---------------------------------|
A|--------|--------|--------|--------|--------|-----------------------|---------------------------------|
F|--------|--------|--------|--------|--------|-------29--28--27--26--|-25--24--22--20--18--16--14--12--|
C|--------|--------|--------|--------|--------|-------29--28--27--26--|-25--24--22--20--18--16--14--12--|
G|--------|--------|--------|--------|--------|-------29--28--27--26--|-25--24--22--20--18--16--14--12--|
D|--------|--------|--------|--------|--------|-----------------------|---------------------------------|


D|----------------|--------|--------|--------|--------|--------|--------|--------|
A|----------------|--------|--------|--------|--------|--------|--------|--------|
F|-10--8----------|--------|--------|--------|--------|--------|--------|--------|
C|-10--8----------|--------|--------|--------|--------|--------|--------|--------|
G|-10--8----------|--------|--------|--------|--------|--------|--------|--------|
D|----------------|--------|--------|--------|--------|--------|--------|--------|


D|--------|--------|--------|--------|--------|--------|--------|--------|--------|
A|--------|--------|--------|--------|--------|--------|--------|--------|--------|
F|--------|--------|--------|--------|--------|--------|--------|--------|--------|
C|--------|--------|--------|--------|--------|--------|--------|--------|--------|
G|--------|--------|--------|--------|--------|--------|--------|--------|--------|
D|--------|--------|--------|--------|--------|--------|--------|--------|--------|


D|--------|--------|--------|--------|--------|--------|--------|--------|--------|
A|--------|--------|--------|--------|--------|--------|--------|--------|--------|
F|--------|--------|--------|--------|--------|--------|--------|--------|--------|
C|--------|--------|--------|--------|--------|--------|--------|--------|--------|
G|--------|--------|--------|--------|--------|--------|--------|--------|--------|
D|--------|--------|--------|--------|--------|--------|--------|--------|--------|


D|--------|--------|--------|--------|--------|--------|--------|--------|--------|
A|--------|--------|--------|--------|--------|--------|--------|--------|--------|
F|--------|--------|--------|--------|--------|--------|--------|--------|--------|
C|--------|--------|--------|--------|--------|--------|--------|--------|--------|
G|--------|--------|--------|--------|--------|--------|--------|--------|--------|
D|--------|--------|--------|--------|--------|--------|--------|--------|--------|


D|--------|--------|--------|--------|--------|--------|--------|--------|--------|
A|--------|--------|--------|--------|--------|--------|--------|--------|--------|
F|--------|--------|--------|--------|--------|--------|--------|--------|--------|
C|--------|--------|--------|--------|--------|--------|--------|--------|--------|
G|--------|--------|--------|--------|--------|--------|--------|--------|--------|
D|--------|--------|--------|--------|--------|--------|--------|--------|--------|


D|--------|--------|--------|--------|--------|--------|--------|--------|--------|
A|--------|--------|--------|--------|--------|--------|--------|--------|--------|
F|--------|--------|--------|--------|--------|--------|--------|--------|--------|
C|--------|--------|--------|--------|--------|--------|--------|--------|--------|
G|--------|--------|--------|--------|--------|--------|--------|--------|--------|
D|--------|--------|--------|--------|--------|--------|--------|--------|--------|


D|--------|--------|--------|--------|--------|--------|--------|--------|--------|
A|--------|--------|--------|--------|--------|--------|--------|--------|--------|
F|--------|--------|--------|--------|--------|--------|--------|--------|--------|
C|--------|--------|--------|--------|--------|--------|--------|--------|--------|
G|--------|--------|--------|--------|--------|--------|--------|--------|--------|
D|--------|--------|--------|--------|--------|--------|--------|--------|--------|


D|--------|--------|
A|--------|--------|
F|--------|--------|
C|--------|--------|
G|--------|--------|
D|--------|--------|





Track 5: Bass 1

A#|---------------------------------------------|---------------------------------------------|
 F|---------------------------------------------|---------------------------------------------|
 C|---------------------------------------------|---------------------------------------------|
 G|-7--7--7--7--7--7--7---7--7--7--7--7--7--7---|-7--7--7--7---7--7--7--7--7--7--7---7--7--5--|
 D|---------------------------------------------|---------------------------------------------|


A#|---------------------------------------------|-------------------------------------------|
 F|---------------------------------------------|-------------------------------------------|
 C|---------------------------------------------|-------------------------------------------|
 G|-5--5--5--5---3--3--3--3---7--7--7--7--7--7--|-7---7--7--7--7--7--7--7---7--7--7--7---7--|
 D|---------------------------------------------|-------------------------------------------|


A#|---------------------------------------------|-----------------------------------------------|
 F|---------------------------------------------|-----------------------------------------------|
 C|---------------------------------------------|-----------------------------------------------|
 G|-7--7--7--7--7--7---7--7--5--5--5--5--5---3--|-3--3--3---------------------------------------|
 D|---------------------------------------------|-----------0--0--0--0--0--0--1--0--0--0--0--0--|


A#|-------------------------------------------|-----------------------------------------------|
 F|-------------------------------------------|-----------------------------------------------|
 C|-------------------------------------------|-----------------------------------------------|
 G|----------------3---2---2--3---------------|----------------------------------------7---5--|
 D|-1--0--0--0--0-----------------0--0--0--0--|-0--0--1--0--0--0--0--0--1--0--0--0--0---------|


A#|-----------------------------------------------|-------------------------------------------|
 F|-----------------------------------------------|-------------------------------------------|
 C|-----------------------------------------------|-------------------------------------------|
 G|----7--7---------------------------------------|----------------3---2---2--3---------------|
 D|-----------0--0--0--0--0--0--1--0--0--0--0--0--|-1--0--0--0--0-----------------0--0--0--0--|


A#|-----------------------------------------------|-----------------------------------------------|
 F|-----------------------------------------------|-----------------------------------------------|
 C|-----------------------------------------------|-----------------------------------------------|
 G|----------------------------------------7---5--|----7--7---------------------------------------|
 D|-0--0--1--0--0--0--0--0--1--0--0--0--0---------|-----------0--0--0--0--0--0--1--0--0--0--0--0--|


A#|-------------------------------------------|-----------------------------------------------|
 F|-------------------------------------------|-----------------------------------------------|
 C|-------------------------------------------|-----------------------------------------------|
 G|----------------3---2---2--3---------------|----------------------------------------7---5--|
 D|-1--0--0--0--0-----------------0--0--0--0--|-0--0--1--0--0--0--0--0--1--0--0--0--0---------|


A#|-----------------------------------------------|-------------------------------------------|
 F|-----------------------------------------------|-------------------------------------------|
 C|-----------------------------------------------|-------------------------------------------|
 G|----7--7---------------------------------------|----------------3---2---2--3---------------|
 D|-----------0--0--0--0--0--0--1--0--0--0--0--0--|-1--0--0--0--0-----------------0--0--0--0--|


A#|-----------------------------------------------|------------------------------------|
 F|-----------------------------------------------|------------------------------------|
 C|-----------------------------------------------|------------------------------------|
 G|----------------------------------------7---5--|----7--7----------------------------|
 D|-0--0--1--0--0--0--0--0--1--0--0--0--0---------|-----------0--0--0--------0--0--0---|


A#|--------------------------------------|-------------------------------|--------------------------------------|
 F|--------------------------------------|-------------------------------|--------------------------------------|
 C|--------------------------------------|-------------------------------|--------------------------------------|
 G|--------------------------------------|-------------------------------|--------------------------------------|
 D|------0--0--0--0--0--0--0--0--0-------|------0--0--0--------0--0--0---|------0--0--0--0--0--0--0--0--0-------|


A#|-------------------------------|--------------------------------------|-------------------------------|
 F|-------------------------------|--------------------------------------|-------------------------------|
 C|-------------------------------|--------------------------------------|-------------------------------|
 G|-------------------------------|--------------------------------------|-------------------------------|
 D|------3--3--3--------3--3--3---|------3--3--3--3--3--3--3--3--3-------|------0--0--0--------0--0--0---|


A#|--------------------------------------|------------------------------|---------------------------------|
 F|--------------------------------------|------------------------------|---------------------------------|
 C|--------------------------------------|----------10------9-------7---|-------------7-------5-----------|
 G|--------------------------------------|------------------------------|-----9-----------------------5---|
 D|------0--0--0--0--0--0--0--0--0-------|------0-------0-------0-------|-0-------0-------0-------0-------|


A#|---------------------------------|------------------------------|------------------------------|
 F|---------------------------------|------------------------------|------------------------------|
 C|---------------------------------|------------------------------|----------10------9-------7---|
 G|-----3---------------------------|----------------------7---5---|-8----------------------------|
 D|-0-------0---0---3---2---0---0---|-6----3---2---0---0-----------|------0-------0-------0-------|


A#|---------------------------------|---------------------------------|------------------------------|
 F|---------------------------------|---------------------------------|------------------------------|
 C|-------------7-------5-----------|---------------------------------|------------------------------|
 G|-----9-----------------------5---|-----3---------------------------|----------------------7---7---|
 D|-0-------0-------0-------0-------|-0-------0---0---3---2---0---0---|-6----3---2---0---0-----------|


A#|-----------------------------------------|------------------------------|--------------------------------------|
 F|-----------------------------------------|------------------------------|-8------------------------------------|
 C|-----------------------------------------|------------------------------|--------------------------------------|
 G|-8---5-----------------------------------|-------------------------6----|--------------------------------------|
 D|---------3---2---0--0--0--0--0--0--0--0--|-3---2---0---0---5---4--------|------3---2---0--0--0--0--0--0--0--0--|


A#|---------------------------------|--------------------------------------|------------------------------|
 F|---------------------------------|--------------------------------------|------------------------------|
 C|---------------------------------|--------------------------------------|------------------------------|
 G|-------------------------7---5---|-8------------------------------------|-------------------------6----|
 D|-3---2---0---0---5---4-----------|------3---2---0--0--0--0--0--0--0--0--|-3---2---0---0---5---4--------|


A#|--------------------------------------|---------------------------------|-----------------------------------------|
 F|-8------------------------------------|---------------------------------|-----------------------------------------|
 C|--------------------------------------|---------------------------------|-----------------------------------------|
 G|--------------------------------------|-------------------------7---7---|-8---5-----------------------------------|
 D|------3---2---0--0--0--0--0--0--0--0--|-3---2---0---0---5---4-----------|---------3---2---0--0--0--0--0--0--0--0--|


A#|------------------------------|--------------------------------------|---------------------------------|
 F|------------------------------|-8------------------------------------|---------------------------------|
 C|------------------------------|--------------------------------------|---------------------------------|
 G|-------------------------6----|--------------------------------------|-------------------------7---5---|
 D|-3---2---0---0---5---4--------|------3---2---0--0--0--0--0--0--0--0--|-3---2---0---0---5---4-----------|


A#|--------------------------------------|------------------------------|--------------------------------------|
 F|--------------------------------------|------------------------------|-8------------------------------------|
 C|--------------------------------------|------------------------------|--------------------------------------|
 G|-8------------------------------------|-------------------------6----|--------------------------------------|
 D|------3---2---0--0--0--0--0--0--0--0--|-3---2---0---0---5---4--------|------3---2---0--0--0--0--0--0--0--0--|


A#|------------------------------|-------------------------------------|-------------------------------------|
 F|------------------------------|-------------------------------------|-------------------------------------|
 C|------------------------------|-------------------------------------|-9---10--------------------9--9--9---|
 G|----------------------7---7---|-8---5---------------------7--7--7---|-------------------------------------|
 D|-3---2---0--------------------|---------0--0--0---0---0-------------|---------0--0--0---0---0-------------|


A#|-----------------------------------------|-----------------------------------|-------------------------------------|
 F|-----------------------------------------|-----------------------------------|-------------------------------------|
 C|-7---------------------------------------|-----------------------------------|-------------------------------------|
 G|-----7---------------9---10--------------|-10--5---7---------------------7---|-5-------------------------7--7--7---|
 D|---------0--0--0--0----------0--0--0--0--|-------------0--0--8---7---8-------|-----7---0--0--0---0---0-------------|


A#|-------------------------------------|-----------------------------------------|
 F|-------------------------------------|-----------------------------------------|
 C|-9---10--------------------9--9--9---|-7---------------------------------------|
 G|-------------------------------------|-----7---------------9---10--------------|
 D|---------0--0--0---0---0-------------|---------0--0--0--0----------0--0--0--0--|


A#|-----------------------------------|-------------------------------------|-------------------------------------|
 F|-----------------------------------|-------------------------------------|-------------------------------------|
 C|-----------------------------------|-------------------------------------|-9---10--------------------9--9--9---|
 G|-10--5---7-------------------------|---------------------------7--7--7---|-------------------------------------|
 D|-------------0--0--7---8---7---5---|-3---5---0--0--0---0---0-------------|---------0--0--0---0---0-------------|


A#|-----------------------------------------|-----------------------------------|-------------------------------------|
 F|-----------------------------------------|-----------------------------------|-------------------------------------|
 C|-7---------------------------------------|-----------------------------------|-------------------------------------|
 G|-----7---------------9---10--------------|-10--5---7---------------------7---|-5-------------------------7--7--7---|
 D|---------0--0--0--0----------0--0--0--0--|-------------0--0--8---7---8-------|-----7---0--0--0---0---0-------------|


A#|-------------------------------------|-----------------------------------------|
 F|-------------------------------------|-----------------------------------------|
 C|-9---10--------------------9--9--9---|-7---------------------------------------|
 G|-------------------------------------|-----7---------------9---10--------------|
 D|---------0--0--0---0---0-------------|---------0--0--0--0----------0--0--0--0--|


A#|-----------------------------------|-------------------------------------|---------------------------------------|
 F|-----------------------------------|-------------------------------------|---------------------------------------|
 C|-----------------------------------|-------------------------------------|---------------------------------------|
 G|-10--5---7-------------------------|---------3--3---3--3-----------3--3--|----3--3-----------2---2---2--2--2--2--|
 D|-------------0--0--7---8---7---5---|-3---5-----------------3---2---------|-----------3---2-----------------------|


A#|---------------------------------------|---------------------------------------|
 F|---------------------------------------|---------------------------------------|
 C|---------------------------------------|---------------------------------------|
 G|-2--2---2--3--3---3--3-----------3--3--|----3--3-----------2---2---2--2--2--2--|
 D|-------------------------3---2---------|-----------3---2-----------------------|


A#|---------------------------------------|---------------------------------------|
 F|---------------------------------------|---------------------------------------|
 C|---------------------------------------|---------------------------------------|
 G|-2--2---2--3--3---3--3-----------3--3--|----3--3-----------2---2---2--2--2--2--|
 D|-------------------------3---2---------|-----------3---2-----------------------|


A#|---------------------------------------|-------------------------------------|------------------------------|
 F|---------------------------------------|-------------------------------------|------------------------------|
 C|---------------------------------------|-------------------------------------|----------10------9-------7---|
 G|-2--2---2--3--3---3--3-----------3--3--|----3--3-----------2--2---2--2-------|------------------------------|
 D|-------------------------3---2---------|-----------3---2---------------------|------0-------0-------0-------|


A#|---------------------------------|---------------------------------|------------------------------|
 F|---------------------------------|---------------------------------|------------------------------|
 C|-------------7-------5-----------|---------------------------------|------------------------------|
 G|-----9-----------------------5---|-----3---------------------------|----------------------7---5---|
 D|-0-------0-------0-------0-------|-0-------0---0---3---2---0---0---|-6----3---2---0---0-----------|


A#|------------------------------|---------------------------------|---------------------------------|
 F|------------------------------|---------------------------------|---------------------------------|
 C|----------10------9-------7---|-------------7-------5-----------|---------------------------------|
 G|-8----------------------------|-----9-----------------------5---|-----3---------------------------|
 D|------0-------0-------0-------|-0-------0-------0-------0-------|-0-------0---0---3---2---0---0---|


A#|------------------------------|-----------------------------------------|------------------------------|
 F|------------------------------|-----------------------------------------|------------------------------|
 C|------------------------------|-----------------------------------------|------------------------------|
 G|----------------------7---7---|-8---5-----------------------------------|-------------------------6----|
 D|-6----3---2---0---0-----------|---------3---2---0--0--0--0--0--0--0--0--|-3---2---0---0---5---4--------|


A#|--------------------------------------|---------------------------------|--------------------------------------|
 F|-8------------------------------------|---------------------------------|--------------------------------------|
 C|--------------------------------------|---------------------------------|--------------------------------------|
 G|--------------------------------------|-------------------------7---5---|-8------------------------------------|
 D|------3---2---0--0--0--0--0--0--0--0--|-3---2---0---0---5---4-----------|------3---2---0--0--0--0--0--0--0--0--|


A#|------------------------------|--------------------------------------|---------------------------------|
 F|------------------------------|-8------------------------------------|---------------------------------|
 C|------------------------------|--------------------------------------|---------------------------------|
 G|-------------------------6----|--------------------------------------|-------------------------7---7---|
 D|-3---2---0---0---5---4--------|------3---2---0--0--0--0--0--0--0--0--|-3---2---0---0---5---4-----------|


A#|-----------------------------------------|------------------------------|--------------------------------------|
 F|-----------------------------------------|------------------------------|-8------------------------------------|
 C|-----------------------------------------|------------------------------|--------------------------------------|
 G|-8---5-----------------------------------|-------------------------6----|--------------------------------------|
 D|---------3---2---0--0--0--0--0--0--0--0--|-3---2---0---0---5---4--------|------3---2---0--0--0--0--0--0--0--0--|


A#|---------------------------------|--------------------------------------|------------------------------|
 F|---------------------------------|--------------------------------------|------------------------------|
 C|---------------------------------|--------------------------------------|------------------------------|
 G|-------------------------7---5---|-8------------------------------------|-------------------------6----|
 D|-3---2---0---0---5---4-----------|------3---2---0--0--0--0--0--0--0--0--|-3---2---0---0---5---4--------|


A#|--------------------------------------|------------------------------|-------------------------------------|
 F|-8------------------------------------|------------------------------|-------------------------------------|
 C|--------------------------------------|------------------------------|-------------------------------------|
 G|--------------------------------------|----------------------7---7---|-8---5---------------------7--7--7---|
 D|------3---2---0--0--0--0--0--0--0--0--|-3---2---0--------------------|---------0--0--0---0---0-------------|


A#|-------------------------------------|-----------------------------------------|
 F|-------------------------------------|-----------------------------------------|
 C|-9---10--------------------9--9--9---|-7---------------------------------------|
 G|-------------------------------------|-----7---------------9---10--------------|
 D|---------0--0--0---0---0-------------|---------0--0--0--0----------0--0--0--0--|


A#|-----------------------------------|-------------------------------------|-------------------------------------|
 F|-----------------------------------|-------------------------------------|-------------------------------------|
 C|-----------------------------------|-------------------------------------|-9---10--------------------9--9--9---|
 G|-10--5---7---------------------7---|-5-------------------------7--7--7---|-------------------------------------|
 D|-------------0--0--8---7---8-------|-----7---0--0--0---0---0-------------|---------0--0--0---0---0-------------|


A#|-----------------------------------------|-----------------------------------|-------------------------------------|
 F|-----------------------------------------|-----------------------------------|-------------------------------------|
 C|-7---------------------------------------|-----------------------------------|-------------------------------------|
 G|-----7---------------9---10--------------|-10--5---7-------------------------|---------------------------7--7--7---|
 D|---------0--0--0--0----------0--0--0--0--|-------------0--0--7---8---7---5---|-3---5---0--0--0---0---0-------------|


A#|-------------------------------------|-----------------------------------------|
 F|-------------------------------------|-----------------------------------------|
 C|-9---10--------------------9--9--9---|-7---------------------------------------|
 G|-------------------------------------|-----7---------------9---10--------------|
 D|---------0--0--0---0---0-------------|---------0--0--0--0----------0--0--0--0--|


A#|-----------------------------------|-------------------------------------|-------------------------------------|
 F|-----------------------------------|-------------------------------------|-------------------------------------|
 C|-----------------------------------|-------------------------------------|-9---10--------------------9--9--9---|
 G|-10--5---7---------------------7---|-5-------------------------7--7--7---|-------------------------------------|
 D|-------------0--0--8---7---8-------|-----7---0--0--0---0---0-------------|---------0--0--0---0---0-------------|


A#|-----------------------------------------|-----------------------------------|-----------------------------------|
 F|-----------------------------------------|-----------------------------------|-----------------------------------|
 C|-7---------------------------------------|-----------------------------------|-----------------------------------|
 G|-----7---------------9---10--------------|-10--5---7-------------------------|-----------------------------------|
 D|---------0--0--0--0----------0--0--0--0--|-------------0--0--7---8---7---5---|-3---5---0---0---0--0--0---0---0---|


A#|--------------------------------|-----------------------------------------|-------------------------------------|
 F|--------------------------------|---------7--9--7--6--7--6--8-------------|-------------------------------------|
 C|--------------------------------|-----------------------------------------|-------------------------------------|
 G|-3---2---4----------------------|-----------------------------------------|-------------------------------------|
 D|--------------0---0---0--0--0---|-0---0-------------------------1--1--1---|-1--1------0---0---0--0--0---0---0---|


A#|--------------------------------|-----------------------------------------|------------------|
 F|--------------------------------|---------7--9--7--6--7--6--8-------------|------------------|
 C|--------------------------------|-----------------------------------------|------------------|
 G|-3---2---4----------------------|-----------------------------------------|------------------|
 D|--------------0---0---0--0--0---|-0---0-------------------------1--1--1---|-1--1-------------|


A#|-------------|--------------------|------------------------|-------------|------------------------------------|
 F|-------------|--------------------|------------------------|-------------|------7--9--7--6--7--6--8-----------|
 C|-------------|--------------------|------------------------|-------------|------------------------------------|
 G|-------------|--------------------|-3----2---2-------------|-------------|------------------------------------|
 D|-------------|------------0---0---|------------------------|-------------|----------------------------0---0---|


A#|------------------------------|---------------------------|---------------------------------------|
 F|------------------------------|---------------------------|---------7--9--7--6--7--6--8-----------|
 C|------------------------------|---------------------------|---------------------------------------|
 G|-3----2---2-------------------|-5---3---5----3----2---2---|---------------------------------------|
 D|--------------0---0---0---0---|---------------------------|-0---0-------------------------0---0---|


A#|------------------------------|---------------------------|---------------------------------------|
 F|------------------------------|---------------------------|---------7--9--7--6--7--6--8-----------|
 C|------------------------------|---------------------------|---------------------------------------|
 G|-3----2---2-------------------|-5---3---5----3----2---2---|---------------------------------------|
 D|--------------0---0---0---0---|---------------------------|-0---0-------------------------0---0---|


A#|------------------------------|---------------------------|---------------------------------------|
 F|------------------------------|---------------------------|---------7--9--7--6--7--6--8-----------|
 C|------------------------------|---------------------------|---------------------------------------|
 G|-3----2---2-------------------|-5---3---5----3----2---2---|---------------------------------------|
 D|--------------0---0---0---0---|---------------------------|-0---0-------------------------0---0---|


A#|------------------------------|---------------------------|---------------------------------------|
 F|------------------------------|---------------------------|---------7--9--7--6--7--6--8-----------|
 C|------------------------------|---------------------------|---------------------------------------|
 G|-3----2---2-------------------|-5---3---5----3----2---2---|---------------------------------------|
 D|--------------0---0---0---0---|---------------------------|-0---0-------------------------0---0---|


A#|----------------------------------|-------------------------------------|-----------------------------------------|
 F|----------------------------------|-------------------------------------|-----------------------------------------|
 C|----------------------------------|-9---10--------------------9--9--9---|-7---------------------------------------|
 G|-3----------------------7--7--7---|-------------------------------------|-----7---------------9---10--------------|
 D|------0--0--0---0---0-------------|---------0--0--0---0---0-------------|---------0--0--0--0----------0--0--0--0--|


A#|-----------------------------------|-------------------------------------|-------------------------------------|
 F|-----------------------------------|-------------------------------------|-------------------------------------|
 C|-----------------------------------|-------------------------------------|-9---10--------------------9--9--9---|
 G|-10--5---7---------------------7---|-5-------------------------7--7--7---|-------------------------------------|
 D|-------------0--0--8---7---8-------|-----7---0--0--0---0---0-------------|---------0--0--0---0---0-------------|


A#|-----------------------------------------|-----------------------------------|-------------------------------------|
 F|-----------------------------------------|-----------------------------------|-------------------------------------|
 C|-7---------------------------------------|-----------------------------------|-------------------------------------|
 G|-----7---------------9---10--------------|-10--5---7-------------------------|---------------------------7--7--7---|
 D|---------0--0--0--0----------0--0--0--0--|-------------0--0--7---8---7---5---|-3---5---0--0--0---0---0-------------|


A#|-------------------------------------|-----------------------------------------|
 F|-------------------------------------|-----------------------------------------|
 C|-9---10--------------------9--9--9---|-7---------------------------------------|
 G|-------------------------------------|-----7---------------9---10--------------|
 D|---------0--0--0---0---0-------------|---------0--0--0--0----------0--0--0--0--|


A#|-----------------------------------|-------------------------------------|-------------------------------------|
 F|-----------------------------------|-------------------------------------|-------------------------------------|
 C|-----------------------------------|-------------------------------------|-9---10--------------------9--9--9---|
 G|-10--5---7---------------------7---|-5-------------------------7--7--7---|-------------------------------------|
 D|-------------0--0--8---7---8-------|-----7---0--0--0---0---0-------------|---------0--0--0---0---0-------------|


A#|-----------------------------------------|-----------------------------------|------------------------------|
 F|-----------------------------------------|-----------------------------------|------------------------------|
 C|-7---------------------------------------|-----------------------------------|------------------------------|
 G|-----7---------------9---10--------------|-10--5---7-------------------------|------------------------------|
 D|---------0--0--0--0----------0--0--0--0--|-------------0--0--7---8---7---5---|-3---5---0---0---0----0-------|


A#|------------------------------------|------------------------------------|------------------------------|
 F|------------------------------------|------------------------------------|------------------------------|
 C|------------------------------------|------------------------------------|------------------------------|
 G|------------------------------------|------------------------------------|------------------------------|
 D|-0--0--0--0--0---0---0--------0--0--|-0--0--0---0---0--------0--0--0--0--|-0-------0---0---0----0-------|


A#|------------------------------------|------------------------------------|---------------------------------------|
 F|------------------------------------|------------------------------------|---------------------------------------|
 C|------------------------------------|------------------------------------|---------------------------------------|
 G|------------------------------------|------------------------------------|---------------------------------------|
 D|-0--0--0--0--0---0---0--------0--0--|-0--0--0---0---0--------0--0--0--0--|-0-------0--0--0---0--0--0---0--0--0---|


A#|------------------------------------|--------------------------------------|-------------------------------|
 F|------------------------------------|--------------------------------------|-------------------------------|
 C|------------------------------------|--------------------------------------|-------------------------------|
 G|------------------------------------|--------------------------------------|-------------------------------|
 D|-0--0--0---0--0--0--------0--0--0---|------0--0--0--0--0--0--0--0--0-------|------0--0--0--------0--0--0---|


A#|--------------------------------------|-------------------------------|--------------------------------------|
 F|--------------------------------------|-------------------------------|--------------------------------------|
 C|--------------------------------------|-------------------------------|--------------------------------------|
 G|--------------------------------------|-------------------------------|--------------------------------------|
 D|------0--0--0--0--0--0--0--0--0-------|------3--3--3--------3--3--3---|------3--3--3--3--3--3--3--3--3-------|


A#|-------------------------------|--------------------------------------|----------------------------------------|
 F|-------------------------------|--------------------------------------|----------------------------------------|
 C|-------------------------------|--------------------------------------|----------------------------------------|
 G|-------------------------------|--------------------------------------|------7--7--7--7--7--7--7---7--7--7--7--|
 D|------0--0--0--------0--0--0---|------0--0--0--0--0--0--0--0--0-------|----------------------------------------|


A#|---------------------------------------------|---------------------------------------------|
 F|---------------------------------------------|---------------------------------------------|
 C|---------------------------------------------|---------------------------------------------|
 G|-7--7--7---7--7--7--7---7--7--7--7--7--7--7--|----7--7--5--5--5--5--5---3--3--3--3---7--7--|
 D|---------------------------------------------|---------------------------------------------|


A#|---------------------------------------------|---------------------------------------------|
 F|---------------------------------------------|---------------------------------------------|
 C|---------------------------------------------|---------------------------------------------|
 G|-7--7--7--7--7---7--7--7--7--7--7--7---7--7--|-7--7---7--7--7--7--7--7--7---7--7--5--5--5--|
 D|---------------------------------------------|---------------------------------------------|


A#|-----------------------------------------|---------------------------------------|
 F|-----------------------------------------|---------------------------------------|
 C|-----------------------------------------|---------------------------------------|
 G|-5--5---3--3--3--3-----------------------|-------------------7---5-------5-------|
 D|---------------------0--0--0---0---0--0--|-0--0--0--0--0--0----------0-------0---|


A#|-----------------------------------------|-----------------------------------|-------------------------------------------|
 F|-----------------------------------------|-----------------------------------|-------------------------------------------|
 C|-----------------------------------------|-----------------------------------|-------------------------------------------|
 G|-5---7-----------------------------------|-------7---5-------5-------5-------|---------------------------------------7---|
 D|---------0--0--0---0---0--0--0--0--0--0--|-0--0----------0-------0-------0---|-0--0--0---0---0--0--0--0--0--0--0--0------|


A#|-----------------------------------|-----------------------------------------|-------------------------------------|
 F|-----------------------------------|-----------------------------------------|-------------------------------------|
 C|-----------------------------------|-----------------------------------------|-------------------------------------|
 G|-5-------5-------5---7-------------|-----------------------------7---5-------|-5-------5---------------------------|
 D|-----0-------0-----------0--0--0---|-0---0--0--0--0--0--0--0--0----------0---|-----0-------0---0--0--0---0---0--0--|


A#|---------------------------------------|-----------------------------------------|
 F|---------------------------------------|-----------------------------------------|
 C|---------------------------------------|-----------------------------------------|
 G|-------------------7---5-------5-------|-5---7-----------------------------------|
 D|-0--0--0--0--0--0----------0-------0---|---------0--0--0---0---0--0--0--0--0--0--|


A#|-----------------------------------|-------------------------------------------|
 F|-----------------------------------|-------------------------------------------|
 C|-----------------------------------|-------------------------------------------|
 G|-------7---5-------5-------5-------|---------------------------------------7---|
 D|-0--0----------0-------0-------0---|-0--0--0---0---0--0--0--0--0--0--0--0------|


A#|-----------------------------------|-----------------------------------------|-----------------------|
 F|-----------------------------------|-----------------------------------------|-----------------------|
 C|-----------------------------------|-----------------------------------------|-----------------------|
 G|-5-------5-------5---7-------------|-----------------------------7---5-------|-5-------5-------------|
 D|-----0-------0-----------0--0--0---|-0---0--0--0--0--0--0--0--0----------0---|-----0-------0---------|