Site menu:

    

Browse: 0-9 A B C D E F G H I J K L N O P Q R S T U V W X Y Z

infliction of need - gun happy:



Title: Gun Happy
Artist: 
Album: 
Author: Ben Robinson and Josh Sullivan


Track 1: Guitar 1

D|------------------------|------------------------|----------------|-------------|
A|------------------------|------------------------|----------------|-------------|
F|------------------------|------------------------|----------------|-------------|
C|------------------------|------------------------|----------------|-------------|
G|------8---------8---7---|-5--------8---------12--|-10--8----------|-------------|
C|-0---------0------------|-----0---------0--------|---------8------|------7------|


D|---------------------|---------------------------|-----------------------|-------------|
A|---------------------|---------------------------|-----------------------|-------------|
F|---------------------|---------------------------|-----------------------|-------------|
C|---------------------|---------------------------|-----------------------|-------------|
G|-----------8---------|-8---7---5--------8--------|-----12--10--8---------|-------------|
C|------0---------0----|-------------0---------0---|-----------------8-----|-------7-----|


D|-----------------|---------------------------|---------------------------|------------------------------|
A|-----------------|---------------------------|---------------------------|------------------------------|
F|-----------------|---------------------------|---------------------------|------------------------------|
C|-----------------|---------------------------|---------------------------|------------------------------|
G|------------8----|------8---7---5--------8---|----------12--10--8--------|-12--10--8--------12--10--8---|
C|-------0---------|-0----------------0--------|-----0----------------8----|-------------8----------------|


D|---------------------------|------------------------|---------------------------|
A|---------------------------|------------------------|---------------------------|
F|---------------------------|------------------------|---------------------------|
C|---------------------------|------------------------|---------------------------|
G|------8---7---5--------8---|-7---5--------8---------|-8---7---5--------8--------|
C|-5----------------5--------|---------0---------0----|-------------0---------0---|


D|------------------------------|---------------------------|------------------------------|
A|------------------------------|---------------------------|------------------------------|
F|------------------------------|---------------------------|------------------------------|
C|------------------------------|---------------------------|------------------------------|
G|-----12--10--8--------12--10--|-8--------12--10--8--------|-8---7---5--------8---7---5---|
C|-----------------8------------|-----8----------------5----|-------------5----------------|


D|---------------------------------------|-------------------------------------|-----------------------------------|
A|---------------------------------------|-------------------------------------|-----------------------------------|
F|---------------------------------------|-------------------------------------|-----------------------------------|
C|---------------------------------------|-------------------------------------|-----------------------------------|
G|-0--0--0---0--0--0---3---2---0---0--0--|-0---0--0--0---7---5---3---0--0--0---|-0--0--0-------2---3-------2---0---|
C|-0--0--0---0--0--0---------------0--0--|-0---0--0--0---------------0--0--0---|-0--0--0---0-----------0-----------|


D|--------------------------------|---------------------------------------|-------------------------------------|
A|--------------------------------|---------------------------------------|-------------------------------------|
F|--------------------------------|---------------------------------------|-------------------------------------|
C|--------------------------------|---------------------------------------|-------------------------------------|
G|-----4-------4---4----0--0--0---|-0--0--0---3---2---0---0--0--0---0--0--|-0---7---5---3---0--0--0---0--0--0---|
C|-0-------0------------0--0--0---|-0--0--0---------------0--0--0---0--0--|-0---------------0--0--0---0--0--0---|


D|---------------------------------|---------------------------|-------------------------------------|
A|---------------------------------|---------------------------|---------4---4-----------------------|
F|---------------------------------|---------------------------|---------7---7-----------------------|
C|---------------------------------|----------------------0----|-------------------------------------|
G|-----2---3-------2---0-------4---|-----4---4----0---0---0----|-0---0-----------0--0--0---0--0--0---|
C|-0-----------0-----------0-------|-0------------0---0---0----|-0---0-----------0--0--0---0--0--0---|


D|---------------------------|-------------------------------------|---------------------------|
A|---------4-----------------|---------4---4-----------------------|---------4-----------------|
F|---------7-----------------|---------7---7-----------------------|---------7-----------------|
C|----------------------0----|-------------------------------------|----------------------0----|
G|-0---0--------0---0---0----|-0---0-----------0--0--0---0--0--0---|-0---0--------0---0---0----|
C|-0---0--------0---0---0----|-0---0-----------0--0--0---0--0--0---|-0---0--------0---0---0----|


D|-------------------------------------|---------------------------|-------------------------------------|
A|---------4---4-----------------------|---------4-----------------|---------4---4-----------------------|
F|---------7---7-----------------------|---------7-----------------|---------7---7-----------------------|
C|-------------------------------------|----------------------0----|-------------------------------------|
G|-0---0-----------0--0--0---0--0--0---|-0---0--------0---0---0----|-0---0-----------0--0--0---0--0--0---|
C|-0---0-----------0--0--0---0--0--0---|-0---0--------0---0---0----|-0---0-----------0--0--0---0--0--0---|


D|----------------------------------|-------------------------------------|-------------------------------------|
A|---------4------------------------|-------------------------------------|-------------------------------------|
F|---------7------------------------|-------------------------------------|-------------------------------------|
C|----------------------------------|-------------------------------------|-------------------------------------|
G|-0---0--------0--0--0---0--0--0---|-3---2---0---0--0--0---0--0--0---7---|-5---3---0--0--0---0--0--0-------2---|
C|-0---0--------0--0--0---0--0--0---|-------------0--0--0---0--0--0-------|---------0--0--0---0--0--0---0-------|


D|---------------------------------|----------------------------------|-------------------------------------|
A|---------------------------------|----------------------------------|-------------------------------------|
F|---------------------------------|----------------------------------|-------------------------------------|
C|---------------------------------|----------------------------------|-------------------------------------|
G|-3-------2---0-------4-------4---|-4----0--0--0---0--0--0---3---2---|-0---0--0--0---0--0--0---7---5---3---|
C|-----0-----------0-------0-------|------0--0--0---0--0--0-----------|-----0--0--0---0--0--0---------------|


D|-------------------------------------|------------------------------|-----------------------------|
A|-------------------------------------|------------------------------|-----------------------------|
F|-------------------------------------|------------------------------|-----------------------------|
C|-------------------------------------|------------------------------|-----------------------------|
G|-0--0--0---0--0--0-------2---3-------|-2---0-------4-------4---4----|-0---0--------0--0--0--------|
C|-0--0--0---0--0--0---0-----------0---|---------0-------0------------|-0---0--------0--0--0--------|


D|--------------------------------------|-----------------------------|--------------------------------------|
A|--------------------------------------|-----------------------------|--------------------------------------|
F|--------------------------------------|-----------------------------|--------------------------------------|
C|---------------------------------6----|-----------------------------|---------------------------------6----|
G|-0--0--0--0--0--0--0--0--0---0--------|-0---0--------0--0--0--------|-0--0--0--0--0--0--0--0--0---0--------|
C|-0--0--0--0--0--0--0--0--0---0--------|-0---0--------0--0--0--------|-0--0--0--0--0--0--0--0--0---0--------|


D|-----------------------------|--------------------------------------|-----------------------------|
A|-----------------------------|--------------------------------------|-----------------------------|
F|-----------------------------|--------------------------------------|-----------------------------|
C|-----------------------------|---------------------------------6----|-----------------------------|
G|-0---0--------0--0--0--------|-0--0--0--0--0--0--0--0--0---0--------|-0---0--------0--0--0--------|
C|-0---0--------0--0--0--------|-0--0--0--0--0--0--0--0--0---0--------|-0---0--------0--0--0--------|


D|--------------------------------------|-----------------------------|--------------------------------------|
A|--------------------------------------|---------9--------------9----|--------------------------------------|
F|--------------------------------------|---------12-------------12---|--------------------------------------|
C|---------------------------------6----|-----------------------------|---------------------------------6----|
G|-0--0--0--0--0--0--0--0--0---0--------|-0---0--------0--0--0--------|-0--0--0--0--0--0--0--0--0---0--------|
C|-0--0--0--0--0--0--0--0--0---0--------|-0---0--------0--0--0--------|-0--0--0--0--0--0--0--0--0---0--------|


D|-----------------------------|--------------------------------------|-----------------------------|
A|---------9--------------9----|--------------------------------------|---------9--------------9----|
F|---------12-------------12---|--------------------------------------|---------12-------------12---|
C|-----------------------------|---------------------------------6----|-----------------------------|
G|-0---0--------0--0--0--------|-0--0--0--0--0--0--0--0--0---0--------|-0---0--------0--0--0--------|
C|-0---0--------0--0--0--------|-0--0--0--0--0--0--0--0--0---0--------|-0---0--------0--0--0--------|


D|--------------------------------------|-----------------------------|--------------------------------------|
A|--------------------------------------|---------9--------------9----|--------------------------------------|
F|--------------------------------------|---------12-------------12---|--------------------------------------|
C|---------------------------------6----|-----------------------------|---------------------------------6----|
G|-0--0--0--0--0--0--0--0--0---0--------|-0---0--------0--0--0--------|-0--0--0--0--0--0--0--0--0---0--------|
C|-0--0--0--0--0--0--0--0--0---0--------|-0---0--------0--0--0--------|-0--0--0--0--0--0--0--0--0---0--------|


D|--------|--------|--------|--------|--------|--------|--------|--------|--------------------------------|
A|--------|--------|--------|--------|--------|--------|--------|--------|--------------------------------|
F|--------|--------|--------|--------|--------|--------|--------|--------|--------------------------------|
C|-0------|-0------|-0------|-0------|-0------|-0------|--------|--------|-0--------------------------8---|
G|-0------|-0------|-0------|-0------|-0------|-0------|--------|--------|-0----0--0--0---0-------0---6---|
C|-0------|-0------|-0------|-0------|-0------|-0------|--------|--------|-0----0--0--0---0-------0-------|


D|---------------------------|--------------------------------|---------------------------|
A|---------------------------|--------------------------------|---------------------------|
F|---------------------------|--------------------------------|---------------------------|
C|-----8--------5---8---7----|-0--------------------------8---|-----8--------5---8---7----|
G|-0---6----0---3---6---5----|-0----0--0--0---0-------0---6---|-0---6----0---3---6---5----|
C|-0--------0----------------|-0----0--0--0---0-------0-------|-0--------0----------------|


D|--------------------------------|---------------------------|--------------------------------|
A|--------------------------------|---------------------------|--------------------------------|
F|--------------------------------|---------------------------|--------------------------------|
C|-0--------------------------8---|-----8--------5---8---7----|-0--------------------------8---|
G|-0----0--0--0---0-------0---6---|-0---6----0---3---6---5----|-0----0--0--0---0-------0---6---|
C|-0----0--0--0---0-------0-------|-0--------0----------------|-0----0--0--0---0-------0-------|


D|---------------------------|--------------------------------|---------------------------|
A|---------------------------|--------------------------------|---------------------------|
F|---------------------------|--------------------------------|---------------------------|
C|-----8--------5---8---7----|-0--------------------------13--|-----13-------10--13--12---|
G|-0---6----0---3---6---5----|-0----0--0--0---0-------0---11--|-0---11---0---8---11--10---|
C|-0--------0----------------|-0----0--0--0---0-------0-------|-0--------0----------------|


D|--------------------------------|---------------------------|--------------------------------|
A|--------------------------------|---------------------------|--------------------------------|
F|--------------------------------|---------------------------|--------------------------------|
C|-0--------------------------13--|-----13-------10--13--12---|-0--------------------------13--|
G|-0----0--0--0---0-------0---11--|-0---11---0---8---11--10---|-0----0--0--0---0-------0---11--|
C|-0----0--0--0---0-------0-------|-0--------0----------------|-0----0--0--0---0-------0-------|


D|---------------------------|--------------------------------|---------------------------|
A|---------------------------|--------------------------------|---------------------------|
F|---------------------------|--------------------------------|---------------------------|
C|-----13-------10--13--12---|-0--------------------------13--|-----13-------10--13--12---|
G|-0---11---0---8---11--10---|-0----0--0--0---0-------0---11--|-0---11---0---8---11--10---|
C|-0--------0----------------|-0----0--0--0---0-------0-------|-0--------0----------------|


D|---------------------------------------|---------------------------------|-------------------------------------|
A|---------------------------------------|---------------------------------|-------------------------------------|
F|---------------------------------------|---------------------------------|-------------------------------------|
C|---------------------5---7-------------|---------------------------------|-----------------------------5---7---|
G|-0--0--0---0--0--0-----------0--0--0---|-7---8---0---0---5-------0---0---|-8-------0--0--0---0--0--0-----------|
C|-0--0--0---0--0--0-----------0--0--0---|---------0---0-------6---0---0---|-----7---0--0--0---0--0--0-----------|


D|-----------------------------------|-------------------------------------|-----------------------------------|
A|-----------------------------------|-------------------------------------|-----------------------------------|
F|-----------------------------------|-------------------------------------|-----------------------------------|
C|-----------------------------------|-------------------------------------|-5---7-----------------------------|
G|-0--0--0---7---8---0---0---5-------|-0---0---8-------0--0--0---0--0--0---|---------0--0--0---7---8---0---0---|
C|-0--0--0-----------0---0-------6---|-0---0-------7---0--0--0---0--0--0---|---------0--0--0-----------0---0---|


D|-----------------------------------|-------------------------------------|---------------------------------|
A|-----------------------------------|-------------------------------------|---------------------------------|
F|-----------------------------------|-------------------------------------|---------------------------------|
C|-----------------------------------|-----------5---7---------------------|---------------------------------|
G|-5-------0---0---8-------0--0--0---|-0--0--0-----------0--0--0---7---8---|-0---0---5-------0---0---8-------|
C|-----6---0---0-------7---0--0--0---|-0--0--0-----------0--0--0-----------|-0---0-------6---0---0-------7---|


D|------------------------|------------------------|------------------------|---------------------------|
A|------------------------|------------------------|------------------------|---------------------------|
F|------------------------|------------------------|------------------------|---------------------------|
C|------------------------|------------------------|------------------------|---------------------------|
G|------8---------8---7---|-5--------8---------12--|-10--8--------8---------|-8---7---5--------8--------|
C|-0---------0------------|-----0---------0--------|---------0---------0----|-------------0---------0---|


D|-----------------------|-------------|-------------|-------------|------------------------|
A|-----------------------|-------------|-------------|-------------|------------------------|
F|-----------------------|-------------|-------------|-------------|------------------------|
C|-----------------------|-------------|-------------|-------------|------------------------|
G|-----12--10--8---------|-------------|-------------|-------------|-----------0---0--------|
C|-----------------------|-------------|-------------|-------------|-----------0---0--------|


D|----------------------------------------|---------------------------|----------------------------------------|
A|----------------------------------------|---------------------------|----------------------------------------|
F|----------------------------------------|---------------------------|----------------------------------------|
C|----------------------------------------|---------------------------|----------------------------------------|
G|-0--0--0--------0--0--0--0--0--0--0--0--|-0---0--------0---0--------|-0--0--0--------0--0--0--0--0--0--0--0--|
C|-0--0--0--------0--0--0--0--0--0--0--0--|-0---0--------0---0--------|-0--0--0--------0--0--0--0--0--0--0--0--|


D|---------------------------|----------------------------------------|---------------------------|
A|---------------------------|----------------------------------------|---------------------------|
F|---------------------------|----------------------------------------|---------------------------|
C|---------------------------|----------------------------------------|---------------------------|
G|-0---0--------0---0--------|-0--0--0--------0--0--0--0--0--0--0--0--|-0---0--------0---0--------|
C|-0---0--------0---0--------|-0--0--0--------0--0--0--0--0--0--0--0--|-0---0--------0---0--------|


D|----------------------------------------|---------------------------|----------------------------------------|
A|----------------------------------------|---------------------------|----------------------------------------|
F|----------------------------------------|---------------------------|----------------------------------------|
C|----------------------------------------|---------------------------|----------------------------------------|
G|-0--0--0--------0--0--0--0--0--0--0--0--|-0---0--------0---0--------|-0--0--0--------0--0--0--0--0--0--0--0--|
C|-0--0--0--------0--0--0--0--0--0--0--0--|-0---0--------0---0--------|-0--0--0--------0--0--0--0--0--0--0--0--|


D|---------------------------|------------------------------------|------------------------|
A|---------------------------|------------------------------------|-------------------9----|
F|---------------------------|------------------------------------|-------------------12---|
C|---------------------------|------------------------------------|-----6------------------|
G|-0---0--------0---0--------|-0--0--0--------0--0--0--0--0-------|-0---------0---0--------|
C|-0---0--------0---0--------|-0--0--0--------0--0--0--0--0-------|-0---------0---0--------|


D|----------------------------------------|---------------------------|----------------------------------------|
A|-----------9----------------------------|----------------------9----|-----------9----------------------------|
F|-----------12---------------------------|----------------------12---|-----------12---------------------------|
C|----------------------------------------|---------6-----------------|----------------------------------------|
G|-0--0--0--------0--0--0--0--0--0--0--0--|-0---0--------0---0--------|-0--0--0--------0--0--0--0--0--0--0--0--|
C|-0--0--0--------0--0--0--0--0--0--0--0--|-0---0--------0---0--------|-0--0--0--------0--0--0--0--0--0--0--0--|


D|---------------------------|----------------------------------------|---------------------------|
A|----------------------9----|-----------9----------------------------|----------------------9----|
F|----------------------12---|-----------12---------------------------|----------------------12---|
C|---------6-----------------|----------------------------------------|---------6-----------------|
G|-0---0--------0---0--------|-0--0--0--------0--0--0--0--0--0--0--0--|-0---0--------0---0--------|
C|-0---0--------0---0--------|-0--0--0--------0--0--0--0--0--0--0--0--|-0---0--------0---0--------|


D|----------------------------------------|------------------------|---------------------|
A|-----------9----------------------------|------------------------|---------------------|
F|-----------12---------------------------|------------------------|---------------------|
C|----------------------------------------|---------6---------5----|-7-------------------|
G|-0--0--0--------0--0--0--0--0--0--0--0--|-0---0------------------|------8----7-----8---|
C|-0--0--0--------0--0--0--0--0--0--0--0--|-0---0--------0---------|---------------------|


D|---------------------|------------------------|---------------------------|--------------------|
A|---------------------|------------------------|---------------------------|--------------------|
F|---------------------|------------------------|---------------------------|--------------------|
C|---------------------|--------------------5---|-----7---------7-----------|--------------------|
G|-7-----5-------------|-----8------------------|----------7--------7---5---|--------------------|
C|------------6----0---|----------7----0--------|---------------------------|-----7----0-----0---|


D|------------------------|---------------------|---------------------|---------------------|
A|------------------------|---------------------|---------------------|---------------------|
F|------------------------|---------------------|---------------------|---------------------|
C|-----5----7-------------|---------------------|---------------------|------5----7---------|
G|---------------8----7---|------8---7-----5----|-----------8---------|----------------7----|
C|------------------------|---------------------|-6----0---------7----|-0-------------------|


D|------------------------|----------------------------------|-----------------------------------|
A|------------------------|----------------------------------|-----------------------------------|
F|------------------------|----------------------------------|-----------------------------------|
C|-7----------------------|--------------------------5---7---|-----------------------------------|
G|-----7---5--------------|------0--0--0---0--0--0-----------|-0--0--0---7---8---0---0---5-------|
C|--------------7----0----|------0--0--0---0--0--0-----------|-0--0--0-----------0---0-------6---|


D|-------------------------------------|-----------------------------------|-----------------------------------|
A|-------------------------------------|-----------------------------------|-----------------------------------|
F|-------------------------------------|-----------------------------------|-----------------------------------|
C|-------------------------------------|-5---7-----------------------------|-----------------------------------|
G|-0---0---8-------0--0--0---0--0--0---|---------0--0--0---7---8---0---0---|-5-------0---0---8-------0--0--0---|
C|-0---0-------7---0--0--0---0--0--0---|---------0--0--0-----------0---0---|-----6---0---0-------7---0--0--0---|


D|-------------------------------------|---------------------------------|---------------------------------------|
A|-------------------------------------|---------------------------------|---------------------------------------|
F|-------------------------------------|---------------------------------|---------------------------------------|
C|-----------5---7---------------------|---------------------------------|---------------------5---7-------------|
G|-0--0--0-----------0--0--0---7---8---|-0---0---5-------0---0---8-------|-0--0--0---0--0--0-----------0--0--0---|
C|-0--0--0-----------0--0--0-----------|-0---0-------6---0---0-------7---|-0--0--0---0--0--0-----------0--0--0---|


D|---------------------------------|-----------------------|
A|---------------------------------|-----------------------|
F|---------------------------------|-----------------------|
C|---------------------------------|---------0-------------|
G|-7---8---0---0---5-------0---0---|-8-------0-------------|
C|---------0---0-------6---0---0---|-----7---0-------------|





Track 2: Guitar 2

D|--------|--------|--------|--------|--------|--------|--------|--------|--------|
A|--------|--------|--------|--------|--------|--------|--------|--------|--------|
F|--------|--------|--------|--------|--------|--------|--------|--------|--------|
C|--------|--------|--------|--------|--------|--------|--------|--------|--------|
G|--------|--------|--------|--------|--------|--------|--------|--------|--------|
C|--------|--------|--------|--------|--------|--------|--------|--------|--------|


D|--------|--------|--------|--------|--------|--------|--------|--------|--------|
A|--------|--------|--------|--------|--------|--------|--------|--------|--------|
F|--------|--------|--------|--------|--------|--------|--------|--------|--------|
C|--------|--------|--------|--------|--------|--------|--------|--------|--------|
G|--------|--------|--------|--------|--------|--------|--------|--------|--------|
C|--------|--------|--------|--------|--------|--------|--------|--------|--------|


D|---------------------------------------|-------------------------------------|-----------------------------------|
A|---------------------------------------|-------------------------------------|-----------------------------------|
F|---------------------------------------|-------------------------------------|-----------------------------------|
C|---------------------------------------|-------------------------------------|-----------------------------------|
G|-0--0--0---0--0--0---8---7---5---0--0--|-0---0--0--0---12--10--8---0--0--0---|-0--0--0-------7---8-------7---5---|
C|-0--0--0---0--0--0---------------0--0--|-0---0--0--0---------------0--0--0---|-0--0--0---0-----------0-----------|


D|--------------------------------|---------------------------------------|-------------------------------------|
A|--------------------------------|---------------------------------------|-------------------------------------|
F|--------------------------------|---------------------------------------|-------------------------------------|
C|--------------------------------|---------------------------------------|-------------------------------------|
G|-----4-------4---4----0--0--0---|-0--0--0---8---7---5---0--0--0---0--0--|-0---12--10--8---0--0--0---0--0--0---|
C|-0-------0------------0--0--0---|-0--0--0---------------0--0--0---0--0--|-0---------------0--0--0---0--0--0---|


D|---------------------------------|--------------------|--------|--------|--------|
A|---------------------------------|--------------------|--------|--------|--------|
F|---------------------------------|--------------------|--------|--------|--------|
C|---------------------------------|--------------------|--------|--------|--------|
G|-----7---8-------7---5-------4---|-----4---4----------|--------|--------|--------|
C|-0-----------0-----------0-------|-0------------------|--------|--------|--------|


D|--------|--------|--------|--------|---------------------------|-------------------------------------|
A|--------|--------|--------|--------|---------------------------|-------------------------------------|
F|--------|--------|--------|--------|---------------------------|-------------------------------------|
C|--------|--------|--------|--------|---------------------------|-------------------------------------|
G|--------|--------|--------|--------|-------0--0--0---0--0--0---|-8---7---5---0--0--0---0--0--0---12--|
C|--------|--------|--------|--------|-------0--0--0---0--0--0---|-------------0--0--0---0--0--0-------|


D|-------------------------------------|---------------------------------|----------------------------------|
A|-------------------------------------|---------------------------------|----------------------------------|
F|-------------------------------------|---------------------------------|----------------------------------|
C|-------------------------------------|---------------------------------|----------------------------------|
G|-10--8---0--0--0---0--0--0-------7---|-8-------7---5-------4-------4---|-4----0--0--0---0--0--0---8---7---|
C|---------0--0--0---0--0--0---0-------|-----0-----------0-------0-------|------0--0--0---0--0--0-----------|


D|-------------------------------------|-------------------------------------|------------------------------|
A|-------------------------------------|-------------------------------------|------------------------------|
F|-------------------------------------|-------------------------------------|------------------------------|
C|-------------------------------------|-------------------------------------|------------------------------|
G|-5---0--0--0---0--0--0---12--10--8---|-0--0--0---0--0--0-------7---8-------|-7---5-------4-------4---4----|
C|-----0--0--0---0--0--0---------------|-0--0--0---0--0--0---0-----------0---|---------0-------0------------|


D|-----------------------------|--------------------------------------|-----------------------------|
A|-----------------------------|--------------------------------------|-----------------------------|
F|-----------------------------|--------------------------------------|-----------------------------|
C|-----------------------------|--------------------------------------|-----------------------------|
G|-0---0--------0--0--0--------|-0--0--0--0--0--0--0--0--0---0---6----|-0---0--------0--0--0--------|
C|-0---0--------0--0--0--------|-0--0--0--0--0--0--0--0--0---0--------|-0---0--------0--0--0--------|


D|--------------------------------------|-----------------------------|--------------------------------------|
A|--------------------------------------|-----------------------------|--------------------------------------|
F|--------------------------------------|-----------------------------|--------------------------------------|
C|--------------------------------------|-----------------------------|--------------------------------------|
G|-0--0--0--0--0--0--0--0--0---0---6----|-0---0--------0--0--0--------|-0--0--0--0--0--0--0--0--0---0---6----|
C|-0--0--0--0--0--0--0--0--0---0--------|-0---0--------0--0--0--------|-0--0--0--0--0--0--0--0--0---0--------|


D|-----------------------------|--------------------------------------|-----------------------------|
A|-----------------------------|--------------------------------------|-----------------------------|
F|-----------------------------|--------------------------------------|-----------------------------|
C|-----------------------------|--------------------------------------|-----------------------------|
G|-0---0--------0--0--0--------|-0--0--0--0--0--0--0--0--0---0---6----|-0---0--------0--0--0--------|
C|-0---0--------0--0--0--------|-0--0--0--0--0--0--0--0--0---0--------|-0---0--------0--0--0--------|


D|--------------------------------------|-----------------------------|--------------------------------------|
A|--------------------------------------|-----------------------------|--------------------------------------|
F|--------------------------------------|-----------------------------|--------------------------------------|
C|--------------------------------------|-----------------------------|--------------------------------------|
G|-0--0--0--0--0--0--0--0--0---0---6----|-0---0--------0--0--0--------|-0--0--0--0--0--0--0--0--0---0---6----|
C|-0--0--0--0--0--0--0--0--0---0--------|-0---0--------0--0--0--------|-0--0--0--0--0--0--0--0--0---0--------|


D|-----------------------------|--------------------------------------|-----------------------------|
A|-----------------------------|--------------------------------------|-----------------------------|
F|-----------------------------|--------------------------------------|-----------------------------|
C|-----------------------------|--------------------------------------|-----------------------------|
G|-0---0--------0--0--0--------|-0--0--0--0--0--0--0--0--0---0---6----|-0---0--------0--0--0--------|
C|-0---0--------0--0--0--------|-0--0--0--0--0--0--0--0--0---0--------|-0---0--------0--0--0--------|


D|--------------------------------------|--------|--------|--------------------------------|
A|--------------------------------------|--------|--------|--------------------------------|
F|--------------------------------------|--------|--------|--------------------------------|
C|--------------------------------------|-0------|-0------|-0--------------------------8---|
G|-0--0--0--0--0--0--0--0--0---0---6----|-0------|-0------|-0----0--0--0---0-------0---6---|
C|-0--0--0--0--0--0--0--0--0---0--------|-0------|-0------|-0----0--0--0---0-------0-------|


D|---------------------------|--------------------------------|---------------------------|
A|---------------------------|--------------------------------|---------------------------|
F|---------------------------|--------------------------------|---------------------------|
C|-----8--------5---8---7----|-0--------------------------8---|-----8--------5---8---7----|
G|-0---6----0---3---6---5----|-0----0--0--0---0-------0---6---|-0---6----0---3---6---5----|
C|-0--------0----------------|-0----0--0--0---0-------0-------|-0--------0----------------|


D|--------|--------|--------|--------|--------|--------|--------|--------|--------|
A|--------|--------|--------|--------|--------|--------|--------|--------|--------|
F|--------|--------|--------|--------|--------|--------|--------|--------|--------|
C|--------|--------|--------|--------|--------|--------|--------|--------|--------|
G|--------|--------|--------|--------|--------|--------|--------|--------|--------|
C|--------|--------|--------|--------|--------|--------|--------|--------|--------|


D|--------|--------------------------------|---------------------------|--------------------------------|
A|--------|--------------------------------|---------------------------|--------------------------------|
F|--------|--------------------------------|---------------------------|--------------------------------|
C|--------|-0--------------------------8---|-----8--------5---8---7----|-0--------------------------8---|
G|--------|-0----0--0--0---0-------0---6---|-0---6----0---3---6---5----|-0----0--0--0---0-------0---6---|
C|--------|-0----0--0--0---0-------0-------|-0--------0----------------|-0----0--0--0---0-------0-------|


D|---------------------------|--------------------------------|---------------------------|
A|---------------------------|--------------------------------|---------------------------|
F|---------------------------|--------------------------------|---------------------------|
C|-----8--------5---8---7----|-0--------------------------8---|-----8--------5---8---7----|
G|-0---6----0---3---6---5----|-0----0--0--0---0-------0---6---|-0---6----0---3---6---5----|
C|-0--------0----------------|-0----0--0--0---0-------0-------|-0--------0----------------|


D|--------------------------------|---------------------------|---------------------------------------|
A|--------------------------------|---------------------------|---------------------------------------|
F|--------------------------------|---------------------------|---------------------4---5-------------|
C|-0--------------------------8---|-----8--------5---8---7----|---------------------------------------|
G|-0----0--0--0---0-------0---6---|-0---6----0---3---6---5----|-0--0--0---0--0--0-----------0--0--0---|
C|-0----0--0--0---0-------0-------|-0--------0----------------|-0--0--0---0--0--0-----------0--0--0---|


D|---------------------------------|-------------------------------------|-----------------------------------|
A|---------------------------------|-------------------------------------|-----------------------------------|
F|---------------------------------|-----------------------------4---5---|-----------------------------------|
C|-5---7-----------4---------------|-7-----------------------------------|-----------5---7-----------4-------|
G|---------0---0-------5---0---0---|-----5---0--0--0---0--0--0-----------|-0--0--0-----------0---0-------5---|
C|---------0---0-----------0---0---|---------0--0--0---0--0--0-----------|-0--0--0-----------0---0-----------|


D|-------------------------------------|-----------------------------------|-----------------------------------|
A|-------------------------------------|-----------------------------------|-----------------------------------|
F|-------------------------------------|-4---5-----------------------------|-----------------------------------|
C|---------7---------------------------|-------------------5---7-----------|-4---------------7-----------------|
G|-0---0-------5---0--0--0---0--0--0---|---------0--0--0-----------0---0---|-----5---0---0-------5---0--0--0---|
C|-0---0-----------0--0--0---0--0--0---|---------0--0--0-----------0---0---|---------0---0-----------0--0--0---|


D|-------------------------------------|---------------------------------|--------|
A|-------------------------------------|---------------------------------|--------|
F|-----------4---5---------------------|---------------------------------|--------|
C|-----------------------------5---7---|---------4---------------7-------|--------|
G|-0--0--0-----------0--0--0-----------|-0---0-------5---0---0-------5---|--------|
C|-0--0--0-----------0--0--0-----------|-0---0-----------0---0-----------|--------|


D|--------|--------|--------|--------------------|----------------------------------------|
A|--------|--------|--------|--------------------|----------------------------------------|
F|--------|--------|--------|--------------------|----------------------------------------|
C|--------|--------|--------|--------------------|----------------------------------------|
G|--------|--------|--------|-------0---0--------|-0--0--0--------0--0--0--0--0--0--0--0--|
C|--------|--------|--------|-------0---0--------|-0--0--0--------0--0--0--0--0--0--0--0--|


D|---------------------------|----------------------------------------|----------------|
A|---------------------------|----------------------------------------|----------------|
F|---------------------------|----------------------------------------|----------------|
C|---------------------------|----------------------------------------|----------------|
G|-0---0--------0---0--------|-0--0--0--------0--0--0--0--0--0--0--0--|-0---0----------|
C|-0---0--------0---0--------|-0--0--0--------0--0--0--0--0--0--0--0--|-0---0----------|


D|--------|--------|--------|--------|--------|--------|--------|--------------------|
A|--------|--------|--------|--------|--------|--------|--------|--------------------|
F|--------|--------|--------|--------|--------|--------|--------|--------------------|
C|--------|--------|--------|--------|--------|--------|--------|--------------------|
G|--------|--------|--------|--------|--------|--------|--------|-------0---0--------|
C|--------|--------|--------|--------|--------|--------|--------|-------0---0--------|


D|----------------------------------------|---------------------------|------------------------------------|
A|----------------------------------------|---------------------------|------------------------------------|
F|----------------------------------------|---------------------------|------------------------------------|
C|----------------------------------------|---------------------------|------------------------------------|
G|-0--0--0--------0--0--0--0--0--0--0--0--|-0---0--------0---0--------|-0--0--0--------0--0--0--0--0-------|
C|-0--0--0--------0--0--0--0--0--0--0--0--|-0---0--------0---0--------|-0--0--0--------0--0--0--0--0-------|


D|------------------------|----------------------------------------|---------------------------|
A|-------------------9----|-----------9----------------------------|----------------------9----|
F|-------------------12---|-----------12---------------------------|----------------------12---|
C|------------------------|----------------------------------------|---------------------------|
G|-0---6-----0---0--------|-0--0--0--------0--0--0--0--0--0--0--0--|-0---0---6----0---0--------|
C|-0---------0---0--------|-0--0--0--------0--0--0--0--0--0--0--0--|-0---0--------0---0--------|


D|----------------------------------------|---------------------------|----------------------------------------|
A|-----------9----------------------------|----------------------9----|-----------9----------------------------|
F|-----------12---------------------------|----------------------12---|-----------12---------------------------|
C|----------------------------------------|---------------------------|----------------------------------------|
G|-0--0--0--------0--0--0--0--0--0--0--0--|-0---0---6----0---0--------|-0--0--0--------0--0--0--0--0--0--0--0--|
C|-0--0--0--------0--0--0--0--0--0--0--0--|-0---0--------0---0--------|-0--0--0--------0--0--0--0--0--0--0--0--|


D|---------------------------|----------------------------------------|--------------------|
A|----------------------9----|-----------9----------------------------|--------------------|
F|----------------------12---|-----------12---------------------------|--------------------|
C|---------------------------|----------------------------------------|--------------------|
G|-0---0---6----0---0--------|-0--0--0--------0--0--0--0--0--0--0--0--|-0---0---6----------|
C|-0---0--------0---0--------|-0--0--0--------0--0--0--0--0--0--0--0--|-0---0--------------|


D|--------|--------|--------|--------|--------|--------|--------|--------|--------|
A|--------|--------|--------|--------|--------|--------|--------|--------|--------|
F|--------|--------|--------|--------|--------|--------|--------|--------|--------|
C|--------|--------|--------|--------|--------|--------|--------|--------|--------|
G|--------|--------|--------|--------|--------|--------|--------|--------|--------|
C|--------|--------|--------|--------|--------|--------|--------|--------|--------|


D|--------|----------------------------------|-----------------------------------|
A|--------|----------------------------------|-----------------------------------|
F|--------|--------------------------4---5---|-----------------------------------|
C|--------|----------------------------------|-----------5---7-----------4-------|
G|--------|------0--0--0---0--0--0-----------|-0--0--0-----------0---0-------5---|
C|--------|------0--0--0---0--0--0-----------|-0--0--0-----------0---0-----------|


D|-------------------------------------|-----------------------------------|-----------------------------------|
A|-------------------------------------|-----------------------------------|-----------------------------------|
F|-------------------------------------|-4---5-----------------------------|-----------------------------------|
C|---------7---------------------------|-------------------5---7-----------|-4---------------7-----------------|
G|-0---0-------5---0--0--0---0--0--0---|---------0--0--0-----------0---0---|-----5---0---0-------5---0--0--0---|
C|-0---0-----------0--0--0---0--0--0---|---------0--0--0-----------0---0---|---------0---0-----------0--0--0---|


D|-------------------------------------|---------------------------------|---------------------------------------|
A|-------------------------------------|---------------------------------|---------------------------------------|
F|-----------4---5---------------------|---------------------------------|---------------------4---5-------------|
C|-----------------------------5---7---|---------4---------------7-------|---------------------------------------|
G|-0--0--0-----------0--0--0-----------|-0---0-------5---0---0-------5---|-0--0--0---0--0--0-----------0--0--0---|
C|-0--0--0-----------0--0--0-----------|-0---0-----------0---0-----------|-0--0--0---0--0--0-----------0--0--0---|


D|---------------------------------|-----------------------|
A|---------------------------------|-----------------------|
F|---------------------------------|-----------------------|
C|-5---7-----------4---------------|-7-------0-------------|
G|---------0---0-------5---0---0---|-----5---0-------------|
C|---------0---0-----------0---0---|---------0-------------|





Track 3: pick scrapes

D|--------|--------|--------|--------|--------|--------|--------|--------|--------|
A|--------|--------|--------|--------|--------|--------|--------|--------|--------|
F|--------|--------|--------|--------|--------|--------|--------|--------|--------|
C|--------|--------|--------|--------|--------|--------|--------|--------|--------|
G|--------|--------|--------|--------|--------|--------|--------|--------|--------|
C|--------|--------|--------|--------|--------|--------|--------|--------|--------|


D|--------|--------|--------|--------|--------|--------|--------|--------|--------|
A|--------|--------|--------|--------|--------|--------|--------|--------|--------|
F|--------|--------|--------|--------|--------|--------|--------|--------|--------|
C|--------|--------|--------|--------|--------|--------|--------|--------|--------|
G|--------|--------|--------|--------|--------|--------|--------|--------|--------|
C|--------|--------|--------|--------|--------|--------|--------|--------|--------|


D|--------|--------|--------|--------|--------|--------|--------|--------|--------|
A|--------|--------|--------|--------|--------|--------|--------|--------|--------|
F|--------|--------|--------|--------|--------|--------|--------|--------|--------|
C|--------|--------|--------|--------|--------|--------|--------|--------|--------|
G|--------|--------|--------|--------|--------|--------|--------|--------|--------|
C|--------|--------|--------|--------|--------|--------|--------|--------|--------|


D|--------|--------|--------|--------|--------|--------|--------|--------|--------|
A|--------|--------|--------|--------|--------|--------|--------|--------|--------|
F|--------|--------|--------|--------|--------|--------|--------|--------|--------|
C|--------|--------|--------|--------|--------|--------|--------|--------|--------|
G|--------|--------|--------|--------|--------|--------|--------|--------|--------|
C|--------|--------|--------|--------|--------|--------|--------|--------|--------|


D|--------|--------|--------|--------|--------|--------|--------|--------|--------|
A|--------|--------|--------|--------|--------|--------|--------|--------|--------|
F|--------|--------|--------|--------|--------|--------|--------|--------|--------|
C|--------|--------|--------|--------|--------|--------|--------|--------|--------|
G|--------|--------|--------|--------|--------|--------|--------|--------|--------|
C|--------|--------|--------|--------|--------|--------|--------|--------|--------|


D|--------|--------|--------|--------|--------|--------|--------|--------|--------|
A|--------|--------|--------|--------|--------|--------|--------|--------|--------|
F|--------|--------|--------|--------|--------|--------|--------|--------|--------|
C|--------|--------|--------|--------|--------|--------|--------|--------|--------|
G|--------|--------|--------|--------|--------|--------|--------|--------|--------|
C|--------|--------|--------|--------|--------|--------|--------|--------|--------|


D|--------|--------|--------|--------|--------|--------|--------|--------|--------|
A|--------|--------|--------|--------|--------|--------|--------|--------|--------|
F|--------|--------|--------|--------|--------|--------|--------|--------|--------|
C|--------|--------|--------|--------|--------|--------|--------|--------|--------|
G|--------|--------|--------|--------|--------|--------|--------|--------|--------|
C|--------|--------|--------|--------|--------|--------|--------|--------|--------|


D|---------------------------------|---------------------------------|--------|--------|
A|---------------------------------|---------------------------------|--------|--------|
F|---------------------------------|---------------------------------|--------|--------|
C|---------------------------------|---------------------------------|--------|--------|
G|-24--23--22--21--20--18--16--14--|-12--10--8---6---5---4---3---2---|--------|--------|
C|-24--23--22--21--20--18--16--14--|-12--10--8---6---5---4---3---2---|--------|--------|


D|--------|--------|--------|--------|--------|--------|--------|--------|--------|
A|--------|--------|--------|--------|--------|--------|--------|--------|--------|
F|--------|--------|--------|--------|--------|--------|--------|--------|--------|
C|--------|--------|--------|--------|--------|--------|--------|--------|--------|
G|--------|--------|--------|--------|--------|--------|--------|--------|--------|
C|--------|--------|--------|--------|--------|--------|--------|--------|--------|


D|--------|--------|--------|--------|--------|--------|--------|--------|--------|
A|--------|--------|--------|--------|--------|--------|--------|--------|--------|
F|--------|--------|--------|--------|--------|--------|--------|--------|--------|
C|--------|--------|--------|--------|--------|--------|--------|--------|--------|
G|--------|--------|--------|--------|--------|--------|--------|--------|--------|
C|--------|--------|--------|--------|--------|--------|--------|--------|--------|


D|--------|--------|--------|--------|--------|--------|--------|--------|--------|
A|--------|--------|--------|--------|--------|--------|--------|--------|--------|
F|--------|--------|--------|--------|--------|--------|--------|--------|--------|
C|--------|--------|--------|--------|--------|--------|--------|--------|--------|
G|--------|--------|--------|--------|--------|--------|--------|--------|--------|
C|--------|--------|--------|--------|--------|--------|--------|--------|--------|


D|--------|--------|--------|--------|------------------------|--------|--------|--------|
A|--------|--------|--------|--------|------------------------|--------|--------|--------|
F|--------|--------|--------|--------|------------------------|--------|--------|--------|
C|--------|--------|--------|--------|------12-8--4--2--------|--------|--------|--------|
G|--------|--------|--------|--------|------12-8--4--2--------|--------|--------|--------|
C|--------|--------|--------|--------|------12-8--4--2--------|--------|--------|--------|


D|--------|--------|--------|--------|--------|--------|--------|--------|--------|
A|--------|--------|--------|--------|--------|--------|--------|--------|--------|
F|--------|--------|--------|--------|--------|--------|--------|--------|--------|
C|--------|--------|--------|--------|--------|--------|--------|--------|--------|
G|--------|--------|--------|--------|--------|--------|--------|--------|--------|
C|--------|--------|--------|--------|--------|--------|--------|--------|--------|


D|--------|--------|--------|--------|--------|--------|--------|--------|--------|
A|--------|--------|--------|--------|--------|--------|--------|--------|--------|
F|--------|--------|--------|--------|--------|--------|--------|--------|--------|
C|--------|--------|--------|--------|--------|--------|--------|--------|--------|
G|--------|--------|--------|--------|--------|--------|--------|--------|--------|
C|--------|--------|--------|--------|--------|--------|--------|--------|--------|


D|--------|--------|--------|--------|--------|--------|--------|--------|--------|
A|--------|--------|--------|--------|--------|--------|--------|--------|--------|
F|--------|--------|--------|--------|--------|--------|--------|--------|--------|
C|--------|--------|--------|--------|--------|--------|--------|--------|--------|
G|--------|--------|--------|--------|--------|--------|--------|--------|--------|
C|--------|--------|--------|--------|--------|--------|--------|--------|--------|


D|--------|--------|--------|--------|--------|--------|--------|--------|--------|
A|--------|--------|--------|--------|--------|--------|--------|--------|--------|
F|--------|--------|--------|--------|--------|--------|--------|--------|--------|
C|--------|--------|--------|--------|--------|--------|--------|--------|--------|
G|--------|--------|--------|--------|--------|--------|--------|--------|--------|
C|--------|--------|--------|--------|--------|--------|--------|--------|--------|


D|--------|
A|--------|
F|--------|
C|--------|
G|--------|
C|--------|





Track 4: Guitar 1

D|--------|--------|--------|--------|--------|--------|--------|--------|--------|
A|--------|--------|--------|--------|--------|--------|--------|--------|--------|
F|--------|--------|--------|--------|--------|--------|--------|--------|--------|
C|--------|--------|--------|--------|--------|--------|--------|--------|--------|
G|--------|--------|--------|--------|--------|--------|--------|--------|--------|
C|--------|--------|--------|--------|--------|--------|--------|--------|--------|


D|--------|--------|--------|--------|--------|--------|--------|--------|--------|
A|--------|--------|--------|--------|--------|--------|--------|--------|--------|
F|--------|--------|--------|--------|--------|--------|--------|--------|--------|
C|--------|--------|--------|--------|--------|--------|--------|--------|--------|
G|--------|--------|--------|--------|--------|--------|--------|--------|--------|
C|--------|--------|--------|--------|--------|--------|--------|--------|--------|


D|--------|--------|--------|--------|--------|--------|--------|--------|--------|
A|--------|--------|--------|--------|--------|--------|--------|--------|--------|
F|--------|--------|--------|--------|--------|--------|--------|--------|--------|
C|--------|--------|--------|--------|--------|--------|--------|--------|--------|
G|--------|--------|--------|--------|--------|--------|--------|--------|--------|
C|--------|--------|--------|--------|--------|--------|--------|--------|--------|


D|--------|--------|--------|--------|--------|--------|--------|--------|--------|
A|--------|--------|--------|--------|--------|--------|--------|--------|--------|
F|--------|--------|--------|--------|--------|--------|--------|--------|--------|
C|--------|--------|--------|--------|--------|--------|--------|--------|--------|
G|--------|--------|--------|--------|--------|--------|--------|--------|--------|
C|--------|--------|--------|--------|--------|--------|--------|--------|--------|


D|--------|--------|--------|--------|--------|--------|--------|--------|--------|
A|--------|--------|--------|--------|--------|--------|--------|--------|--------|
F|--------|--------|--------|--------|--------|--------|--------|--------|--------|
C|--------|--------|--------|--------|--------|--------|--------|--------|--------|
G|--------|--------|--------|--------|--------|--------|--------|--------|--------|
C|--------|--------|--------|--------|--------|--------|--------|--------|--------|


D|--------|--------|--------|--------|--------|--------|--------|--------|--------|
A|--------|--------|--------|--------|--------|--------|--------|--------|--------|
F|--------|--------|--------|--------|--------|--------|--------|--------|--------|
C|--------|--------|--------|--------|--------|--------|--------|--------|--------|
G|--------|--------|--------|--------|--------|--------|--------|--------|--------|
C|--------|--------|--------|--------|--------|--------|--------|--------|--------|


D|--------|--------|--------|--------|--------|--------|--------|--------|--------|
A|--------|--------|--------|--------|--------|--------|--------|--------|--------|
F|--------|--------|--------|--------|--------|--------|--------|--------|--------|
C|--------|--------|--------|--------|--------|--------|--------|--------|--------|
G|--------|--------|--------|--------|--------|--------|--------|--------|--------|
C|--------|--------|--------|--------|--------|--------|--------|--------|--------|


D|--------------------------------|---------------------------|--------|--------|--------|
A|--------------------------------|---------------------------|--------|--------|--------|
F|--------------------------------|---------------------------|--------|--------|--------|
C|-0--------------------------8---|-----8--------5---8---7----|--------|--------|--------|
G|-0----0--0--0---0-------0---6---|-0---6----0---3---6---5----|--------|--------|--------|
C|-0----0--0--0---0-------0-------|-0--------0----------------|--------|--------|--------|


D|--------|--------|--------|--------|--------|--------|--------|--------|--------|
A|--------|--------|--------|--------|--------|--------|--------|--------|--------|
F|--------|--------|--------|--------|--------|--------|--------|--------|--------|
C|--------|--------|--------|--------|--------|--------|--------|--------|--------|
G|--------|--------|--------|--------|--------|--------|--------|--------|--------|
C|--------|--------|--------|--------|--------|--------|--------|--------|--------|


D|--------|--------|--------|--------|--------|--------|--------|--------|--------|
A|--------|--------|--------|--------|--------|--------|--------|--------|--------|
F|--------|--------|--------|--------|--------|--------|--------|--------|--------|
C|--------|--------|--------|--------|--------|--------|--------|--------|--------|
G|--------|--------|--------|--------|--------|--------|--------|--------|--------|
C|--------|--------|--------|--------|--------|--------|--------|--------|--------|


D|--------|--------|--------|--------|--------|--------|--------|--------|--------|
A|--------|--------|--------|--------|--------|--------|--------|--------|--------|
F|--------|--------|--------|--------|--------|--------|--------|--------|--------|
C|--------|--------|--------|--------|--------|--------|--------|--------|--------|
G|--------|--------|--------|--------|--------|--------|--------|--------|--------|
C|--------|--------|--------|--------|--------|--------|--------|--------|--------|


D|--------|--------|--------|--------|--------|--------|--------|--------|--------|
A|--------|--------|--------|--------|--------|--------|--------|--------|--------|
F|--------|--------|--------|--------|--------|--------|--------|--------|--------|
C|--------|--------|--------|--------|--------|--------|--------|--------|--------|
G|--------|--------|--------|--------|--------|--------|--------|--------|--------|
C|--------|--------|--------|--------|--------|--------|--------|--------|--------|


D|--------|--------|--------|--------|--------|--------|--------|--------|--------|
A|--------|--------|--------|--------|--------|--------|--------|--------|--------|
F|--------|--------|--------|--------|--------|--------|--------|--------|--------|
C|--------|--------|--------|--------|--------|--------|--------|--------|--------|
G|--------|--------|--------|--------|--------|--------|--------|--------|--------|
C|--------|--------|--------|--------|--------|--------|--------|--------|--------|


D|--------|--------|--------|--------|--------|--------|--------|--------|--------|
A|--------|--------|--------|--------|--------|--------|--------|--------|--------|
F|--------|--------|--------|--------|--------|--------|--------|--------|--------|
C|--------|--------|--------|--------|--------|--------|--------|--------|--------|
G|--------|--------|--------|--------|--------|--------|--------|--------|--------|
C|--------|--------|--------|--------|--------|--------|--------|--------|--------|


D|--------|--------|--------|--------|--------|--------|--------|--------|--------|
A|--------|--------|--------|--------|--------|--------|--------|--------|--------|
F|--------|--------|--------|--------|--------|--------|--------|--------|--------|
C|--------|--------|--------|--------|--------|--------|--------|--------|--------|
G|--------|--------|--------|--------|--------|--------|--------|--------|--------|
C|--------|--------|--------|--------|--------|--------|--------|--------|--------|


D|--------|--------|--------|--------|--------|--------|--------|--------|
A|--------|--------|--------|--------|--------|--------|--------|--------|
F|--------|--------|--------|--------|--------|--------|--------|--------|
C|--------|--------|--------|--------|--------|--------|--------|--------|
G|--------|--------|--------|--------|--------|--------|--------|--------|
C|--------|--------|--------|--------|--------|--------|--------|--------|





Track 5: Guitar 1

D|--------|--------|--------|--------|--------|--------|--------|--------|--------|
A|--------|--------|--------|--------|--------|--------|--------|--------|--------|
F|--------|--------|--------|--------|--------|--------|--------|--------|--------|
C|--------|--------|--------|--------|--------|--------|--------|--------|--------|
G|--------|--------|--------|--------|--------|--------|--------|--------|--------|
C|--------|--------|--------|--------|--------|--------|--------|--------|--------|


D|--------|--------|--------|--------|--------|--------|--------|--------|--------|
A|--------|--------|--------|--------|--------|--------|--------|--------|--------|
F|--------|--------|--------|--------|--------|--------|--------|--------|--------|
C|--------|--------|--------|--------|--------|--------|--------|--------|--------|
G|--------|--------|--------|--------|--------|--------|--------|--------|--------|
C|--------|--------|--------|--------|--------|--------|--------|--------|--------|


D|--------|--------|--------|--------|--------|--------|--------|--------|--------|
A|--------|--------|--------|--------|--------|--------|--------|--------|--------|
F|--------|--------|--------|--------|--------|--------|--------|--------|--------|
C|--------|--------|--------|--------|--------|--------|--------|--------|--------|
G|--------|--------|--------|--------|--------|--------|--------|--------|--------|
C|--------|--------|--------|--------|--------|--------|--------|--------|--------|


D|--------|--------|--------|--------|--------|--------|--------|--------|--------|
A|--------|--------|--------|--------|--------|--------|--------|--------|--------|
F|--------|--------|--------|--------|--------|--------|--------|--------|--------|
C|--------|--------|--------|--------|--------|--------|--------|--------|--------|
G|--------|--------|--------|--------|--------|--------|--------|--------|--------|
C|--------|--------|--------|--------|--------|--------|--------|--------|--------|


D|--------|--------|--------|--------|--------|--------|--------|--------|--------|
A|--------|--------|--------|--------|--------|--------|--------|--------|--------|
F|--------|--------|--------|--------|--------|--------|--------|--------|--------|
C|--------|--------|--------|--------|--------|--------|--------|--------|--------|
G|--------|--------|--------|--------|--------|--------|--------|--------|--------|
C|--------|--------|--------|--------|--------|--------|--------|--------|--------|


D|--------|--------|--------|--------|--------|--------|--------|--------|--------|
A|--------|--------|--------|--------|--------|--------|--------|--------|--------|
F|--------|--------|--------|--------|--------|--------|--------|--------|--------|
C|--------|--------|--------|--------|--------|--------|--------|--------|--------|
G|--------|--------|--------|--------|--------|--------|--------|--------|--------|
C|--------|--------|--------|--------|--------|--------|--------|--------|--------|


D|--------|--------|--------|--------|--------|--------|--------|--------|--------|
A|--------|--------|--------|--------|--------|--------|--------|--------|--------|
F|--------|--------|--------|--------|--------|--------|--------|--------|--------|
C|--------|--------|--------|--------|--------|--------|--------|--------|--------|
G|--------|--------|--------|--------|--------|--------|--------|--------|--------|
C|--------|--------|--------|--------|--------|--------|--------|--------|--------|


D|--------|--------|--------|--------|--------|--------|--------|--------|--------|
A|--------|--------|--------|--------|--------|--------|--------|--------|--------|
F|--------|--------|--------|--------|--------|--------|--------|--------|--------|
C|--------|--------|--------|--------|--------|--------|--------|--------|--------|
G|--------|--------|--------|--------|--------|--------|--------|--------|--------|
C|--------|--------|--------|--------|--------|--------|--------|--------|--------|


D|--------|--------|--------|--------|--------|--------|--------|--------|--------|
A|--------|--------|--------|--------|--------|--------|--------|--------|--------|
F|--------|--------|--------|--------|--------|--------|--------|--------|--------|
C|--------|--------|--------|--------|--------|--------|--------|--------|--------|
G|--------|--------|--------|--------|--------|--------|--------|--------|--------|
C|--------|--------|--------|--------|--------|--------|--------|--------|--------|


D|--------|--------|--------|--------|--------|--------|--------|--------|--------|
A|--------|--------|--------|--------|--------|--------|--------|--------|--------|
F|--------|--------|--------|--------|--------|--------|--------|--------|--------|
C|--------|--------|--------|--------|--------|--------|--------|--------|--------|
G|--------|--------|--------|--------|--------|--------|--------|--------|--------|
C|--------|--------|--------|--------|--------|--------|--------|--------|--------|


D|--------|--------|--------|--------|--------|--------|--------|--------|------------------------|
A|--------|--------|--------|--------|--------|--------|--------|--------|------------------------|
F|--------|--------|--------|--------|--------|--------|--------|--------|------------------------|
C|--------|--------|--------|--------|--------|--------|--------|--------|------12-8--4--2--------|
G|--------|--------|--------|--------|--------|--------|--------|--------|------12-8--4--2--------|
C|--------|--------|--------|--------|--------|--------|--------|--------|------12-8--4--2--------|


D|--------|--------|--------|--------|--------|--------|--------|--------|--------|
A|--------|--------|--------|--------|--------|--------|--------|--------|--------|
F|--------|--------|--------|--------|--------|--------|--------|--------|--------|
C|--------|--------|--------|--------|--------|--------|--------|--------|--------|
G|--------|--------|--------|--------|--------|--------|--------|--------|--------|
C|--------|--------|--------|--------|--------|--------|--------|--------|--------|


D|--------|--------|--------|--------|--------|--------|--------|--------|--------|
A|--------|--------|--------|--------|--------|--------|--------|--------|--------|
F|--------|--------|--------|--------|--------|--------|--------|--------|--------|
C|--------|--------|--------|--------|--------|--------|--------|--------|--------|
G|--------|--------|--------|--------|--------|--------|--------|--------|--------|
C|--------|--------|--------|--------|--------|--------|--------|--------|--------|


D|--------|--------|--------|--------|--------|--------|--------|--------|--------|
A|--------|--------|--------|--------|--------|--------|--------|--------|--------|
F|--------|--------|--------|--------|--------|--------|--------|--------|--------|
C|--------|--------|--------|--------|--------|--------|--------|--------|--------|
G|--------|--------|--------|--------|--------|--------|--------|--------|--------|
C|--------|--------|--------|--------|--------|--------|--------|--------|--------|


D|--------|--------|--------|--------|--------|--------|--------|--------|--------|
A|--------|--------|--------|--------|--------|--------|--------|--------|--------|
F|--------|--------|--------|--------|--------|--------|--------|--------|--------|
C|--------|--------|--------|--------|--------|--------|--------|--------|--------|
G|--------|--------|--------|--------|--------|--------|--------|--------|--------|
C|--------|--------|--------|--------|--------|--------|--------|--------|--------|


D|--------|--------|--------|--------|
A|--------|--------|--------|--------|
F|--------|--------|--------|--------|
C|--------|--------|--------|--------|
G|--------|--------|--------|--------|
C|--------|--------|--------|--------|





Track 6: Untitled

A#|--------|--------|-------------|--------|-------------|-------------|-----------------|
 F|--------|--------|-------------|--------|-------------|-------------|-----------------|
 C|--------|--------|-------------|--------|-------------|-------------|-----------------|
 G|--------|--------|-------------|--------|-------------|-------------|-----------------|
 C|--------|--------|-------------|--------|-------------|-------------|-----------------|


A#|--------|-----------------|---------------------------|---------------------------|
 F|--------|-----------------|---------------------------|---------------------------|
 C|--------|-----------------|---------------------------|---------------------------|
 G|--------|------------8----|------8---7---5--------8---|----------12--10--8--------|
 C|--------|-------0---------|-0----------------0--------|-----0----------------8----|


A#|------------------------------|---------------------------|------------------------|
 F|------------------------------|---------------------------|------------------------|
 C|------------------------------|---------------------------|------------------------|
 G|-12--10--8--------12--10--8---|------8---7---5--------8---|-7---5--------8---------|
 C|-------------8----------------|-5----------------5--------|---------0---------0----|


A#|---------------------------|------------------------------|---------------------------|
 F|---------------------------|------------------------------|---------------------------|
 C|---------------------------|------------------------------|---------------------------|
 G|-8---7---5--------8--------|-----12--10--8--------12--10--|-8--------12--10--8--------|
 C|-------------0---------0---|-----------------8------------|-----8----------------5----|


A#|------------------------------|---------------------------------------|-------------------------------------|
 F|------------------------------|---------------------------------------|-------------------------------------|
 C|------------------------------|---------------------------------------|-------------------------------------|
 G|-8---7---5--------8---7---5---|---------------------8---7---5---------|---------------12--10--8-------------|
 C|-------------5----------------|-0--0--0---0--0--0---------------0--0--|-0---0--0--0---------------0--0--0---|


A#|-----------------------------------|-----------------------------------|---------------------------------------|
 F|-----------------------------------|-----------------6-----------------|---------------------------------------|
 C|-----------------------------------|---------------------6-------------|---------------------------------------|
 G|---------------7---8-------7---5---|-----4-------4---------------------|-----------8---7---5-------------------|
 C|-0--0--0---0-----------0-----------|-0-------0---------------0--0--0---|-0--0--0---------------0--0--0---0--0--|


A#|-------------------------------------|---------------------------------|------------------------------|
 F|-------------------------------------|---------------------------------|---------6--------------------|
 C|-------------------------------------|---------------------------------|-------------6----------------|
 G|-----12--10--8-----------------------|-----7---8-------7---5-------4---|-----4------------------------|
 C|-0---------------0--0--0---0--0--0---|-0-----------0-----------0-------|-0---------------0---0---0----|


A#|----------------------------------|---------------------------|----------------------------------|
 F|----------------------------------|---------------------------|----------------------------------|
 C|----------------------------------|---------------------------|----------------------------------|
 G|----------------------------------|---------------------------|----------------------------------|
 C|-0---0--------0--0--0---0--0--0---|-0---0--------0---0---0----|-0---0--------0--0--0---0--0--0---|


A#|---------------------------|----------------------------------|---------------------------|
 F|---------------------------|----------------------------------|---------------------------|
 C|---------------------------|----------------------------------|---------------------------|
 G|---------------------------|----------------------------------|---------------------------|
 C|-0---0--------0---0---0----|-0---0--------0--0--0---0--0--0---|-0---0--------0---0---0----|


A#|----------------------------------|----------------------------------|-------------------------------------|
 F|----------------------------------|----------------------------------|-------------------------------------|
 C|----------------------------------|----------------------------------|-------------------------------------|
 G|----------------------------------|----------------------------------|-8---7---5-----------------------12--|
 C|-0---0--------0--0--0---0--0--0---|-0---0--------0--0--0---0--0--0---|-------------0--0--0---0--0--0-------|


A#|-------------------------------------|---------------------------------|-------------------------------------|
 F|-------------------------------------|---------------------------------|-6-----------------------------------|
 C|-------------------------------------|---------------------------------|-----6-------------------------------|
 G|-10--8---------------------------7---|-8-------7---5-------4-------4---|-----------------------------8---7---|
 C|---------0--0--0---0--0--0---0-------|-----0-----------0-------0-------|---------0--0--0---0--0--0-----------|


A#|-------------------------------------|-------------------------------------|---------------------------------|
 F|-------------------------------------|-------------------------------------|-------------------------6-------|
 C|-------------------------------------|-------------------------------------|-----------------------------6---|
 G|-5-----------------------12--10--8---|-------------------------7---8-------|-7---5-------4-------4-----------|
 C|-----0--0--0---0--0--0---------------|-0--0--0---0--0--0---0-----------0---|---------0-------0---------------|


A#|-----------------------------|--------------------------------------|-----------------------------|
 F|-----------------------------|--------------------------------------|-----------------------------|
 C|-----------------------------|--------------------------------------|-----------------------------|
 G|-----------------------------|--------------------------------------|-----------------------------|
 C|-0---0--------0--0--0--------|-0--0--0--0--0--0--0--0--0---0---6----|-0---0--------0--0--0--------|


A#|--------------------------------------|-----------------------------|--------------------------------------|
 F|--------------------------------------|-----------------------------|--------------------------------------|
 C|--------------------------------------|-----------------------------|--------------------------------------|
 G|--------------------------------------|-----------------------------|--------------------------------------|
 C|-0--0--0--0--0--0--0--0--0---0---6----|-0---0--------0--0--0--------|-0--0--0--0--0--0--0--0--0---0---6----|


A#|-----------------------------|--------------------------------------|-----------------------------|
 F|-----------------------------|--------------------------------------|-----------------------------|
 C|-----------------------------|--------------------------------------|-----------------------------|
 G|-----------------------------|--------------------------------------|-----------------------------|
 C|-0---0--------0--0--0--------|-0--0--0--0--0--0--0--0--0---0---6----|-0---0--------0--0--0--------|


A#|--------------------------------------|-----------------------------|--------------------------------------|
 F|--------------------------------------|-----------------------------|--------------------------------------|
 C|--------------------------------------|-----------------------------|--------------------------------------|
 G|--------------------------------------|-----------------------------|--------------------------------------|
 C|-0--0--0--0--0--0--0--0--0---0---6----|-0---0--------0--0--0--------|-0--0--0--0--0--0--0--0--0---0---6----|


A#|-----------------------------|--------------------------------------|-----------------------------|
 F|-----------------------------|--------------------------------------|-----------------------------|
 C|-----------------------------|--------------------------------------|-----------------------------|
 G|-----------------------------|--------------------------------------|-----------------------------|
 C|-0---0--------0--0--0--------|-0--0--0--0--0--0--0--0--0---0---6----|-0---0--------0--0--0--------|


A#|--------------------------------------|--------|--------|--------|--------|--------|
 F|--------------------------------------|--------|--------|--------|--------|--------|
 C|--------------------------------------|--------|--------|--------|--------|--------|
 G|--------------------------------------|--------|--------|--------|--------|--------|
 C|-0--0--0--0--0--0--0--0--0---0---6----|-0------|-0------|-0------|-0------|-0------|


A#|--------|---------------------|---------------------|--------------------------------|
 F|--------|---------------------|---------------------|----------------------------8---|
 C|--------|---------------------|---------------------|--------------------------------|
 G|--------|---------------------|---------------------|--------------------------------|
 C|-0------|-24---18---14---10---|-8----6----4----2----|-0----0--0--0---0-------0-------|


A#|---------------------------|--------------------------------|---------------------------|
 F|-----8--------5---8---7----|----------------------------8---|-----8--------5---8---7----|
 C|---------------------------|--------------------------------|---------------------------|
 G|---------------------------|--------------------------------|---------------------------|
 C|-0--------0----------------|-0----0--0--0---0-------0-------|-0--------0----------------|


A#|--------------------------------|---------------------------|--------------------------------|
 F|----------------------------8---|-----8--------5---8---7----|----------------------------8---|
 C|--------------------------------|---------------------------|--------------------------------|
 G|--------------------------------|---------------------------|--------------------------------|
 C|-0----0--0--0---0-------0-------|-0--------0----------------|-0----0--0--0---0-------0-------|


A#|---------------------------|--------------------------------|---------------------------|
 F|-----8--------5---8---7----|--------------------------------|---------------------------|
 C|---------------------------|--------------------------------|---------------------------|
 G|---------------------------|----------------------------6---|-----6--------3---6---5----|
 C|-0--------0----------------|-0----0--0--0---0-------0-------|-0--------0----------------|


A#|--------------------------------|---------------------------|--------------------------------|
 F|--------------------------------|---------------------------|--------------------------------|
 C|--------------------------------|---------------------------|--------------------------------|
 G|----------------------------6---|-----6--------3---6---5----|----------------------------6---|
 C|-0----0--0--0---0-------0-------|-0--------0----------------|-0----0--0--0---0-------0-------|


A#|---------------------------|--------------------------------|---------------------------|
 F|---------------------------|--------------------------------|---------------------------|
 C|---------------------------|--------------------------------|---------------------------|
 G|-----6--------3---6---5----|----------------------------6---|-----6--------3---6---5----|
 C|-0--------0----------------|-0----0--0--0---0-------0-------|-0--------0----------------|


A#|---------------------------------------|---------------------------------|-------------------------------------|
 F|---------------------------------------|---------------------------------|-------------------------------------|
 C|---------------------------------------|---------------------------------|-------------------------------------|
 G|---------------------------------------|-7---8-----------5---------------|-8-----------------------------------|
 C|-0--0--0---0--0--0---5---7---0--0--0---|---------0---0-------6---0---0---|-----7---0--0--0---0--0--0---5---7---|


A#|-----------------------------------|-------------------------------------|-----------------------------------|
 F|-----------------------------------|-------------------------------------|-----------------------------------|
 C|-----------------------------------|-------------------------------------|-----------------------------------|
 G|-----------7---8-----------5-------|---------8---------------------------|-------------------7---8-----------|
 C|-0--0--0-----------0---0-------6---|-0---0-------7---0--0--0---0--0--0---|-5---7---0--0--0-----------0---0---|


A#|-----------------------------------|-------------------------------------|---------------------------------|
 F|-----------------------------------|-------------------------------------|---------------------------------|
 C|-----------------------------------|-------------------------------------|---------------------------------|
 G|-5---------------8-----------------|-----------------------------7---8---|---------5---------------8-------|
 C|-----6---0---0-------7---0--0--0---|-0--0--0---5---7---0--0--0-----------|-0---0-------6---0---0-------7---|


A#|------------------------|------------------------|------------------------|---------------------------|
 F|------------------------|------------------------|------------------------|---------------------------|
 C|------------------------|------------------------|------------------------|---------------------------|
 G|------8---------8---7---|-5--------8---------12--|-10--8--------8---------|-8---7---5--------8--------|
 C|-0---------0------------|-----0---------0--------|---------0---------0----|-------------0---------0---|


A#|-----------------------|-------------|-------------|-------------|------------------------|
 F|-----------------------|-------------|-------------|-------------|------------------------|
 C|-----------------------|-------------|-------------|-------------|------------------------|
 G|-----12--10--8---------|-------------|-------------|-------------|------------------------|
 C|-----------------------|-------------|-------------|-------------|------24---0---0--------|


A#|----------------------------------------|---------------------------|----------------------------------------|
 F|----------------------------------------|---------------------------|----------------------------------------|
 C|----------------------------------------|---------------------------|----------------------------------------|
 G|----------------------------------------|---------------------------|----------------------------------------|
 C|-0--0--0--------0--0--0--0--0--0--0--0--|-0---0--------0---0--------|-0--0--0--------0--0--0--0--0--0--0--0--|


A#|---------------------------|----------------------------------------|---------------------------|
 F|---------------------------|----------------------------------------|---------------------------|
 C|---------------------------|----------------------------------------|---------------------------|
 G|---------------------------|----------------------------------------|---------------------------|
 C|-0---0--------0---0--------|-0--0--0--------0--0--0--0--0--0--0--0--|-0---0--------0---0--------|


A#|----------------------------------------|---------------------------|----------------------------------------|
 F|----------------------------------------|---------------------------|----------------------------------------|
 C|----------------------------------------|---------------------------|----------------------------------------|
 G|----------------------------------------|---------------------------|----------------------------------------|
 C|-0--0--0--------0--0--0--0--0--0--0--0--|-0---0--------0---0--------|-0--0--0--------0--0--0--0--0--0--0--0--|


A#|---------------------------|------------------------------------|------------------------|
 F|---------------------------|------------------------------------|------------------------|
 C|---------------------------|------------------------------------|------------------------|
 G|---------------------------|------------------------------------|-------------------10---|
 C|-0---0--------0---0--------|-0--0--0--------0--0--0--0--0-------|-0---6-----0---0--------|


A#|----------------------------------------|---------------------------|----------------------------------------|
 F|----------------------------------------|---------------------------|----------------------------------------|
 C|----------------------------------------|---------------------------|----------------------------------------|
 G|-----------10---------------------------|----------------------10---|-----------10---------------------------|
 C|-0--0--0--------0--0--0--0--0--0--0--0--|-0---0---6----0---0--------|-0--0--0--------0--0--0--0--0--0--0--0--|


A#|---------------------------|----------------------------------------|---------------------------|
 F|---------------------------|----------------------------------------|---------------------------|
 C|---------------------------|----------------------------------------|---------------------------|
 G|----------------------10---|-----------10---------------------------|----------------------10---|
 C|-0---0---6----0---0--------|-0--0--0--------0--0--0--0--0--0--0--0--|-0---0---6----0---0--------|


A#|----------------------------------------|------------------------|---------------------|
 F|----------------------------------------|------------------------|---------------------|
 C|----------------------------------------|-------------------5----|-7-------------------|
 G|-----------10---------------------------|------------------------|------8----7-----8---|
 C|-0--0--0--------0--0--0--0--0--0--0--0--|-0---0---6----0---------|---------------------|


A#|---------------------|------------------------|---------------------------|--------------------|
 F|---------------------|------------------------|---------------------------|--------------------|
 C|---------------------|--------------------5---|-----7---------7-----------|--------------------|
 G|-7-----5-------------|-----8------------------|----------7--------7---5---|--------------------|
 C|------------6----0---|----------7----0--------|---------------------------|-----7----0-----0---|


A#|------------------------|---------------------|---------------------|---------------------|
 F|------------------------|---------------------|---------------------|---------------------|
 C|-----5----7-------------|---------------------|---------------------|------5----7---------|
 G|---------------8----7---|------8---7-----5----|-----------8---------|----------------7----|
 C|------------------------|---------------------|-6----0---------7----|-0-------------------|


A#|------------------------|----------------------------------|-----------------------------------|
 F|------------------------|----------------------------------|-----------------------------------|
 C|-7----------------------|----------------------------------|-----------------------------------|
 G|-----7---5--------------|----------------------------------|-----------7---8-----------5-------|
 C|--------------7----0----|------0--0--0---0--0--0---5---7---|-0--0--0-----------0---0-------6---|


A#|-------------------------------------|-----------------------------------|-----------------------------------|
 F|-------------------------------------|-----------------------------------|-----------------------------------|
 C|-------------------------------------|-----------------------------------|-----------------------------------|
 G|---------8---------------------------|-------------------7---8-----------|-5---------------8-----------------|
 C|-0---0-------7---0--0--0---0--0--0---|-5---7---0--0--0-----------0---0---|-----6---0---0-------7---0--0--0---|


A#|-------------------------------------|---------------------------------|---------------------------------------|
 F|-------------------------------------|---------------------------------|---------------------------------------|
 C|-------------------------------------|---------------------------------|---------------------------------------|
 G|-----------------------------7---8---|---------5---------------8-------|---------------------------------------|
 C|-0--0--0---5---7---0--0--0-----------|-0---0-------6---0---0-------7---|-0--0--0---0--0--0---5---7---0--0--0---|


A#|---------------------------------|-----------------------|
 F|---------------------------------|-----------------------|
 C|---------------------------------|-----------------------|
 G|-7---8-----------5---------------|-8---------------------|
 C|---------0---0-------6---0---0---|-----7---0-------------|