Site menu:

    

Browse: 0-9 A B C D E F G H I J K L N O P Q R S T U V W X Y Z

in flames - starforsaken:



Title: Starforsaken
Artist: 
Album: Lunar Strain
Author: Jesper Strömblad


Track 1: Violin Left

D|--------------------|-------------12--10-12-10--------------|-----10--12--15--14--11--12------|
A|--------------------|-10--12--13----------------13--10--12--|-13------------------------------|
F|----------------9---|---------------------------------------|-----------------------------9---|
C|--------------------|---------------------------------------|---------------------------------|
G|--------------------|---------------------------------------|---------------------------------|
D|--------------------|---------------------------------------|---------------------------------|


D|-----------8----8---8---|-10---8----7---------------|-------------12--10-12-10--------------|
A|-10---8-----------------|---------------8---10------|-10--12--13----------------13--10--12--|
F|------------------------|-----------------------9---|---------------------------------------|
C|------------------------|---------------------------|---------------------------------------|
G|------------------------|---------------------------|---------------------------------------|
D|------------------------|---------------------------|---------------------------------------|


D|-----10--12--15--14--11--12------|-----------8----8---8---|-10---8----7---------------|
A|-13------------------------------|-10---8-----------------|---------------8---10------|
F|-----------------------------9---|------------------------|-----------------------9---|
C|---------------------------------|------------------------|---------------------------|
G|---------------------------------|------------------------|---------------------------|
D|---------------------------------|------------------------|---------------------------|


D|-------------12--10-12-10--------------|-----10--12--15--14--11--12------|-----------8----8---8---|
A|-10--12--13----------------13--10--12--|-13------------------------------|-10---8-----------------|
F|---------------------------------------|-----------------------------9---|------------------------|
C|---------------------------------------|---------------------------------|------------------------|
G|---------------------------------------|---------------------------------|------------------------|
D|---------------------------------------|---------------------------------|------------------------|


D|-10---8----7------------|--------|-------------|--------|--------|--------|--------|
A|---------------8---8----|--------|-------------|--------|--------|--------|--------|
F|------------------------|--------|-------------|--------|--------|--------|--------|
C|------------------------|-10-----|-10----------|--------|--------|--------|--------|
G|------------------------|--------|-------------|--------|--------|--------|--------|
D|------------------------|--------|-------------|--------|--------|--------|--------|


D|--------|--------|--------|--------|--------|--------|--------|--------|--------|
A|--------|--------|--------|--------|--------|--------|--------|--------|--------|
F|--------|--------|--------|--------|--------|--------|--------|--------|--------|
C|--------|--------|--------|--------|--------|--------|--------|--------|--------|
G|--------|--------|--------|--------|--------|--------|--------|--------|--------|
D|--------|--------|--------|--------|--------|--------|--------|--------|--------|


D|--------|--------|--------|--------|--------|--------|--------|--------|--------|
A|--------|--------|--------|--------|--------|--------|--------|--------|--------|
F|--------|--------|--------|--------|--------|--------|--------|--------|--------|
C|--------|--------|--------|--------|--------|--------|--------|--------|--------|
G|--------|--------|--------|--------|--------|--------|--------|--------|--------|
D|--------|--------|--------|--------|--------|--------|--------|--------|--------|


D|--------|--------|--------|--------|--------|--------|--------|--------|--------|
A|--------|--------|--------|--------|--------|--------|--------|--------|--------|
F|--------|--------|--------|--------|--------|--------|--------|--------|--------|
C|--------|--------|--------|--------|--------|--------|--------|--------|--------|
G|--------|--------|--------|--------|--------|--------|--------|--------|--------|
D|--------|--------|--------|--------|--------|--------|--------|--------|--------|


D|--------|--------|--------|--------|--------|--------|--------|--------|--------|
A|--------|--------|--------|--------|--------|--------|--------|--------|--------|
F|--------|--------|--------|--------|--------|--------|--------|--------|--------|
C|--------|--------|--------|--------|--------|--------|--------|--------|--------|
G|--------|--------|--------|--------|--------|--------|--------|--------|--------|
D|--------|--------|--------|--------|--------|--------|--------|--------|--------|


D|--------|--------|--------|--------|--------|--------|--------|--------|--------|
A|--------|--------|--------|--------|--------|--------|--------|--------|--------|
F|--------|--------|--------|--------|--------|--------|--------|--------|--------|
C|--------|--------|--------|--------|--------|--------|--------|--------|--------|
G|--------|--------|--------|--------|--------|--------|--------|--------|--------|
D|--------|--------|--------|--------|--------|--------|--------|--------|--------|


D|--------|--------|--------|--------|--------|--------|--------|--------|--------|
A|--------|--------|--------|--------|--------|--------|--------|--------|--------|
F|--------|--------|--------|--------|--------|--------|--------|--------|--------|
C|--------|--------|--------|--------|--------|--------|--------|--------|--------|
G|--------|--------|--------|--------|--------|--------|--------|--------|--------|
D|--------|--------|--------|--------|--------|--------|--------|--------|--------|


D|--------|--------|--------|--------|--------|--------|--------|--------|--------|
A|--------|--------|--------|--------|--------|--------|--------|--------|--------|
F|--------|--------|--------|--------|--------|--------|--------|--------|--------|
C|--------|--------|--------|--------|--------|--------|--------|--------|--------|
G|--------|--------|--------|--------|--------|--------|--------|--------|--------|
D|--------|--------|--------|--------|--------|--------|--------|--------|--------|


D|--------|--------|--------|--------|--------|--------|--------|--------|--------|
A|--------|--------|--------|--------|--------|--------|--------|--------|--------|
F|--------|--------|--------|--------|--------|--------|--------|--------|--------|
C|--------|--------|--------|--------|--------|--------|--------|--------|--------|
G|--------|--------|--------|--------|--------|--------|--------|--------|--------|
D|--------|--------|--------|--------|--------|--------|--------|--------|--------|


D|--------|--------|--------|--------|--------|--------|--------|--------|--------|
A|--------|--------|--------|--------|--------|--------|--------|--------|--------|
F|--------|--------|--------|--------|--------|--------|--------|--------|--------|
C|--------|--------|--------|--------|--------|--------|--------|--------|--------|
G|--------|--------|--------|--------|--------|--------|--------|--------|--------|
D|--------|--------|--------|--------|--------|--------|--------|--------|--------|


D|--------|--------|--------|--------|--------|--------|--------|--------|--------|
A|--------|--------|--------|--------|--------|--------|--------|--------|--------|
F|--------|--------|--------|--------|--------|--------|--------|--------|--------|
C|--------|--------|--------|--------|--------|--------|--------|--------|--------|
G|--------|--------|--------|--------|--------|--------|--------|--------|--------|
D|--------|--------|--------|--------|--------|--------|--------|--------|--------|


D|--------|--------|--------|--------|--------|--------|--------|
A|--------|--------|--------|--------|--------|--------|--------|
F|--------|--------|--------|--------|--------|--------|--------|
C|--------|--------|--------|--------|--------|--------|--------|
G|--------|--------|--------|--------|--------|--------|--------|
D|--------|--------|--------|--------|--------|--------|--------|





Track 2: Violin Right

D|--------------------|-------------12--10-12-10--------------|-----10--12--15--14--11--12------|
A|--------------------|-10--12--13----------------13--10--12--|-13------------------------------|
F|----------------9---|---------------------------------------|-----------------------------9---|
C|--------------------|---------------------------------------|---------------------------------|
G|--------------------|---------------------------------------|---------------------------------|
D|--------------------|---------------------------------------|---------------------------------|


D|-----------------------------12--10--12--12--|-13--10--12------10--------------------------|
A|-10------10--12------12--13------------------|-------------13------12--13--12------10------|
F|-----9-----------9---------------------------|---------------------------------12------9---|
C|---------------------------------------------|---------------------------------------------|
G|---------------------------------------------|---------------------------------------------|
D|---------------------------------------------|---------------------------------------------|


D|-------------12--10-12-10--------------|-----10--12--15--14--11--12------|-----------------------------12--10--12--12--|
A|-10--12--13----------------13--10--12--|-13------------------------------|-10------10--12------12--13------------------|
F|---------------------------------------|-----------------------------9---|-----9-----------9---------------------------|
C|---------------------------------------|---------------------------------|---------------------------------------------|
G|---------------------------------------|---------------------------------|---------------------------------------------|
D|---------------------------------------|---------------------------------|---------------------------------------------|


D|-13--10--12------10--------------------------|-------------12--10-12-10--------------|
A|-------------13------12--13--12------10------|-10--12--13----------------13--10--12--|
F|---------------------------------12------9---|---------------------------------------|
C|---------------------------------------------|---------------------------------------|
G|---------------------------------------------|---------------------------------------|
D|---------------------------------------------|---------------------------------------|


D|-----10--12--15--14--11--12------|-----------------------------12--10--12--12--|
A|-13------------------------------|-10------10--12------12--13------------------|
F|-----------------------------9---|-----9-----------9---------------------------|
C|---------------------------------|---------------------------------------------|
G|---------------------------------|---------------------------------------------|
D|---------------------------------|---------------------------------------------|


D|-13--10--12------10-------------------|--------|-------------|--------|--------|
A|-------------13------12--13--12-------|-10-----|-10----------|--------|--------|
F|---------------------------------12---|--------|-------------|--------|--------|
C|--------------------------------------|--------|-------------|--------|--------|
G|--------------------------------------|--------|-------------|--------|--------|
D|--------------------------------------|--------|-------------|--------|--------|


D|--------|--------|--------|--------|--------|--------|--------|--------|--------|
A|--------|--------|--------|--------|--------|--------|--------|--------|--------|
F|--------|--------|--------|--------|--------|--------|--------|--------|--------|
C|--------|--------|--------|--------|--------|--------|--------|--------|--------|
G|--------|--------|--------|--------|--------|--------|--------|--------|--------|
D|--------|--------|--------|--------|--------|--------|--------|--------|--------|


D|--------|--------|--------|--------|--------|--------|--------|--------|--------|
A|--------|--------|--------|--------|--------|--------|--------|--------|--------|
F|--------|--------|--------|--------|--------|--------|--------|--------|--------|
C|--------|--------|--------|--------|--------|--------|--------|--------|--------|
G|--------|--------|--------|--------|--------|--------|--------|--------|--------|
D|--------|--------|--------|--------|--------|--------|--------|--------|--------|


D|--------|--------|--------|--------|--------|--------|--------|--------|--------|
A|--------|--------|--------|--------|--------|--------|--------|--------|--------|
F|--------|--------|--------|--------|--------|--------|--------|--------|--------|
C|--------|--------|--------|--------|--------|--------|--------|--------|--------|
G|--------|--------|--------|--------|--------|--------|--------|--------|--------|
D|--------|--------|--------|--------|--------|--------|--------|--------|--------|


D|--------|--------|--------|--------|--------|--------|--------|--------|--------|
A|--------|--------|--------|--------|--------|--------|--------|--------|--------|
F|--------|--------|--------|--------|--------|--------|--------|--------|--------|
C|--------|--------|--------|--------|--------|--------|--------|--------|--------|
G|--------|--------|--------|--------|--------|--------|--------|--------|--------|
D|--------|--------|--------|--------|--------|--------|--------|--------|--------|


D|--------|--------|--------|--------|--------|--------|--------|--------|--------|
A|--------|--------|--------|--------|--------|--------|--------|--------|--------|
F|--------|--------|--------|--------|--------|--------|--------|--------|--------|
C|--------|--------|--------|--------|--------|--------|--------|--------|--------|
G|--------|--------|--------|--------|--------|--------|--------|--------|--------|
D|--------|--------|--------|--------|--------|--------|--------|--------|--------|


D|--------|--------|--------|--------|--------|--------|--------|--------|--------|
A|--------|--------|--------|--------|--------|--------|--------|--------|--------|
F|--------|--------|--------|--------|--------|--------|--------|--------|--------|
C|--------|--------|--------|--------|--------|--------|--------|--------|--------|
G|--------|--------|--------|--------|--------|--------|--------|--------|--------|
D|--------|--------|--------|--------|--------|--------|--------|--------|--------|


D|--------|--------|--------|--------|--------|--------|--------|--------|--------|
A|--------|--------|--------|--------|--------|--------|--------|--------|--------|
F|--------|--------|--------|--------|--------|--------|--------|--------|--------|
C|--------|--------|--------|--------|--------|--------|--------|--------|--------|
G|--------|--------|--------|--------|--------|--------|--------|--------|--------|
D|--------|--------|--------|--------|--------|--------|--------|--------|--------|


D|--------|--------|--------|--------|--------|--------|--------|--------|--------|
A|--------|--------|--------|--------|--------|--------|--------|--------|--------|
F|--------|--------|--------|--------|--------|--------|--------|--------|--------|
C|--------|--------|--------|--------|--------|--------|--------|--------|--------|
G|--------|--------|--------|--------|--------|--------|--------|--------|--------|
D|--------|--------|--------|--------|--------|--------|--------|--------|--------|


D|--------|--------|--------|--------|--------|--------|--------|--------|--------|
A|--------|--------|--------|--------|--------|--------|--------|--------|--------|
F|--------|--------|--------|--------|--------|--------|--------|--------|--------|
C|--------|--------|--------|--------|--------|--------|--------|--------|--------|
G|--------|--------|--------|--------|--------|--------|--------|--------|--------|
D|--------|--------|--------|--------|--------|--------|--------|--------|--------|


D|--------|--------|--------|--------|--------|--------|--------|--------|--------|
A|--------|--------|--------|--------|--------|--------|--------|--------|--------|
F|--------|--------|--------|--------|--------|--------|--------|--------|--------|
C|--------|--------|--------|--------|--------|--------|--------|--------|--------|
G|--------|--------|--------|--------|--------|--------|--------|--------|--------|
D|--------|--------|--------|--------|--------|--------|--------|--------|--------|


D|--------|--------|--------|--------|--------|--------|--------|--------|--------|
A|--------|--------|--------|--------|--------|--------|--------|--------|--------|
F|--------|--------|--------|--------|--------|--------|--------|--------|--------|
C|--------|--------|--------|--------|--------|--------|--------|--------|--------|
G|--------|--------|--------|--------|--------|--------|--------|--------|--------|
D|--------|--------|--------|--------|--------|--------|--------|--------|--------|





Track 3: Distortion Left

D|--------|--------|--------|--------|--------|--------|--------|--------|--------|
A|--------|--------|--------|--------|--------|--------|--------|--------|--------|
F|--------|--------|--------|--------|--------|--------|--------|--------|--------|
C|--------|--------|--------|--------|--------|--------|--------|--------|--------|
G|--------|--------|--------|--------|--------|--------|--------|--------|--------|
D|--------|--------|--------|--------|--------|--------|--------|--------|--------|


D|--------|--------|--------|--------|--------|--------|----------------|--------|
A|--------|--------|--------|--------|--------|--------|----------------|--------|
F|--------|--------|--------|--------|--------|--------|----------------|-4------|
C|--------|--------|--------|--------|--------|--------|-2------4---5---|-4------|
G|--------|--------|--------|--------|--------|--------|-2------2---3---|-2------|
D|--------|--------|--------|--------|--------|--------|-0--------------|--------|


D|----------------|-------------|----------------|--------|----------------|-------------|
A|----------------|-------------|----------------|--------|----------------|-------------|
F|----------------|-9------9----|----------------|-4------|----------------|-9------9----|
C|-7--------------|-9------9----|-2------4---5---|-4------|-7--------------|-9------9----|
G|-7------9---10--|-7------7----|-2------2---3---|-2------|-7------9---10--|-7------7----|
D|-5------7---8---|-------------|-0--------------|--------|-5------7---8---|-------------|


D|-------------------------------------------------|-------------------------------------------------|
A|-------------------------------------------------|-------------------------------------------------|
F|-------------------------------------------------|-------------------------------------------------|
C|-------------------------------------------------|-------------------------------------------------|
G|-7--7--7--7--7--7--7--7--7--7--7--7--7--7--7--7--|-5--5--5--5--5--5--5--5--5--5--5--5--5--5--5--5--|
D|-------------------------------------------------|-------------------------------------------------|


D|-------------------------------------------------|-------------------------------------------------|
A|-------------------------------------------------|-------------------------------------------------|
F|-------------------------------------------------|-------------------------------------------------|
C|-------------------------------------------------|-------------------------------------------------|
G|-------------------------------------------------|-7--7--7--7--7--7--7--7--7--7--7--7--7--7--7--7--|
D|-5--5--5--5--5--5--5--5--5--5--5--5--5--5--5--5--|-------------------------------------------------|


D|-------------------------------------------------|-------------------------------------------------|
A|-------------------------------------------------|-------------------------------------------------|
F|-------------------------------------------------|-------------------------------------------------|
C|-------------------------------------------------|-------------------------------------------------|
G|-7--7--7--7--7--7--7--7--7--7--7--7--7--7--7--7--|-5--5--5--5--5--5--5--5--5--5--5--5--5--5--5--5--|
D|-------------------------------------------------|-------------------------------------------------|


D|-------------------------------------------------|-----------------------------------------|
A|-------------------------------------------------|-----------------------------------------|
F|-------------------------------------------------|-----------------------------------------|
C|-------------------------------------------------|-----------------------------------------|
G|-------------------------------------------------|-7--7--7--7--7--7--7--7--7---------------|
D|-5--5--5--5--5--5--5--5--5--5--5--5--5--5--5--5--|-----------------------------5---7---3---|


D|-------------------------------------------------|-------------------------------------------------|
A|-------------------------------------------------|-------------------------------------------------|
F|-------------------------------------------------|-------------------------------------------------|
C|-------------7--7--7--7--5--5--8--8--5--5--8--8--|-------------7--7--7--7--5--5--8--8--5--5--8--8--|
G|-5--5--5--5--------------------------------------|-5--5--5--5--------------------------------------|
D|-------------------------------------------------|-------------------------------------------------|


D|-------------------------------------------------|-------------------------------------------------|
A|-------------------------------------------------|-------------------------------------------------|
F|-------------------------------------------------|-------------------------------------------------|
C|-------------------------------------------------|-------------------------------------------------|
G|-------------10-10-10-10-8--8--11-11-8--8--11-11-|-------------10-10-10-10-8--8--11-11-8--8--11-11-|
D|-8--8--8--8--------------------------------------|-8--8--8--8--------------------------------------|


D|-------------------------------------------------|-------------------------------------------------|
A|-------------------------------------------------|-------------------------------------------------|
F|-------------------------------------------------|-------------------------------------------------|
C|-------------7--7--7--7--5--5--8--8--5--5--8--8--|-------------7--7--7--7--5--5--8--8--5--5--8--8--|
G|-5--5--5--5--------------------------------------|-5--5--5--5--------------------------------------|
D|-------------------------------------------------|-------------------------------------------------|


D|-------------------------------------------------|-------------------------------------------------|
A|-------------------------------------------------|-------------------------------------------------|
F|-------------------------------------------------|-------------------------------------------------|
C|-------------------------------------------------|-------------------------------------------------|
G|-------------10-10-10-10-8--8--11-11-8--8--11-11-|-------------10-10-10-10-8--8--11-11-8--8--11-11-|
D|-8--8--8--8--------------------------------------|-8--8--8--8--------------------------------------|


D|-----------------------------------|-----------------------------------|-----------------------------------|
A|-----------------------------------|-----------------------------------|-----------------------------------|
F|-----------------------------------|-----------------------------------|-----------------------------------|
C|-----------------------------------|-9----9--9--9--9--9----9--9--9--9--|-----------------------------------|
G|-7----7--7--7--7--7----7--7--7--7--|-----------------------------------|-5----5--5--5--5--5----5--5--5--5--|
D|-----------------------------------|-----------------------------------|-----------------------------------|


D|-----------------------------------|-----------------------------------|-----------------------------------|
A|-----------------------------------|-----------------------------------|-----------------------------------|
F|-----------------------------------|-----------------------------------|-----------------------------------|
C|-7----7--7--7--7--7----7--7--7--7--|-----------------------------------|-9----9--9--9--9--9----9--9--9--9--|
G|-----------------------------------|-7----7--7--7--7--7----7--7--7--7--|-----------------------------------|
D|-----------------------------------|-----------------------------------|-----------------------------------|


D|-----------------------------------|-----------------------------------|---------------------------------|
A|-----------------------------------|-----------------------------------|---------------------------------|
F|-----------------------------------|-----------------------------------|---------------------------------|
C|-----------------------------------|-7----7--7--7--7--7----7--7--7--7--|---------------------------------|
G|-5----5--5--5--5--5----5--5--5--5--|-----------------------------------|-2---2---2---2---2---2---2---2---|
D|-----------------------------------|-----------------------------------|-0---0---0---0---0---0---0---0---|


D|---------------------------------|---------------------------------|---------------------------------------|
A|---------------------------------|---------------------------------|---------------------------------------|
F|---------------------------------|---------------------------------|---------------------------------------|
C|---------------------------------|---------------------------------|---------------------2--2--2--2--2--2--|
G|-2---2---2---2---2---2---2---2---|-2---2---2---2---2---2---2---2---|-2---2---2---2---2---------------------|
D|-0---0---0---0---0---0---0---0---|-0---0---0---0---0---0---0---0---|-0---0---0---0---0---------------------|


D|---------------------------------|---------------------------------------|---------------------------------|
A|---------------------------------|---------------------------------------|---------------------------------|
F|---------------------------------|---------------------------------------|---------------------------------|
C|---------------------------------|---------------------------------------|---------------------------------|
G|-2---2---2---2---2---2---2---2---|-2---2---2---2---2---3--3--3--3--3--3--|-2---2---2---2---2---2---2---2---|
D|-0---0---0---0---0---0---0---0---|-0---0---0---0---0---------------------|-0---0---0---0---0---0---0---0---|


D|---------------------------------------|---------------------------------|---------------------------------------|
A|---------------------------------------|---------------------------------|---------------------------------------|
F|---------------------------------------|---------------------------------|---------------------------------------|
C|---------------------2--2--2--2--2--2--|---------------------------------|---------------------------------------|
G|-2---2---2---2---2---------------------|-2---2---2---2---2---2---2---2---|-2---2---2---2---2---3--3--3--3--3--3--|
D|-0---0---0---0---0---------------------|-0---0---0---0---0---0---0---0---|-0---0---0---0---0---------------------|


D|-------------------------------------------------|-------------------------------------------------|
A|-------------------------------------------------|-------------------------------------------------|
F|-------------------------------------------------|-------------------------------------------------|
C|-------------------------------------------------|-------------------------------------------------|
G|-7--7--7--7--9--9--7--7--10-10-10-10-9--9--7--7--|-5--5--5--5--7--7--5--5--------------------------|
D|-------------------------------------------------|-------------------------8--8--8--8--8--8--8--8--|


D|-------------------------------------------------|-------------------------------------------------|
A|-------------------------------------------------|-------------------------------------------------|
F|-------------------------------------------------|-------------------------------------------------|
C|-------------------------------------------------|-------------------------------------------------|
G|-7--7--7--7--9--9--7--7--10-10-10-10-9--9--7--7--|-5--5--5--5--7--7--5--5--------------------------|
D|-------------------------------------------------|-------------------------8--8--8--8--8--8--8--8--|


D|-------------------------------------------------|-------------------------------------------------|
A|-------------------------------------------------|-------------------------------------------------|
F|-------------------------------------------------|-------------------------------------------------|
C|-------------------------------------------------|-------------------------------------------------|
G|-7--7--7--7--9--9--7--7--10-10-10-10-9--9--7--7--|-5--5--5--5--7--7--5--5--------------------------|
D|-------------------------------------------------|-------------------------8--8--8--8--8--8--8--8--|


D|-------------------------------------------------|-------------------------------------------------|
A|-------------------------------------------------|-------------------------------------------------|
F|-------------------------------------------------|-------------------------------------------------|
C|-------------------------------------------------|-------------------------------------------------|
G|-7--7--7--7--9--9--7--7--10-10-10-10-9--9--7--7--|-5--5--5--5--7--7--5--5--------------------------|
D|-------------------------------------------------|-------------------------8--8--8--8--8--8--8--8--|


D|---------------------------------|---------------------------------------|---------------------------------|
A|---------------------------------|---------------------------------------|---------------------------------|
F|---------------------------------|---------------------------------------|---------------------------------|
C|---------------------------------|---------------------2--2--2--2--2--2--|---------------------------------|
G|-2---2---2---2---2---2---2---2---|-2---2---2---2---2---------------------|-2---2---2---2---2---2---2---2---|
D|-0---0---0---0---0---0---0---0---|-0---0---0---0---0---------------------|-0---0---0---0---0---0---0---0---|


D|---------------------------------------|---------------------------------|---------------------------------------|
A|---------------------------------------|---------------------------------|---------------------------------------|
F|---------------------------------------|---------------------------------|---------------------------------------|
C|---------------------------------------|---------------------------------|---------------------2--2--2--2--2--2--|
G|-2---2---2---2---2---3--3--3--3--3--3--|-2---2---2---2---2---2---2---2---|-2---2---2---2---2---------------------|
D|-0---0---0---0---0---------------------|-0---0---0---0---0---0---0---0---|-0---0---0---0---0---------------------|


D|---------------------------------|---------------------------------------|-------------------------------------------------|
A|---------------------------------|---------------------------------------|-------------------------------------------------|
F|---------------------------------|---------------------------------------|-------------------------------------------------|
C|---------------------------------|---------------------------------------|-------------------------------------------------|
G|-2---2---2---2---2---2---2---2---|-2---2---2---2---2---3--3--3--3--3--3--|-7--7--7--7--9--9--7--7--10-10-10-10-9--9--7--7--|
D|-0---0---0---0---0---0---0---0---|-0---0---0---0---0---------------------|-------------------------------------------------|


D|-------------------------------------------------|-------------------------------------------------|
A|-------------------------------------------------|-------------------------------------------------|
F|-------------------------------------------------|-------------------------------------------------|
C|-------------------------------------------------|-------------------------------------------------|
G|-5--5--5--5--7--7--5--5--------------------------|-7--7--7--7--9--9--7--7--10-10-10-10-9--9--7--7--|
D|-------------------------8--8--8--8--8--8--8--8--|-------------------------------------------------|


D|-------------------------------------------------|-------------------------------------------------|
A|-------------------------------------------------|-------------------------------------------------|
F|-------------------------------------------------|-------------------------------------------------|
C|-------------------------------------------------|-------------------------------------------------|
G|-5--5--5--5--7--7--5--5--------------------------|-7--7--7--7--9--9--7--7--10-10-10-10-9--9--7--7--|
D|-------------------------8--8--8--8--8--8--8--8--|-------------------------------------------------|


D|-------------------------------------------------|-------------------------------------------------|
A|-------------------------------------------------|-------------------------------------------------|
F|-------------------------------------------------|-------------------------------------------------|
C|-------------------------------------------------|-------------------------------------------------|
G|-5--5--5--5--7--7--5--5--------------------------|-7--7--7--7--9--9--7--7--10-10-10-10-9--9--7--7--|
D|-------------------------8--8--8--8--8--8--8--8--|-------------------------------------------------|


D|-------------------------------------------------|-------------------------------------------------|
A|-------------------------------------------------|-------------------------------------------------|
F|-------------------------------------------------|-------------------------------------------------|
C|-------------------------------------------------|-------------------------------------------------|
G|-5--5--5--5--7--7--5--5--------------------------|-7--7--7--7--7--7--9--9--10-10-10-10-7--7--7--7--|
D|-------------------------8--8--8--8--8--8--8--8--|-------------------------------------------------|


D|-------------------------------------------------|-------------------------------------------------|
A|-------------------------------------------------|-------------------------------------------------|
F|-------------------------------------------------|-------------------------------------------------|
C|-7--7--7--7--------------9--9--9--9--9--9--9--9--|-------------------------------------------------|
G|-------------9--9--9--9--------------------------|-7--7--7--7--7--7--9--9--10-10-10-10-7--7--7--7--|
D|-------------------------------------------------|-------------------------------------------------|


D|-------------------------------------------------|-------------------------------------------------|
A|-------------------------------------------------|-------------------------------------------------|
F|-------------------------------------------------|-------------------------------------------------|
C|-7--7--7--7--------------9--9--9--9--9--9--9--9--|-------------------------9--9--9--9--9--9--9--9--|
G|-------------9--9--9--9--------------------------|-10-10-10-10-10-10-10-10-------------------------|
D|-------------------------------------------------|-------------------------------------------------|


D|-------------------------------------------------|-------------------------------------------------|
A|-------------------------------------------------|-------------------------------------------------|
F|-------------------------------------------------|-------------------------------------------------|
C|-10-10-10-10-10-10-10-10-------------------------|-------------------------9--9--9--9--9--9--9--9--|
G|-------------------------------------------------|-10-10-10-10-10-10-10-10-------------------------|
D|-------------------------11-11-11-11-11-11-11-11-|-------------------------------------------------|


D|-------------------------------------------------|-------------------------------------------------|
A|-------------------------------------------------|-------------------------------------------------|
F|-------------------------------------------------|-------------------------------------------------|
C|-10-10-10-10-10-10-10-10-------------------------|-------------------------------------------------|
G|-------------------------------------------------|-10-10-10-10-10-10-12-12-13-13-13-13-10-10-10-10-|
D|-------------------------11-11-11-11-11-11-11-11-|-------------------------------------------------|


D|-------------------------------------------------|-------------------------------------------------|
A|-------------------------------------------------|-------------------------------------------------|
F|-------------------------------------------------|-------------------------------------------------|
C|-10-10-10-10-------------12-12-12-12-12-12-12-12-|-------------------------------------------------|
G|-------------12-12-12-12-------------------------|-10-10-10-10-10-10-12-12-13-13-13-13-10-10-10-10-|
D|-------------------------------------------------|-------------------------------------------------|


D|-------------------------------------------------|-------------------------------------------------|
A|-------------------------------------------------|-------------------------------------------------|
F|-------------------------------------------------|-------------------------7--7--7--7--7--7--7--7--|
C|-10-10-10-10-------------12-12-12-12-12-12-12-12-|-8--8--8--8--8--8--8--8--------------------------|
G|-------------12-12-12-12-------------------------|-------------------------------------------------|
D|-------------------------------------------------|-------------------------------------------------|


D|-------------------------------------------------|-------------------------------------------------|
A|-------------------------------------------------|-------------------------------------------------|
F|-8--8--8--8--8--8--8--8--------------------------|-------------------------7--7--7--7--7--7--7--7--|
C|-------------------------------------------------|-8--8--8--8--8--8--8--8--------------------------|
G|-------------------------9--9--9--9--9--9--9--9--|-------------------------------------------------|
D|-------------------------------------------------|-------------------------------------------------|


D|-------------------------------------------------|-------------------------------------------------|
A|-------------------------------------------------|-------------------------------------------------|
F|-8--8--8--8--8--8--8--8--------------------------|-------------------------------------------------|
C|-------------------------------------------------|-------------------------------------------------|
G|-------------------------9--9--9--9--9--9--9--9--|-7--7--7--7--7--7--9--9--10-10-10-10-7--7--7--7--|
D|-------------------------------------------------|-------------------------------------------------|


D|-------------------------------------------------|-------------------------------------------------|
A|-------------------------------------------------|-------------------------------------------------|
F|-------------------------------------------------|-------------------------------------------------|
C|-7--7--7--7--------------9--9--9--9--9--9--9--9--|-------------------------------------------------|
G|-------------9--9--9--9--------------------------|-7--7--7--7--7--7--9--9--10-10-10-10-7--7--7--7--|
D|-------------------------------------------------|-------------------------------------------------|


D|-------------------------------------------------|-------------------------------------------------|
A|-------------------------------------------------|-------------------------------------------------|
F|-------------------------------------------------|-------------------------------------------------|
C|-7--7--7--7--------------9--9--9--9--9--9--9--9--|-------------------------9--9--9--9--9--9--9--9--|
G|-------------9--9--9--9--------------------------|-10-10-10-10-10-10-10-10-------------------------|
D|-------------------------------------------------|-------------------------------------------------|


D|-------------------------------------------------|-------------------------------------------------|
A|-------------------------------------------------|-------------------------------------------------|
F|-------------------------------------------------|-------------------------------------------------|
C|-10-10-10-10-10-10-10-10-------------------------|-------------------------9--9--9--9--9--9--9--9--|
G|-------------------------------------------------|-10-10-10-10-10-10-10-10-------------------------|
D|-------------------------11-11-11-11-11-11-11-11-|-------------------------------------------------|


D|-------------------------------------------------|-------------------------------------------------|
A|-------------------------------------------------|-------------------------------------------------|
F|-------------------------------------------------|-------------------------------------------------|
C|-10-10-10-10-10-10-10-10-------------------------|-------------------------------------------------|
G|-------------------------------------------------|-7--7--7--7--7--7--7--7--7--7--7--7--7--7--7--7--|
D|-------------------------11-11-11-11-11-11-11-11-|-------------------------------------------------|


D|-------------------------------------------------|-------------------------------------------------|
A|-------------------------------------------------|-------------------------------------------------|
F|-------------------------------------------------|-------------------------------------------------|
C|-------------------------------------------------|-------------------------------------------------|
G|-------------------------------------------------|-7--7--7--7--7--7--7--7--7--7--7--7--7--7--7--7--|
D|-5--5--5--5--5--5--5--5--7--7--7--7--7--7--7--7--|-------------------------------------------------|


D|-------------------------------------------------|-------------------------------------------------|
A|-------------------------------------------------|-------------------------------------------------|
F|-------------------------------------------------|-------------------------------------------------|
C|-------------------------------------------------|-------------------------------------------------|
G|-------------------------------------------------|-10-10-10-10-10-10-10-10-10-10-10-10-10-10-10-10-|
D|-5--5--5--5--5--5--5--5--7--7--7--7--7--7--7--7--|-------------------------------------------------|


D|-------------------------------------------------|-------------------------------------------------|
A|-------------------------------------------------|-------------------------------------------------|
F|-------------------------------------------------|-------------------------------------------------|
C|-------------------------------------------------|-------------------------------------------------|
G|-------------------------------------------------|-10-10-10-10-10-10-10-10-10-10-10-10-10-10-10-10-|
D|-8--8--8--8--8--8--8--8--10-10-10-10-10-10-10-10-|-------------------------------------------------|


D|-------------------------------------------------|-------------------------------------------------|
A|-------------------------------------------------|-------------------------------------------------|
F|-------------------------------------------------|-------------------------------------------------|
C|-------------------------------------------------|-------------------------------------------------|
G|-------------------------------------------------|-7--7--7--7--7--7--9--9--10-10-10-10-7--7--7--7--|
D|-8--8--8--8--8--8--8--8--10-10-10-10-10-10-10-10-|-------------------------------------------------|


D|-------------------------------------------------|-----------------------------------|
A|-------------------------------------------------|-----------------------------------|
F|-------------------------------------------------|-----------------------------------|
C|-7--7--7--7--------------9--9--9--9--9--9--9--9--|-----------------------------------|
G|-------------9--9--9--9--------------------------|-7--7--7--7--7--7--6--6--7---------|
D|-------------------------------------------------|-----------------------------------|





Track 4: Distortion Right

D|--------|--------|--------|--------|--------|--------|--------|--------|--------|
A|--------|--------|--------|--------|--------|--------|--------|--------|--------|
F|--------|--------|--------|--------|--------|--------|--------|--------|--------|
C|--------|--------|--------|--------|--------|--------|--------|--------|--------|
G|--------|--------|--------|--------|--------|--------|--------|--------|--------|
D|--------|--------|--------|--------|--------|--------|--------|--------|--------|


D|--------|--------|--------|--------|--------|--------|----------------|--------|
A|--------|--------|--------|--------|--------|--------|----------------|--------|
F|--------|--------|--------|--------|--------|--------|----------------|-4------|
C|--------|--------|--------|--------|--------|--------|-2------4---5---|-4------|
G|--------|--------|--------|--------|--------|--------|-2------2---3---|-2------|
D|--------|--------|--------|--------|--------|--------|-0--------------|--------|


D|----------------|-------------|----------------|--------|----------------|-------------|
A|----------------|-------------|----------------|--------|----------------|-------------|
F|----------------|-9------9----|----------------|-4------|----------------|-9------9----|
C|-7--------------|-9------9----|-2------4---5---|-4------|-7--------------|-9------9----|
G|-7------9---10--|-7------7----|-2------2---3---|-2------|-7------9---10--|-7------7----|
D|-5------7---8---|-------------|-0--------------|--------|-5------7---8---|-------------|


D|-------------------------------------------------|-------------------------------------------------|
A|-------------------------------------------------|-------------------------------------------------|
F|-------------------------------------------------|-------------------------------------------------|
C|-------------------------------------------------|-------------------------------------------------|
G|-7--7--7--7--7--7--9--9--10-10-10-10-7--7--7--7--|-5--5--5--5--5--5--7--7--5--5--5--5--------------|
D|-------------------------------------------------|-------------------------------------7--7--7--7--|


D|-------------------------------------------------|-------------------------------------------------|
A|-------------------------------------------------|-------------------------------------------------|
F|-------------------------------------------------|-------------------------------------------------|
C|-7--7--7--7--7--7--9--9--10-10-10-10-7--7--7--7--|-5--5--5--5--5--5--7--7--5--5--5--5--------------|
G|-------------------------------------------------|-------------------------------------7--7--7--7--|
D|-------------------------------------------------|-------------------------------------------------|


D|-------------------------------------------------|-------------------------------------------------|
A|-------------------------------------------------|-------------------------------------------------|
F|-------------------------------------------------|-------------------------------------------------|
C|-------------------------------------------------|-------------------------------------------------|
G|-7--7--7--7--7--7--9--9--10-10-10-10-7--7--7--7--|-5--5--5--5--5--5--7--7--5--5--5--5--------------|
D|-------------------------------------------------|-------------------------------------7--7--7--7--|


D|-------------------------------------------------|----------------------------------------|
A|-------------------------------------------------|----------------------------------------|
F|-------------------------------------------------|----------------------------------------|
C|-7--7--7--7--7--7--9--9--10-10-10-10-7--7--7--7--|-5--5--5--5--5--5--7--7--5--------------|
G|-------------------------------------------------|----------------------------------------|
D|-------------------------------------------------|----------------------------------------|


D|-------------------------------------------------|-------------------------------------------------|
A|-------------------------------------------------|-------------------------------------------------|
F|-------------------------------------------------|-------------------------------------------------|
C|-------------------------------------------------|-------------------------------------------------|
G|-5--5--5--5--5--5--5--5--5--5--5--5--5--5--5--5--|-8--8--8--8--8--8--8--8--8--8--8--8--8--8--8--8--|
D|-------------------------------------------------|-------------------------------------------------|


D|-------------------------------------------------|-------------------------------------------------|
A|-------------------------------------------------|-------------------------------------------------|
F|-------------------------------------------------|-------------------------------------------------|
C|-------------------------------------------------|-------------------------------------------------|
G|-------------------------------------------------|-6--6--6--6--6--6--6--6--6--6--6--6--6--6--6--6--|
D|-8--8--8--8--8--8--8--8--8--8--8--8--8--8--8--8--|-------------------------------------------------|


D|-------------------------------------------------|-------------------------------------------------|
A|-------------------------------------------------|-------------------------------------------------|
F|-------------------------------------------------|-------------------------------------------------|
C|-------------------------------------------------|-------------------------------------------------|
G|-5--5--5--5--5--5--5--5--5--5--5--5--5--5--5--5--|-8--8--8--8--8--8--8--8--8--8--8--8--8--8--8--8--|
D|-------------------------------------------------|-------------------------------------------------|


D|-------------------------------------------------|-------------------------------------------------|
A|-------------------------------------------------|-------------------------------------------------|
F|-------------------------------------------------|-------------------------------------------------|
C|-------------------------------------------------|-------------------------------------------------|
G|-------------------------------------------------|-6--6--6--6--6--6--6--6--6--6--6--6--6--6--6--6--|
D|-8--8--8--8--8--8--8--8--8--8--8--8--8--8--8--8--|-------------------------------------------------|


D|-----------------------------------|-----------------------------------|-----------------------------------|
A|-----------------------------------|-----------------------------------|-----------------------------------|
F|-----------------------------------|-----------------------------------|-----------------------------------|
C|-----------------------------------|-----------------------------------|-----------------------------------|
G|-7----7--7--7--7--7----7--7--7--7--|-10---10-10-10-10-10---10-10-10-10-|-9----9--9--9--9--9----9--9--9--9--|
D|-----------------------------------|-----------------------------------|-----------------------------------|


D|-----------------------------------|-----------------------------------|-----------------------------------|
A|-----------------------------------|-----------------------------------|-----------------------------------|
F|-----------------------------------|-----------------------------------|-----------------------------------|
C|-----------------------------------|-----------------------------------|-----------------------------------|
G|-8----8--8--8--8--8----8--8--8--8--|-7----7--7--7--7--7----7--7--7--7--|-10---10-10-10-10-10---10-10-10-10-|
D|-----------------------------------|-----------------------------------|-----------------------------------|


D|-----------------------------------|-----------------------------------|---------------------------------|
A|-----------------------------------|-----------------------------------|---------------------------------|
F|-----------------------------------|-----------------------------------|---------------------------------|
C|-----------------------------------|-----------------------------------|---------------------------------|
G|-9----9--9--9--9--9----9--9--9--9--|-8----8--8--8--8--8----8--8--8--8--|-2---2---2---2---2---2---2---2---|
D|-----------------------------------|-----------------------------------|-0---0---0---0---0---0---0---0---|


D|---------------------------------------|---------------------------------|---------------------------------------|
A|---------------------------------------|---------------------------------|---------------------------------------|
F|---------------------------------------|---------------------------------|---------------------0--0--0--0--0--0--|
C|---------------------------------------|-2-------------------------------|---------------------------------------|
G|-2---2---2---2---2---2--2--2--2--2--2--|-2---2---2---2---2---2---2---2---|-2---2---2---2---2---------------------|
D|-0---0---0---0---0---------------------|-0---0---0---0---0---0---0---0---|-0---0---0---0---0---------------------|


D|---------------------------------|---------------------------------------|---------------------------------|
A|---------------------------------|---------------------------------------|---------------------------------|
F|---------------------------------|---------------------------------------|---------------------------------|
C|---------------------------------|---------------------2--2--2--2--2--2--|---------------------------------|
G|-2---2---2---2---2---2---2---2---|-2---2---2---2---2---------------------|-2---2---2---2---2---2---2---2---|
D|-0---0---0---0---0---0---0---0---|-0---0---0---0---0---------------------|-0---0---0---0---0---0---0---0---|


D|---------------------------------------|---------------------------------|---------------------------------------|
A|---------------------------------------|---------------------------------|---------------------------------------|
F|---------------------0--0--0--0--0--0--|---------------------------------|---------------------------------------|
C|---------------------------------------|-2-------------------------------|---------------------2--2--2--2--2--2--|
G|-2---2---2---2---2---------------------|-2---2---2---2---2---2---2---2---|-2---2---2---2---2---------------------|
D|-0---0---0---0---0---------------------|-0---0---0---0---0---0---0---0---|-0---0---0---0---0---------------------|


D|--------|-------------|--------|-------------|-------------------------------------------------|
A|--------|-------------|--------|-------------|-------------------------------------------------|
F|--------|-------------|--------|-------------|-------------------------------------------------|
C|-9------|-7-----5-----|-9------|-7-----------|-5--5--5--5--7--7--5--5--9--9--9--9--7--7--5--5--|
G|-7------|-5-----3-----|-7------|-5-----7-----|-------------------------------------------------|
D|--------|-------------|--------|-------5-----|-------------------------------------------------|


D|-------------------------------------------------|-------------------------------------------------|
A|-------------------------------------------------|-------------------------------------------------|
F|-------------------------------------------------|-------------------------------------------------|
C|-4--4--4--4--5--5--4--4--2--2--2--2--2--2--2--2--|-5--5--5--5--7--7--5--5--9--9--9--9--7--7--5--5--|
G|-------------------------------------------------|-------------------------------------------------|
D|-------------------------------------------------|-------------------------------------------------|


D|-------------------------------------------------|---------------------------------|
A|-------------------------------------------------|---------------------------------|
F|-------------------------------------------------|---------------------------------|
C|-4--4--4--4--5--5--4--4--2--2--2--2--2--2--2--2--|-2-------------------------------|
G|-------------------------------------------------|-2---2---2---2---2---2---2---2---|
D|-------------------------------------------------|-0---0---0---0---0---0---0---0---|


D|---------------------------------------|---------------------------------|---------------------------------------|
A|---------------------------------------|---------------------------------|---------------------------------------|
F|---------------------0--0--0--0--0--0--|---------------------------------|---------------------------------------|
C|---------------------------------------|-2-------------------------------|---------------------2--2--2--2--2--2--|
G|-2---2---2---2---2---------------------|-2---2---2---2---2---2---2---2---|-2---2---2---2---2---------------------|
D|-0---0---0---0---0---------------------|-0---0---0---0---0---0---0---0---|-0---0---0---0---0---------------------|


D|---------------------------------|---------------------------------------|---------------------------------|
A|---------------------------------|---------------------------------------|---------------------------------|
F|---------------------------------|---------------------0--0--0--0--0--0--|---------------------------------|
C|-2-------------------------------|---------------------------------------|-2-------------------------------|
G|-2---2---2---2---2---2---2---2---|-2---2---2---2---2---------------------|-2---2---2---2---2---2---2---2---|
D|-0---0---0---0---0---0---0---0---|-0---0---0---0---0---------------------|-0---0---0---0---0---0---0---0---|


D|---------------------------------------|--------|-------------|--------|-------------|
A|---------------------------------------|--------|-------------|--------|-------------|
F|---------------------------------------|--------|-------------|--------|-------------|
C|---------------------2--2--2--2--2--2--|-9------|-7-----5-----|-9------|-7-----------|
G|-2---2---2---2---2---------------------|-7------|-5-----3-----|-7------|-5-----7-----|
D|-0---0---0---0---0---------------------|--------|-------------|--------|-------5-----|


D|-------------------------------------------------|-------------------------------------------------|
A|-------------------------------------------------|-------------------------------------------------|
F|-------------------------------------------------|-------------------------------------------------|
C|-5--5--5--5--7--7--5--5--9--9--9--9--7--7--5--5--|-4--4--4--4--5--5--4--4--2--2--2--2--2--2--2--2--|
G|-------------------------------------------------|-------------------------------------------------|
D|-------------------------------------------------|-------------------------------------------------|


D|-------------------------------------------------|-------------------------------------------------|
A|-------------------------------------------------|-------------------------------------------------|
F|-------------------------------------------------|-------------------------------------------------|
C|-5--5--5--5--7--7--5--5--9--9--9--9--7--7--5--5--|-4--4--4--4--5--5--4--4--2--2--2--2--2--2--2--2--|
G|-------------------------------------------------|-------------------------------------------------|
D|-------------------------------------------------|-------------------------------------------------|


D|------------------------|--------|------------------------|--------|-------------------------------------------------|
A|------------------------|--------|------------------------|--------|-------------------------------------------------|
F|------------------------|--------|------------------------|--------|-------------------------------------------------|
C|-9-----8---9------------|--------|-9-----8---9------------|--------|-------------------------------------------------|
G|-7-----6---7------------|--------|-7-----6---7------------|--------|-7--7--7--7--7--7--7--7--7--7--7--7--7--7--7--7--|
D|------------------------|--------|------------------------|--------|-------------------------------------------------|


D|-------------------------------------------------|-------------------------------------------------|
A|-------------------------------------------------|-------------------------------------------------|
F|-------------------------------------------------|-------------------------------------------------|
C|-------------------------------------------------|-------------------------------------------------|
G|-------------------------------------------------|-7--7--7--7--7--7--7--7--7--7--7--7--7--7--7--7--|
D|-5--5--5--5--5--5--5--5--7--7--7--7--7--7--7--7--|-------------------------------------------------|


D|-------------------------------------------------|------------------------|--------|
A|-------------------------------------------------|------------------------|--------|
F|-------------------------------------------------|------------------------|--------|
C|-------------------------------------------------|-12----11--12-----------|--------|
G|-------------------------------------------------|-10----9---10-----------|--------|
D|-5--5--5--5--5--5--5--5--7--7--7--7--7--7--7--7--|------------------------|--------|


D|------------------------|--------|-------------------------------------------------|
A|------------------------|--------|-------------------------------------------------|
F|------------------------|--------|-------------------------------------------------|
C|-12----11--12-----------|--------|-------------------------------------------------|
G|-10----9---10-----------|--------|-10-10-10-10-10-10-12-12-13-13-13-13-13-13-13-13-|
D|------------------------|--------|-------------------------------------------------|


D|-------------------------------------------------|-------------------------------------------------|
A|-------------------------------------------------|-------------------------------------------------|
F|-------------------------------------------------|-------------------------------------------------|
C|-10-10-10-10-10-10-------12-12-12-12-12-12-12-12-|-------------------------------------------------|
G|-------------------12-12-------------------------|-10-10-10-10-10-10-12-12-13-13-13-13-13-13-13-13-|
D|-------------------------------------------------|-------------------------------------------------|


D|-------------------------------------------------|------------------------|--------|
A|-------------------------------------------------|------------------------|--------|
F|-------------------------------------------------|------------------------|--------|
C|-10-10-10-10-10-10-------12-12-12-12-12-12-12-12-|-9-----8---9------------|--------|
G|-------------------12-12-------------------------|-7-----6---7------------|--------|
D|-------------------------------------------------|------------------------|--------|


D|------------------------|--------|-------------------------------------------------|
A|------------------------|--------|-------------------------------------------------|
F|------------------------|--------|-------------------------------------------------|
C|-9-----8---9------------|--------|-------------------------------------------------|
G|-7-----6---7------------|--------|-7--7--7--7--7--7--9--9--10-10-10-10-10-10-10-10-|
D|------------------------|--------|-------------------------------------------------|


D|-------------------------------------------------|-------------------------------------------------|
A|-------------------------------------------------|-------------------------------------------------|
F|-------------------------------------------------|-------------------------------------------------|
C|-7--7--7--7--7--7--------9--9--9--9--9--9--9--9--|-------------------------------------------------|
G|-------------------9--9--------------------------|-7--7--7--7--7--7--9--9--10-10-10-10-10-10-10-10-|
D|-------------------------------------------------|-------------------------------------------------|


D|-------------------------------------------------|--------|--------|--------|--------|
A|-------------------------------------------------|--------|--------|--------|--------|
F|-------------------------------------------------|--------|--------|--------|--------|
C|-7--7--7--7--7--7--------9--9--9--9--9--9--9--9--|--------|--------|--------|--------|
G|-------------------9--9--------------------------|--------|--------|--------|--------|
D|-------------------------------------------------|--------|--------|--------|--------|


D|-------------------------------------------------|-------------------------------------------------|
A|-------------------------------------------------|-------------------------------------------------|
F|-------------------------------------------------|-------------------------------------------------|
C|-------------------------------------------------|-8--8--8--8--8--8--8--8--10-10-10-10-10-10-10-10-|
G|-10-10-10-10-10-10-10-10-10-10-10-10-10-10-10-10-|-------------------------------------------------|
D|-------------------------------------------------|-------------------------------------------------|


D|-------------------------------------------------|-------------------------------------------------|
A|-------------------------------------------------|-------------------------------------------------|
F|-------------------------------------------------|-------------------------7--7--7--7--7--7--7--7--|
C|-------------------------------------------------|-8--8--8--8--8--8--8--8--------------------------|
G|-10-10-10-10-10-10-10-10-10-10-10-10-10-10-10-10-|-------------------------------------------------|
D|-------------------------------------------------|-------------------------------------------------|


D|------------------------|--------|---------------------|
A|------------------------|--------|---------------------|
F|------------------------|--------|---------------------|
C|-9-----8---9------------|--------|-9-----8---9---------|
G|-7-----6---7------------|--------|-7-----6---7---------|
D|------------------------|--------|---------------------|





Track 5: Solo Guitar

D|--------|--------|--------|--------|--------|--------|--------|--------|--------|
A|--------|--------|--------|--------|--------|--------|--------|--------|--------|
F|--------|--------|--------|--------|--------|--------|--------|--------|--------|
C|--------|--------|--------|--------|--------|--------|--------|--------|--------|
G|--------|--------|--------|--------|--------|--------|--------|--------|--------|
D|--------|--------|--------|--------|--------|--------|--------|--------|--------|


D|--------|--------|--------|--------|--------|--------|--------|--------|--------|
A|--------|--------|--------|--------|--------|--------|--------|--------|--------|
F|--------|--------|--------|--------|--------|--------|--------|--------|--------|
C|--------|--------|--------|--------|--------|--------|--------|--------|--------|
G|--------|--------|--------|--------|--------|--------|--------|--------|--------|
D|--------|--------|--------|--------|--------|--------|--------|--------|--------|


D|--------|--------|--------|--------|--------|--------|--------|--------|--------|
A|--------|--------|--------|--------|--------|--------|--------|--------|--------|
F|--------|--------|--------|--------|--------|--------|--------|--------|--------|
C|--------|--------|--------|--------|--------|--------|--------|--------|--------|
G|--------|--------|--------|--------|--------|--------|--------|--------|--------|
D|--------|--------|--------|--------|--------|--------|--------|--------|--------|


D|--------|--------|--------|--------|--------|--------|--------|--------|--------|
A|--------|--------|--------|--------|--------|--------|--------|--------|--------|
F|--------|--------|--------|--------|--------|--------|--------|--------|--------|
C|--------|--------|--------|--------|--------|--------|--------|--------|--------|
G|--------|--------|--------|--------|--------|--------|--------|--------|--------|
D|--------|--------|--------|--------|--------|--------|--------|--------|--------|


D|--------|--------|--------|--------|--------|--------|--------|--------|--------|
A|--------|--------|--------|--------|--------|--------|--------|--------|--------|
F|--------|--------|--------|--------|--------|--------|--------|--------|--------|
C|--------|--------|--------|--------|--------|--------|--------|--------|--------|
G|--------|--------|--------|--------|--------|--------|--------|--------|--------|
D|--------|--------|--------|--------|--------|--------|--------|--------|--------|


D|--------|--------|--------|--------|--------|--------|--------|--------|--------|
A|--------|--------|--------|--------|--------|--------|--------|--------|--------|
F|--------|--------|--------|--------|--------|--------|--------|--------|--------|
C|--------|--------|--------|--------|--------|--------|--------|--------|--------|
G|--------|--------|--------|--------|--------|--------|--------|--------|--------|
D|--------|--------|--------|--------|--------|--------|--------|--------|--------|


D|--------|--------|--------|--------|--------|--------|--------|--------|--------|
A|--------|--------|--------|--------|--------|--------|--------|--------|--------|
F|--------|--------|--------|--------|--------|--------|--------|--------|--------|
C|--------|--------|--------|--------|--------|--------|--------|--------|--------|
G|--------|--------|--------|--------|--------|--------|--------|--------|--------|
D|--------|--------|--------|--------|--------|--------|--------|--------|--------|


D|--------|--------|--------|--------|--------|--------|--------|--------|--------|
A|--------|--------|--------|--------|--------|--------|--------|--------|--------|
F|--------|--------|--------|--------|--------|--------|--------|--------|--------|
C|--------|--------|--------|--------|--------|--------|--------|--------|--------|
G|--------|--------|--------|--------|--------|--------|--------|--------|--------|
D|--------|--------|--------|--------|--------|--------|--------|--------|--------|


D|--------|--------|--------|--------|--------|--------|--------|--------|--------|
A|--------|--------|--------|--------|--------|--------|--------|--------|--------|
F|--------|--------|--------|--------|--------|--------|--------|--------|--------|
C|--------|--------|--------|--------|--------|--------|--------|--------|--------|
G|--------|--------|--------|--------|--------|--------|--------|--------|--------|
D|--------|--------|--------|--------|--------|--------|--------|--------|--------|


D|--------|--------|--------|--------|--------|--------|--------|--------|--------|
A|--------|--------|--------|--------|--------|--------|--------|--------|--------|
F|--------|--------|--------|--------|--------|--------|--------|--------|--------|
C|--------|--------|--------|--------|--------|--------|--------|--------|--------|
G|--------|--------|--------|--------|--------|--------|--------|--------|--------|
D|--------|--------|--------|--------|--------|--------|--------|--------|--------|


D|--------|--------|--------|--------|--------|--------|--------|--------|--------|
A|--------|--------|--------|--------|--------|--------|--------|--------|--------|
F|--------|--------|--------|--------|--------|--------|--------|--------|--------|
C|--------|--------|--------|--------|--------|--------|--------|--------|--------|
G|--------|--------|--------|--------|--------|--------|--------|--------|--------|
D|--------|--------|--------|--------|--------|--------|--------|--------|--------|


D|--------|--------|--------|--------|--------|--------|-------------------------------------------------|
A|--------|--------|--------|--------|--------|--------|-17-12-17-12-17-12-17-12-17-12-17-12-17-12-17-12-|
F|--------|--------|--------|--------|--------|--------|-------------------------------------------------|
C|--------|--------|--------|--------|--------|--------|-------------------------------------------------|
G|--------|--------|--------|--------|--------|--------|-------------------------------------------------|
D|--------|--------|--------|--------|--------|--------|-------------------------------------------------|


D|-------------------------------------------------|-------------------------------------------------|
A|-16-12-16-12-16-12-16-12-17-12-17-12-17-12-17-12-|-17-12-17-12-17-12-17-12-17-12-17-12-17-12-17-12-|
F|-------------------------------------------------|-------------------------------------------------|
C|-------------------------------------------------|-------------------------------------------------|
G|-------------------------------------------------|-------------------------------------------------|
D|-------------------------------------------------|-------------------------------------------------|


D|-------------------------------------------------|-------------------------------------------------|
A|-16-12-16-12-16-12-16-12-17-12-17-12-17-12-17-12-|-12-8--12-8--12-8--12-8--12-8--12-8--12-8--12-8--|
F|-------------------------------------------------|-------------------------------------------------|
C|-------------------------------------------------|-------------------------------------------------|
G|-------------------------------------------------|-------------------------------------------------|
D|-------------------------------------------------|-------------------------------------------------|


D|-------------------------------------------------|-------------------------------------------------|
A|-13-8--13-8--13-8--13-8--12-8--12-8--12-8--12-8--|-12-8--12-8--12-8--12-8--12-8--12-8--12-8--12-8--|
F|-------------------------------------------------|-------------------------------------------------|
C|-------------------------------------------------|-------------------------------------------------|
G|-------------------------------------------------|-------------------------------------------------|
D|-------------------------------------------------|-------------------------------------------------|


D|-------------------------------------------------|----------------------|--------|
A|-13-8--13-8--13-8--13-8--12-8--12-8--12-8--12-8--|-12-8--8--------------|--------|
F|-------------------------------------------------|----------------------|--------|
C|-------------------------------------------------|----------------------|--------|
G|-------------------------------------------------|----------------------|--------|
D|-------------------------------------------------|----------------------|--------|


D|--------|
A|--------|
F|--------|
C|--------|
G|--------|
D|--------|





Track 6: Bass

F|--------|--------|--------|--------|--------|--------|--------|--------|--------|
C|--------|--------|--------|--------|--------|--------|--------|--------|--------|
G|--------|--------|--------|--------|--------|--------|--------|--------|--------|
D|--------|--------|--------|--------|--------|--------|--------|--------|--------|


F|--------|--------|--------|-----------------|--------|--------|----------------|
C|--------|--------|--------|-----------------|--------|--------|----------------|
G|--------|--------|--------|-----------------|--------|--------|--------2---3---|
D|--------|--------|--------|-----------------|--------|--------|-0--------------|


F|--------|----------------|--------|----------------|--------|----------------|--------|
C|--------|----------------|-2------|----------------|--------|----------------|-2------|
G|-2------|-0------2---3---|--------|--------2---3---|-2------|-0------2---3---|--------|
D|--------|----------------|--------|-0--------------|--------|----------------|--------|


F|---------------------------------|---------------------------------|---------------------------------|
C|---------------------------------|---------------------------------|---------------------------------|
G|---------------------------------|-5---5---5---5---5---5---5---5---|---------------------------------|
D|-0---0---0---0---0---0---0---0---|---------------------------------|-5---5---5---5---5---5---5---5---|


F|---------------------------------|---------------------------------|---------------------------------|
C|---------------------------------|---------------------------------|---------------------------------|
G|-7---7---7---7---7---7---7---7---|---------------------------------|-5---5---5---5---5---5---5---5---|
D|---------------------------------|-0---0---0---0---0---0---0---0---|---------------------------------|


F|---------------------------------|------------------------------|---------------------------------|
C|---------------------------------|------------------------------|-0---0---0---0---0---0---0---0---|
G|---------------------------------|-7---7---7---7---7------------|---------------------------------|
D|-5---5---5---5---5---5---5---5---|------------------------------|---------------------------------|


F|---------------------------------|---------------------------------|---------------------------------|
C|-3---3---3---3---3---3---3---3---|---------------------------------|-1---1---1---1---1---1---1---1---|
G|---------------------------------|-3---3---3---3---3---3---3---3---|---------------------------------|
D|---------------------------------|---------------------------------|---------------------------------|


F|---------------------------------|---------------------------------|---------------------------------|
C|-0---0---0---0---0---0---0---0---|-3---3---3---3---3---3---3---3---|---------------------------------|
G|---------------------------------|---------------------------------|-3---3---3---3---3---3---3---3---|
D|---------------------------------|---------------------------------|---------------------------------|


F|---------------------------------|---------------------------|---------------------------|
C|-1---1---1---1---1---1---1---1---|-2----2---2---2----2---2---|-5----5---5---5----5---5---|
G|---------------------------------|---------------------------|---------------------------|
D|---------------------------------|---------------------------|---------------------------|


F|---------------------------|---------------------------|---------------------------|
C|-4----4---4---4----4---4---|-3----3---3---3----3---3---|-2----2---2---2----2---2---|
G|---------------------------|---------------------------|---------------------------|
D|---------------------------|---------------------------|---------------------------|


F|---------------------------|---------------------------|---------------------------|
C|-5----5---5---5----5---5---|-4----4---4---4----4---4---|-3----3---3---3----3---3---|
G|---------------------------|---------------------------|---------------------------|
D|---------------------------|---------------------------|---------------------------|


F|---------------------------------|---------------------------------|---------------------------------|
C|---------------------------------|---------------------------------|---------------------------------|
G|---------------------------------|---------------------------------|---------------------------------|
D|-0---0---0---0---0---0---0---0---|-0---0---0---0---0---0---0---0---|-0---0---0---0---0---0---0---0---|


F|---------------------------------|---------------------------------|---------------------------------|
C|---------------------------------|---------------------------------|---------------------------------|
G|---------------------------------|---------------------------------|---------------------3---3---3---|
D|-0---0---0---0---0---0---0---0---|-0---0---0---0---0---0---0---0---|-0---0---0---0---0---------------|


F|---------------------------------|---------------------------------|---------------------------------|
C|---------------------------------|---------------------------------|---------------------------------|
G|---------------------------------|---------------------------------|---------------------------------|
D|-0---0---0---0---0---0---0---0---|-0---0---0---0---0---0---0---0---|-0---0---0---0---0---0---0---0---|


F|---------------------------------|---------------------------------|---------------------------------|
C|---------------------------------|-2---2---2---2---2---2---2---2---|-0---0---0---0-------------------|
G|---------------------3---3---3---|---------------------------------|-----------------3---3---3---3---|
D|-0---0---0---0---0---------------|---------------------------------|---------------------------------|


F|---------------------------------|---------------------------------|---------------------------------|
C|-2---2---2---2---2---2---2---2---|-0---0---0---0-------------------|-2---2---2---2---2---2---2---2---|
G|---------------------------------|-----------------0---0---0---0---|---------------------------------|
D|---------------------------------|---------------------------------|---------------------------------|


F|---------------------------------|---------------------------------|---------------------------------|
C|-0---0---0---0-------------------|-2---2---2---2---2---2---2---2---|-0---0---0---0-------------------|
G|-----------------3---3---3---3---|---------------------------------|-----------------0---0---0---0---|
D|---------------------------------|---------------------------------|---------------------------------|


F|---------------------------------|---------------------------------|---------------------------------|
C|---------------------------------|---------------------------------|---------------------------------|
G|---------------------------------|---------------------------------|---------------------------------|
D|-0---0---0---0---0---0---0---0---|-0---0---0---0---0---0---0---0---|-0---0---0---0---0---0---0---0---|


F|---------------------------------|---------------------------------|---------------------------------|
C|---------------------------------|---------------------------------|---------------------------------|
G|---------------------3---3---3---|---------------------------------|---------------------------------|
D|-0---0---0---0---0---------------|-0---0---0---0---0---0---0---0---|-0---0---0---0---0---0---0---0---|


F|---------------------------------|---------------------------------|---------------------------------|
C|---------------------------------|---------------------------------|-2---2---2---2---2---2---2---2---|
G|---------------------------------|---------------------3---3---3---|---------------------------------|
D|-0---0---0---0---0---0---0---0---|-0---0---0---0---0---------------|---------------------------------|


F|---------------------------------|---------------------------------|---------------------------------|
C|-0---0---0---0-------------------|-2---2---2---2---2---2---2---2---|-0---0---0---0-------------------|
G|-----------------3---3---3---3---|---------------------------------|-----------------0---0---0---0---|
D|---------------------------------|---------------------------------|---------------------------------|


F|---------------------------------|---------------------------------|---------------------------------|
C|-2---2---2---2---2---2---2---2---|-0---0---0---0-------------------|-2---2---2---2---2---2---2---2---|
G|---------------------------------|-----------------3---3---3---3---|---------------------------------|
D|---------------------------------|---------------------------------|---------------------------------|


F|---------------------------------|------------------------|--------|------------------------|
C|-0---0---0---0-------------------|-2-----1---2------------|--------|-2-----1---2------------|
G|-----------------0---0---0---0---|------------------------|--------|------------------------|
D|---------------------------------|------------------------|--------|------------------------|


F|--------|---------------------------------|---------------------------------|---------------------------------|
C|--------|-2---2---2---2---2---2---2---2---|---------------------------------|-2---2---2---2---2---2---2---2---|
G|--------|---------------------------------|-0---0---0---0---2---2---2---2---|---------------------------------|
D|--------|---------------------------------|---------------------------------|---------------------------------|


F|---------------------------------|------------------------|-------------|------------------------|
C|---------------------------------|-5----------------------|-------------|------------------------|
G|-0---0---0---0---2---2---2---2---|-------9---10-----------|--------2----|-10----9---10-----------|
D|---------------------------------|------------------------|-------------|------------------------|


F|--------|---------------------------------|---------------------------------|---------------------------------|
C|--------|---------------------------------|---------------------------------|---------------------------------|
G|--------|-10--10--10--10--10--10--10--10--|---------------------------------|-10--10--10--10--10--10--10--10--|
D|--------|---------------------------------|-8---8---8---8---10--10--10--10--|---------------------------------|


F|---------------------------------|------------------------|--------|------------------------|
C|---------------------------------|------------------------|--------|------------------------|
G|---------------------------------|-7-----6---7------------|--------|-7-----6---7------------|
D|-8---8---8---8---10--10--10--10--|------------------------|--------|------------------------|


F|--------|---------------------------------|---------------------------------|---------------------------------|
C|--------|---------------------------------|---------------------------------|---------------------------------|
G|--------|-7---7---7---7---7---7---7---7---|---------------------------------|-7---7---7---7---7---7---7---7---|
D|--------|---------------------------------|-5---5---5---5---7---7---7---7---|---------------------------------|


F|---------------------------------|---------------------------------|---------------------------------|
C|---------------------------------|---------------------------------|---------------------------------|
G|---------------------------------|-7---7---7---7---7---7---7---7---|---------------------------------|
D|-5---5---5---5---7---7---7---7---|---------------------------------|-5---5---5---5---7---7---7---7---|


F|---------------------------------|---------------------------------|---------------------------------|
C|---------------------------------|---------------------------------|---------------------------------|
G|-7---7---7---7---7---7---7---7---|---------------------------------|-10--10--10--10--10--10--10--10--|
D|---------------------------------|-5---5---5---5---7---7---7---7---|---------------------------------|


F|---------------------------------|---------------------------------|---------------------------------|
C|---------------------------------|---------------------------------|---------------------------------|
G|---------------------------------|-10--10--10--10--10--10--10--10--|---------------------------------|
D|-8---8---8---8---10--10--10--10--|---------------------------------|-8---8---8---8---10--10--10--10--|


F|------------------------|--------|---------------------|
C|------------------------|--------|---------------------|
G|-7-----6---7------------|--------|-7-----6---7---------|
D|------------------------|--------|---------------------|