Site menu:

    

Browse: 0-9 A B C D E F G H I J K L N O P Q R S T U V W X Y Z

in flames - everlost part i:



Title: Everlost Part 1
Artist: 
Album: Lunar Strain
Author: In Flames


Track 1: Untitled

D|-------------|---------------------|-------------|-----------------|-------------|
A|-------------|---------------------|-------------|-----------------|-------------|
F|-------------|---------------------|-------------|-----------------|-------------|
C|--------2----|---------------------|--------2----|-----------------|--------2----|
G|-------------|-2--------------3----|-------------|-2----3----5-----|-------------|
D|-0-----------|------3----2---------|-0-----------|-----------------|-0-----------|


D|---------------------|-------------|-----------------|-------------|---------------------|
A|---------------------|-------------|-----------------|-------------|---------------------|
F|---------------------|-------------|-----------------|-------------|---------------------|
C|---------------------|--------2----|-----------------|--------2----|---------------------|
G|-2--------------3----|-------------|-2----3----5-----|-------------|-2--------------3----|
D|------3----2---------|-0-----------|-----------------|-0-----------|------3----2---------|


D|-------------|-----------------|-------------|---------------------|-------------|
A|-------------|-----------------|-------------|---------------------|-------------|
F|-------------|-----------------|-------------|---------------------|-------------|
C|--------2----|-----------------|--------2----|---------------------|--------2----|
G|-------------|-2----3----5-----|-------------|-2--------------3----|-------------|
D|-0-----------|-----------------|-0-----------|------3----2---------|-0-----------|


D|-----------------|-------------|---------------------|-------------|-----------------|
A|-----------------|-------------|---------------------|-------------|-----------------|
F|-----------------|-------------|---------------------|-------------|-----------------|
C|-----------------|--------2----|---------------------|--------2----|-----------------|
G|-2----3----5-----|-------------|-2--------------3----|-------------|-2----3----5-----|
D|-----------------|-0-----------|------3----2---------|-0-----------|-----------------|


D|-------------|---------------------|-------------|-----------------|-------------|
A|-------------|---------------------|-------------|-----------------|-------------|
F|-------------|---------------------|-------------|-----------------|-------------|
C|--------2----|---------------------|--------2----|-----------------|--------2----|
G|-------------|-2--------------3----|-------------|-2----3----5-----|-------------|
D|-0-----------|------3----2---------|-0-----------|-----------------|-0-----------|


D|---------------------|-------------|-----------------|---------------------------|
A|---------------------|-------------|-----------------|---------------------------|
F|---------------------|-------------|-----------------|---------------------------|
C|---------------------|--------2----|-----------------|-5-----5---3---5---6---3---|
G|-2--------------3----|-------------|-2----3----5-----|---------------------------|
D|------3----2---------|-0-----------|-----------------|---------------------------|


D|-----------------|---------------------------|---------------------|---------------------------|
A|-----------------|---------------------------|---------------------|---------------------------|
F|-----------------|---------------------------|---------------------|---------------------------|
C|-5-----5---3-----|-5-----5---3---5---6---3---|-5-----5---3---------|---------------------------|
G|-----------------|---------------------------|----------------5----|-5-----5---3---5---6---3---|
D|-----------------|---------------------------|---------------------|---------------------------|


D|-----------------|---------------------------|---------------------|-------------|
A|-----------------|---------------------------|---------------------|-------------|
F|-----------------|---------------------------|---------------------|-------4-----|
C|-----------------|---------------------------|---------------------|-2-----------|
G|-5-----5---3-----|-5-----5---3---5---6---3---|-5-----5---3---------|-------------|
D|-----------------|---------------------------|----------------5----|-------------|


D|-------------|-------------|-------------|-------------|-------------|-------------|
A|-------------|-------------|-------------|-------------|-------------|-------------|
F|-------2-----|-------------|-------------|-------4-----|-------2-----|-------------|
C|-------------|-------2-----|-------------|-2-----------|-------------|-------2-----|
G|-5-----------|-0-----------|-3-----5-----|-------------|-5-----------|-0-----------|
D|-------------|-------------|-------------|-------------|-------------|-------------|


D|-------------|---------------------------|-----------------|---------------------------|
A|-------------|---------------------------|-----------------|---------------------------|
F|-------------|---------------------------|-----------------|---------------------------|
C|-------------|-5-----5---3---5---6---3---|-5-----5---3-----|-5-----5---3---5---6---3---|
G|-3-----5-----|---------------------------|-----------------|---------------------------|
D|-------------|---------------------------|-----------------|---------------------------|


D|---------------------|---------------------------|-----------------|---------------------------|
A|---------------------|---------------------------|-----------------|---------------------------|
F|---------------------|---------------------------|-----------------|---------------------------|
C|-5-----5---3---------|---------------------------|-----------------|---------------------------|
G|----------------5----|-5-----5---3---5---6---3---|-5-----5---3-----|-5-----5---3---5---6---3---|
D|---------------------|---------------------------|-----------------|---------------------------|


D|---------------------|-------------|-------------|-------------|-------------|-------------|
A|---------------------|-------------|-------------|-------------|-------------|-------------|
F|---------------------|-------4-----|-------2-----|-------------|-------------|-------4-----|
C|---------------------|-2-----------|-------------|-------2-----|-------------|-2-----------|
G|-5-----5---3---------|-------------|-5-----------|-0-----------|-3-----5-----|-------------|
D|----------------5----|-------------|-------------|-------------|-------------|-------------|


D|-------------|-------------|-------------|------------------------------|------------------------------|
A|-------------|-------------|-------------|------------------------------|------------------------------|
F|-------2-----|-------------|-------------|------------------------------|----------------------2-------|
C|-------------|-------2-----|-------------|-2----2---1---2---4---5---4---|-1----1---2---4---5-------4---|
G|-5-----------|-0-----------|-3-----5-----|------------------------------|------------------------------|
D|-------------|-------------|-------------|------------------------------|------------------------------|


D|------------------------------|---------------------------|------------------------------|
A|------------------------------|---------------------------|------------------------------|
F|------------------2---4---5---|-4----2--------------------|------------------------------|
C|-5----5---4---5---------------|----------5---4----2---1---|-2----2---1---2---4---5---4---|
G|------------------------------|---------------------------|------------------------------|
D|------------------------------|---------------------------|------------------------------|


D|------------------------------|------------------------------|---------------------------|
A|------------------------------|------------------------------|---------------------------|
F|----------------------2-------|------------------2---4---5---|-4----2--------------------|
C|-1----1---2---4---5-------4---|-5----5---4---5---------------|----------5---4----2---1---|
G|------------------------------|------------------------------|---------------------------|
D|------------------------------|------------------------------|---------------------------|


D|--------|------------------------------|------------------------------|------------------------------|
A|--------|------------------------------|------------------------------|------------------------------|
F|--------|------------------------------|----------------------2-------|------------------2---4---5---|
C|--------|-2----2---1---2---4---5---4---|-1----1---2---4---5-------4---|-5----5---4---5---------------|
G|--------|------------------------------|------------------------------|------------------------------|
D|--------|------------------------------|------------------------------|------------------------------|


D|---------------------------|------------------------------|------------------------------|
A|---------------------------|------------------------------|------------------------------|
F|-4----2--------------------|------------------------------|----------------------2-------|
C|----------5---4----2---1---|-2----2---1---2---4---5---4---|-1----1---2---4---5-------4---|
G|---------------------------|------------------------------|------------------------------|
D|---------------------------|------------------------------|------------------------------|


D|------------------------------|---------------------------|------------------------------|
A|------------------------------|---------------------------|------------------------------|
F|------------------2---4---5---|-4----2--------------------|------------------------------|
C|-5----5---4---5---------------|----------5---4----2---1---|-2----2---1---2---4---5---4---|
G|------------------------------|---------------------------|------------------------------|
D|------------------------------|---------------------------|------------------------------|


D|------------------------------|------------------------------|---------------------------|
A|------------------------------|------------------------------|---------------------------|
F|----------------------2-------|------------------2---4---5---|-4----2--------------------|
C|-1----1---2---4---5-------4---|-5----5---4---5---------------|----------5---4----2---1---|
G|------------------------------|------------------------------|---------------------------|
D|------------------------------|------------------------------|---------------------------|


D|------------------------------|------------------------------|------------------------------|
A|------------------------------|------------------------------|------------------------------|
F|------------------------------|----------------------2-------|------------------2---4---5---|
C|-2----2---1---2---4---5---4---|-1----1---2---4---5-------4---|-5----5---4---5---------------|
G|------------------------------|------------------------------|------------------------------|
D|------------------------------|------------------------------|------------------------------|


D|---------------------------|-------------|---------------------|-------------|-----------------|
A|---------------------------|-------------|---------------------|-------------|-----------------|
F|-4----2--------------------|-------------|---------------------|-------------|-----------------|
C|----------5---4----2---1---|--------2----|---------------------|--------2----|-----------------|
G|---------------------------|-------------|-2--------------3----|-------------|-2----3----5-----|
D|---------------------------|-0-----------|------3----2---------|-0-----------|-----------------|


D|-------------|---------------------|-------------|-----------------|-------------|
A|-------------|---------------------|-------------|-----------------|-------------|
F|-------------|---------------------|-------------|-----------------|-------------|
C|--------2----|---------------------|--------2----|-----------------|--------2----|
G|-------------|-2--------------3----|-------------|-2----3----5-----|-------------|
D|-0-----------|------3----2---------|-0-----------|-----------------|-0-----------|


D|---------------------|-------------|-----------------|---------------------------|
A|---------------------|-------------|-----------------|---------------------------|
F|---------------------|-------------|-----------------|---------------------------|
C|---------------------|--------2----|-----------------|-5-----5---3---5---6---3---|
G|-2--------------3----|-------------|-2----3----5-----|---------------------------|
D|------3----2---------|-0-----------|-----------------|---------------------------|


D|-----------------|---------------------------|---------------------|---------------------------|
A|-----------------|---------------------------|---------------------|---------------------------|
F|-----------------|---------------------------|---------------------|---------------------------|
C|-5-----5---3-----|-5-----5---3---5---6---3---|-5-----5---3---------|---------------------------|
G|-----------------|---------------------------|----------------5----|-5-----5---3---5---6---3---|
D|-----------------|---------------------------|---------------------|---------------------------|


D|-----------------|---------------------------|---------------------|-------------|
A|-----------------|---------------------------|---------------------|-------------|
F|-----------------|---------------------------|---------------------|-------4-----|
C|-----------------|---------------------------|---------------------|-2-----------|
G|-5-----5---3-----|-5-----5---3---5---6---3---|-5-----5---3---------|-------------|
D|-----------------|---------------------------|----------------5----|-------------|


D|-------------|-------------|-------------|-------------|-------------|-------------|
A|-------------|-------------|-------------|-------------|-------------|-------------|
F|-------2-----|-------------|-------------|-------4-----|-------2-----|-------------|
C|-------------|-------2-----|-------------|-2-----------|-------------|-------2-----|
G|-5-----------|-0-----------|-3-----5-----|-------------|-5-----------|-0-----------|
D|-------------|-------------|-------------|-------------|-------------|-------------|


D|-------------|---------------------------|-----------------|---------------------------|
A|-------------|---------------------------|-----------------|---------------------------|
F|-------------|---------------------------|-----------------|---------------------------|
C|-------------|-5-----5---3---5---6---3---|-5-----5---3-----|-5-----5---3---5---6---3---|
G|-3-----5-----|---------------------------|-----------------|---------------------------|
D|-------------|---------------------------|-----------------|---------------------------|


D|---------------------|---------------------------|-----------------|---------------------------|
A|---------------------|---------------------------|-----------------|---------------------------|
F|---------------------|---------------------------|-----------------|---------------------------|
C|-5-----5---3---------|---------------------------|-----------------|---------------------------|
G|----------------5----|-5-----5---3---5---6---3---|-5-----5---3-----|-5-----5---3---5---6---3---|
D|---------------------|---------------------------|-----------------|---------------------------|


D|---------------------|-------------|-------------|-------------|-------------|-------------|
A|---------------------|-------------|-------------|-------------|-------------|-------------|
F|---------------------|-------4-----|-------2-----|-------------|-------------|-------16----|
C|---------------------|-2-----------|-------------|-------2-----|-------------|-14----------|
G|-5-----5---3---------|-------------|-5-----------|-0-----------|-3-----5-----|-------------|
D|----------------5----|-------------|-------------|-------------|-------------|-------------|


D|-----------------------------|---------------14--15--|-14-15-14------17--15--14-------|
A|-------------------------17--|-17--------17----------|-----------17-------------------|
F|-17---16--17-16-14--16-------|-------16--------------|--------------------------------|
C|-----------------------------|-----------------------|---------------------------17---|
G|-----------------------------|-----------------------|--------------------------------|
D|-----------------------------|-----------------------|--------------------------------|


D|--------|--------|--------|--------|--------|--------|--------|--------|------------------------------|
A|--------|--------|--------|--------|--------|--------|--------|--------|------------------------------|
F|--------|--------|--------|--------|--------|--------|--------|--------|------------------------------|
C|-17-----|--------|--------|--------|-17-----|--------|--------|--------|-2----2---1---2---4---5---4---|
G|--------|--------|--------|--------|--------|--------|--------|--------|------------------------------|
D|--------|--------|--------|--------|--------|--------|--------|--------|------------------------------|


D|------------------------------|------------------------------|---------------------------|
A|------------------------------|------------------------------|---------------------------|
F|----------------------2-------|------------------2---4---5---|-4----2--------------------|
C|-1----1---2---4---5-------4---|-5----5---4---5---------------|----------5---4----2---1---|
G|------------------------------|------------------------------|---------------------------|
D|------------------------------|------------------------------|---------------------------|


D|------------------------------|------------------------------|------------------------------|
A|------------------------------|------------------------------|------------------------------|
F|------------------------------|----------------------2-------|------------------2---4---5---|
C|-2----2---1---2---4---5---4---|-1----1---2---4---5-------4---|-5----5---4---5---------------|
G|------------------------------|------------------------------|------------------------------|
D|------------------------------|------------------------------|------------------------------|


D|---------------------------|--------|--------|-7---7------|-7------|
A|---------------------------|--------|--------|-8---5------|-5------|
F|-4----2--------------------|--------|--------|------------|--------|
C|----------5---4----2---1---|-2------|-2------|------------|--------|
G|---------------------------|-2------|-2------|------------|--------|
D|---------------------------|-0------|-0------|------------|--------|





Track 2: Untitled

D|--------|--------|--------|--------|-------------|---------------------|-------------|
A|--------|--------|--------|--------|-------------|---------------------|-------------|
F|--------|--------|--------|--------|-------------|---------------------|-------------|
C|--------|--------|--------|--------|-2------5----|-4----2----2----0----|--------5----|
G|--------|--------|--------|--------|-2-----------|---------------------|-------------|
D|--------|--------|--------|--------|-0-----------|---------------------|-0-----------|


D|-----------------|-------------|---------------------|-------------|-----------------|
A|-----------------|-------------|---------------------|-------------|-----------------|
F|-----------2-----|-------------|---------------------|-------------|-----------2-----|
C|-4----5----------|-2------5----|-4----2----2----0----|--------5----|-4----5----------|
G|-----------------|-2-----------|---------------------|-------------|-----------------|
D|-----------------|-0-----------|---------------------|-0-----------|-----------------|


D|--------|--------|--------|--------|--------|--------|--------|--------|-------------|
A|--------|--------|--------|--------|--------|--------|--------|--------|-------------|
F|--------|--------|--------|--------|--------|--------|--------|--------|-------------|
C|-2------|-2------|-2------|-2------|-2------|-2------|-2------|-2------|-2------5----|
G|-2------|-2------|-2------|-2------|-2------|-2------|-2------|-2------|-2-----------|
D|-0------|-0------|-0------|-0------|-0------|-0------|-0------|-0------|-0-----------|


D|---------------------|-------------|-----------------|-------------|---------------------|
A|---------------------|-------------|-----------------|-------------|---------------------|
F|---------------------|-------------|-----------2-----|-------------|---------------------|
C|-4----2----2----0----|--------5----|-4----5----------|-2------5----|-4----2----2----0----|
G|---------------------|-------------|-----------------|-2-----------|---------------------|
D|---------------------|-0-----------|-----------------|-0-----------|---------------------|


D|-------------|-----------------|---------------------------|-----------------|---------------------------|
A|-------------|-----------------|---------------------------|-----------------|---------------------------|
F|-------------|-----------2-----|---------------------------|-----------------|---------------------------|
C|--------5----|-4----5----------|-------------------3-------|-----------------|-------------------3-------|
G|-------------|-----------------|-6-----6---5---6-------5---|-6-----6---5-----|-6-----6---5---6-------5---|
D|-0-----------|-----------------|---------------------------|-----------------|---------------------------|


D|---------------------|---------------------------|-----------------|---------------------------|
A|---------------------|---------------------------|-----------------|---------------------------|
F|---------------------|---------------------------|-----------------|---------------------------|
C|---------------------|---------------------------|-----------------|---------------------------|
G|-6-----6---5---------|-------------------3-------|-----------------|-------------------3-------|
D|----------------6----|-6-----6---5---6-------5---|-6-----6---5-----|-6-----6---5---6-------5---|


D|-----------------|-------------|-------------|-------------|-------------|-------------|
A|-----------------|-------------|-------------|-------------|-------------|-------------|
F|-----------------|-------------|-------------|-5-----4-----|-------------|-------------|
C|-----------------|-5-----2-----|-4-----0-----|-------------|-5-----4-----|-5-----2-----|
G|-----------------|-------------|-------------|-------------|-------------|-------------|
D|-6-----6---5-----|-------------|-------------|-------------|-------------|-------------|


D|-------------|-------------|-------------|---------------------------|-----------------|
A|-------------|-------------|-------------|---------------------------|-----------------|
F|-------------|-5-----4-----|-------------|---------------------------|-----------------|
C|-4-----0-----|-------------|-5-----4-----|-------------------3-------|-----------------|
G|-------------|-------------|-------------|-6-----6---5---6-------5---|-6-----6---5-----|
D|-------------|-------------|-------------|---------------------------|-----------------|


D|---------------------------|---------------------|---------------------------|-----------------|
A|---------------------------|---------------------|---------------------------|-----------------|
F|---------------------------|---------------------|---------------------------|-----------------|
C|-------------------3-------|---------------------|---------------------------|-----------------|
G|-6-----6---5---6-------5---|-6-----6---5---------|-------------------3-------|-----------------|
D|---------------------------|----------------6----|-6-----6---5---6-------5---|-6-----6---5-----|


D|---------------------------|-----------------|-------------|-------------|-------------|
A|---------------------------|-----------------|-------------|-------------|-------------|
F|---------------------------|-----------------|-------------|-------------|-5-----4-----|
C|---------------------------|-----------------|-5-----2-----|-4-----0-----|-------------|
G|-------------------3-------|-----------------|-------------|-------------|-------------|
D|-6-----6---5---6-------5---|-6-----6---5-----|-------------|-------------|-------------|


D|-------------|-------------|-------------|-------------|-------------|--------|--------|
A|-------------|-------------|-------------|-------------|-------------|--------|--------|
F|-------------|-------------|-------------|-5-----4-----|-------------|--------|-4------|
C|-5-----4-----|-5-----2-----|-4-----0-----|-------------|-5-----4-----|-2------|-4------|
G|-------------|-------------|-------------|-------------|-------------|-2------|-2------|
D|-------------|-------------|-------------|-------------|-------------|-0------|--------|


D|--------|-------------|--------|--------|--------|-------------|--------|---------------------------|
A|--------|-------------|--------|--------|--------|-------------|--------|---------------------------|
F|--------|-4-----------|--------|-4------|--------|-4-----------|--------|------4---2---4-------2----|
C|-5------|-4-----4-----|-2------|-4------|-5------|-4-----4-----|--------|-5----------------5--------|
G|-5------|-2-----4-----|-2------|-2------|-5------|-2-----4-----|--------|---------------------------|
D|-3------|-------2-----|-0------|--------|-3------|-------2-----|--------|---------------------------|


D|---------------------------|---------------------------|---------------------------|
A|---------------------------|---------------------------|---------------------------|
F|------4---2---4------------|------4---2---4--------2---|-4----2-------2------------|
C|-4-----------------4---1---|-2-----------------5-------|----------5-------5---4----|
G|---------------------------|---------------------------|---------------------------|
D|---------------------------|---------------------------|---------------------------|


D|---------------------------|---------------------------|---------------------------|
A|---------------------------|---------------------------|---------------------------|
F|------4---2---4-------2----|------4---2---4------------|------4---2---4--------2---|
C|-5----------------5--------|-4-----------------4---1---|-2-----------------5-------|
G|---------------------------|---------------------------|---------------------------|
D|---------------------------|---------------------------|---------------------------|


D|---------------------------|--------|--------|--------|-------------|--------|--------|
A|---------------------------|--------|--------|--------|-------------|--------|--------|
F|-4----2-------2------------|--------|-4------|--------|-4-----------|--------|-4------|
C|----------5-------5---4----|-2------|-4------|-5------|-4-----4-----|-2------|-4------|
G|---------------------------|-2------|-2------|-5------|-2-----4-----|-2------|-2------|
D|---------------------------|-0------|--------|-3------|-------2-----|-0------|--------|


D|--------|-------------|--------|--------|--------|--------|-------------|---------------------|
A|--------|-------------|--------|--------|--------|--------|-------------|---------------------|
F|--------|-4-----------|--------|--------|--------|--------|-------------|---------------------|
C|-5------|-4-----4-----|-2------|-2------|-2------|-2------|-2------5----|-4----2----2----0----|
G|-5------|-2-----4-----|-2------|-2------|-2------|-2------|-2-----------|---------------------|
D|-3------|-------2-----|-0------|-0------|-0------|-0------|-0-----------|---------------------|


D|-------------|-----------------|-------------|---------------------|-------------|
A|-------------|-----------------|-------------|---------------------|-------------|
F|-------------|-----------2-----|-------------|---------------------|-------------|
C|--------5----|-4----5----------|-2------5----|-4----2----2----0----|--------5----|
G|-------------|-----------------|-2-----------|---------------------|-------------|
D|-0-----------|-----------------|-0-----------|---------------------|-0-----------|


D|-----------------|---------------------------|-----------------|---------------------------|
A|-----------------|---------------------------|-----------------|---------------------------|
F|-----------2-----|---------------------------|-----------------|---------------------------|
C|-4----5----------|-------------------3-------|-----------------|-------------------3-------|
G|-----------------|-6-----6---5---6-------5---|-6-----6---5-----|-6-----6---5---6-------5---|
D|-----------------|---------------------------|-----------------|---------------------------|


D|---------------------|---------------------------|-----------------|---------------------------|
A|---------------------|---------------------------|-----------------|---------------------------|
F|---------------------|---------------------------|-----------------|---------------------------|
C|---------------------|---------------------------|-----------------|---------------------------|
G|-6-----6---5---------|-------------------3-------|-----------------|-------------------3-------|
D|----------------6----|-6-----6---5---6-------5---|-6-----6---5-----|-6-----6---5---6-------5---|


D|-----------------|-------------|-------------|-------------|-------------|-------------|
A|-----------------|-------------|-------------|-------------|-------------|-------------|
F|-----------------|-------------|-------------|-5-----4-----|-------------|-------------|
C|-----------------|-5-----2-----|-4-----0-----|-------------|-5-----4-----|-5-----2-----|
G|-----------------|-------------|-------------|-------------|-------------|-------------|
D|-6-----6---5-----|-------------|-------------|-------------|-------------|-------------|


D|-------------|-------------|-------------|---------------------------|-----------------|
A|-------------|-------------|-------------|---------------------------|-----------------|
F|-------------|-5-----4-----|-------------|---------------------------|-----------------|
C|-4-----0-----|-------------|-5-----4-----|-------------------3-------|-----------------|
G|-------------|-------------|-------------|-6-----6---5---6-------5---|-6-----6---5-----|
D|-------------|-------------|-------------|---------------------------|-----------------|


D|---------------------------|---------------------|---------------------------|-----------------|
A|---------------------------|---------------------|---------------------------|-----------------|
F|---------------------------|---------------------|---------------------------|-----------------|
C|-------------------3-------|---------------------|---------------------------|-----------------|
G|-6-----6---5---6-------5---|-6-----6---5---------|-------------------3-------|-----------------|
D|---------------------------|----------------6----|-6-----6---5---6-------5---|-6-----6---5-----|


D|---------------------------|-----------------|-------------|-------------|-------------|
A|---------------------------|-----------------|-------------|-------------|-------------|
F|---------------------------|-----------------|-------------|-------------|-5-----4-----|
C|---------------------------|-----------------|-5-----2-----|-4-----0-----|-------------|
G|-------------------3-------|-----------------|-------------|-------------|-------------|
D|-6-----6---5---6-------5---|-6-----6---5-----|-------------|-------------|-------------|


D|-------------|-------------|-----------------------------|-----------------------|
A|-------------|-------------|-----------------------------|-----------------------|
F|-------------|-------16----|-14--------------------------|-----------------------|
C|-5-----4-----|-14----------|------17--16-17-16-----------|-----------14--16--17--|
G|-------------|-------------|--------------------17---19--|-19----14--------------|
D|-------------|-------------|-----------------------------|-----------------------|


D|--------------------------------|------------------------------|------------------------------|
A|--------------------------------|------------------------------|------------------------------|
F|---------------14---------------|------------------------------|----------------------2-------|
C|-16-17-16--14------17--16--14---|-2----2---1---2---4---5---4---|-1----1---2---4---5-------4---|
G|--------------------------------|------------------------------|------------------------------|
D|--------------------------------|------------------------------|------------------------------|


D|------------------------------|---------------------------|------------------------------|
A|------------------------------|---------------------------|------------------------------|
F|------------------2---4---5---|-4----2--------------------|------------------------------|
C|-5----5---4---5---------------|----------5---4----2---1---|-2----2---1---2---4---5---4---|
G|------------------------------|---------------------------|------------------------------|
D|------------------------------|---------------------------|------------------------------|


D|------------------------------|------------------------------|---------------------------|
A|------------------------------|------------------------------|---------------------------|
F|----------------------2-------|------------------2---4---5---|-4----2--------------------|
C|-1----1---2---4---5-------4---|-5----5---4---5---------------|----------5---4----2---1---|
G|------------------------------|------------------------------|---------------------------|
D|------------------------------|------------------------------|---------------------------|


D|--------|--------|--------|-------------|--------|--------|--------|-------------|
A|--------|--------|--------|-------------|--------|--------|--------|-------------|
F|--------|-4------|--------|-4-----------|--------|-4------|--------|-4-----------|
C|-2------|-4------|-5------|-4-----4-----|-2------|-4------|-5------|-4-----4-----|
G|-2------|-2------|-5------|-2-----4-----|-2------|-2------|-5------|-2-----4-----|
D|-0------|--------|-3------|-------2-----|-0------|--------|-3------|-------2-----|


D|--------|--------|--------|--------|
A|--------|--------|--------|--------|
F|--------|--------|--------|--------|
C|-2------|-2------|-2------|-2------|
G|-2------|-2------|-2------|-2------|
D|-0------|-0------|-0------|-0------|





Track 3: Solo guitar

D|--------|--------|--------|--------|--------|--------|--------|--------|--------|
A|--------|--------|--------|--------|--------|--------|--------|--------|--------|
F|--------|--------|--------|--------|--------|--------|--------|--------|--------|
C|--------|--------|--------|--------|--------|--------|--------|--------|--------|
G|--------|--------|--------|--------|--------|--------|--------|--------|--------|
D|--------|--------|--------|--------|--------|--------|--------|--------|--------|


D|--------|--------|--------|--------|--------|--------|--------|--------|--------|
A|--------|--------|--------|--------|--------|--------|--------|--------|--------|
F|--------|--------|--------|--------|--------|--------|--------|--------|--------|
C|--------|--------|--------|--------|--------|--------|--------|--------|--------|
G|--------|--------|--------|--------|--------|--------|--------|--------|--------|
D|--------|--------|--------|--------|--------|--------|--------|--------|--------|


D|--------|--------|--------|--------|--------|--------|--------|--------|--------|
A|--------|--------|--------|--------|--------|--------|--------|--------|--------|
F|--------|--------|--------|--------|--------|--------|--------|--------|--------|
C|--------|--------|--------|--------|--------|--------|--------|--------|--------|
G|--------|--------|--------|--------|--------|--------|--------|--------|--------|
D|--------|--------|--------|--------|--------|--------|--------|--------|--------|


D|--------|--------|--------|--------|--------|--------|--------|--------|--------|
A|--------|--------|--------|--------|--------|--------|--------|--------|--------|
F|--------|--------|--------|--------|--------|--------|--------|--------|--------|
C|--------|--------|--------|--------|--------|--------|--------|--------|--------|
G|--------|--------|--------|--------|--------|--------|--------|--------|--------|
D|--------|--------|--------|--------|--------|--------|--------|--------|--------|


D|--------|--------|--------|--------|--------|--------|--------|--------|--------|
A|--------|--------|--------|--------|--------|--------|--------|--------|--------|
F|--------|--------|--------|--------|--------|--------|--------|--------|--------|
C|--------|--------|--------|--------|--------|--------|--------|--------|--------|
G|--------|--------|--------|--------|--------|--------|--------|--------|--------|
D|--------|--------|--------|--------|--------|--------|--------|--------|--------|


D|--------|--------|--------|--------|--------|--------|--------|--------|--------|
A|--------|--------|--------|--------|--------|--------|--------|--------|--------|
F|--------|--------|--------|--------|--------|--------|--------|--------|--------|
C|--------|--------|--------|--------|--------|--------|--------|--------|--------|
G|--------|--------|--------|--------|--------|--------|--------|--------|--------|
D|--------|--------|--------|--------|--------|--------|--------|--------|--------|


D|--------|--------|--------|--------|--------|--------|--------|--------|--------|
A|--------|--------|--------|--------|--------|--------|--------|--------|--------|
F|--------|--------|--------|--------|--------|--------|--------|--------|--------|
C|--------|--------|--------|--------|--------|--------|--------|--------|--------|
G|--------|--------|--------|--------|--------|--------|--------|--------|--------|
D|--------|--------|--------|--------|--------|--------|--------|--------|--------|


D|--------|--------|--------|--------|--------|--------|--------|--------|--------|
A|--------|--------|--------|--------|--------|--------|--------|--------|--------|
F|--------|--------|--------|--------|--------|--------|--------|--------|--------|
C|--------|--------|--------|--------|--------|--------|--------|--------|--------|
G|--------|--------|--------|--------|--------|--------|--------|--------|--------|
D|--------|--------|--------|--------|--------|--------|--------|--------|--------|


D|--------|--------|--------|--------|--------|--------|--------|--------|--------|
A|--------|--------|--------|--------|--------|--------|--------|--------|--------|
F|--------|--------|--------|--------|--------|--------|--------|--------|--------|
C|--------|--------|--------|--------|--------|--------|--------|--------|--------|
G|--------|--------|--------|--------|--------|--------|--------|--------|--------|
D|--------|--------|--------|--------|--------|--------|--------|--------|--------|


D|--------|--------|--------|--------|--------|--------|--------|--------|--------|
A|--------|--------|--------|--------|--------|--------|--------|--------|--------|
F|--------|--------|--------|--------|--------|--------|--------|--------|--------|
C|--------|--------|--------|--------|--------|--------|--------|--------|--------|
G|--------|--------|--------|--------|--------|--------|--------|--------|--------|
D|--------|--------|--------|--------|--------|--------|--------|--------|--------|


D|--------|--------|--------|--------|--------|--------|--------|--------|--------|
A|--------|--------|--------|--------|--------|--------|--------|--------|--------|
F|--------|--------|--------|--------|--------|--------|--------|--------|--------|
C|--------|--------|--------|--------|--------|--------|--------|--------|--------|
G|--------|--------|--------|--------|--------|--------|--------|--------|--------|
D|--------|--------|--------|--------|--------|--------|--------|--------|--------|


D|--------|--------|--------|--------|--------|--------|--------|--------|--------|
A|--------|--------|--------|--------|--------|--------|--------|--------|--------|
F|--------|--------|--------|--------|--------|--------|--------|--------|--------|
C|--------|--------|--------|--------|--------|--------|--------|--------|--------|
G|--------|--------|--------|--------|--------|--------|--------|--------|--------|
D|--------|--------|--------|--------|--------|--------|--------|--------|--------|


D|--------|--------|--------|--------|--------|--------|--------|--------|--------|
A|--------|--------|--------|--------|--------|--------|--------|--------|--------|
F|--------|--------|--------|--------|--------|--------|--------|--------|--------|
C|--------|--------|--------|--------|--------|--------|--------|--------|--------|
G|--------|--------|--------|--------|--------|--------|--------|--------|--------|
D|--------|--------|--------|--------|--------|--------|--------|--------|--------|


D|--------|--------|--------|--------|--------|--------|--------|--------|-------------|
A|--------|--------|--------|--------|--------|--------|--------|--------|-------------|
F|--------|--------|--------|--------|--------|--------|--------|--------|-------4-----|
C|--------|--------|--------|--------|--------|--------|--------|--------|-2-----------|
G|--------|--------|--------|--------|--------|--------|--------|--------|-------------|
D|--------|--------|--------|--------|--------|--------|--------|--------|-------------|


D|-------------|-------------|-------------|---------------------------|---------------------------|
A|-------------|-------------|-------------|---------------------------|---------------------------|
F|-------2-----|-------------|-------------|------4---2---4-------2----|------4---2---4------------|
C|-------------|-------2-----|-------------|-5----------------5--------|-4-----------------4---1---|
G|-5-----------|-0-----------|-3-----5-----|---------------------------|---------------------------|
D|-------------|-------------|-------------|---------------------------|---------------------------|


D|---------------------------|---------------------------|---------------------------|
A|---------------------------|---------------------------|---------------------------|
F|------4---2---4--------2---|-4----2-------2------------|------4---2---4-------2----|
C|-2-----------------5-------|----------5-------5---4----|-5----------------5--------|
G|---------------------------|---------------------------|---------------------------|
D|---------------------------|---------------------------|---------------------------|


D|---------------------------|---------------------------|---------------------------|
A|---------------------------|---------------------------|---------------------------|
F|------4---2---4------------|------4---2---4--------2---|-4----2-------2------------|
C|-4-----------------4---1---|-2-----------------5-------|----------5-------5---4----|
G|---------------------------|---------------------------|---------------------------|
D|---------------------------|---------------------------|---------------------------|


D|--------|--------|--------|--------|--------|--------|--------|--------|--------|
A|--------|--------|--------|--------|--------|--------|--------|--------|--------|
F|--------|--------|--------|--------|--------|--------|--------|--------|--------|
C|--------|--------|--------|--------|--------|--------|--------|--------|--------|
G|--------|--------|--------|--------|--------|--------|--------|--------|--------|
D|--------|--------|--------|--------|--------|--------|--------|--------|--------|


D|--------|--------|--------|
A|--------|--------|--------|
F|--------|--------|--------|
C|--------|--------|--------|
G|--------|--------|--------|
D|--------|--------|--------|





Track 4: Untitled

G|--------|--------|--------|--------|--------|--------|--------|--------|--------|
D|--------|--------|--------|--------|--------|--------|--------|--------|--------|
A|--------|--------|--------|--------|--------|--------|--------|--------|--------|
E|--------|--------|--------|--------|--------|--------|--------|--------|--------|


G|--------|--------|--------|--------|--------|--------|--------|--------|--------|
D|--------|--------|--------|--------|--------|--------|--------|--------|--------|
A|--------|--------|--------|--------|--------|--------|--------|--------|--------|
E|--------|--------|--------|--------|--------|--------|--------|--------|--------|


G|--------|--------|--------|--------|--------|--------|--------|--------|--------|
D|--------|--------|--------|--------|--------|--------|--------|--------|--------|
A|--------|--------|--------|--------|--------|--------|--------|--------|--------|
E|--------|--------|--------|--------|--------|--------|--------|--------|--------|


G|--------|--------|--------|--------|--------|--------|--------|--------|--------|
D|--------|--------|--------|--------|--------|--------|--------|--------|--------|
A|--------|--------|--------|--------|--------|--------|--------|--------|--------|
E|--------|--------|--------|--------|--------|--------|--------|--------|--------|


G|--------|--------|--------|--------|--------|--------|--------|--------|--------|
D|--------|--------|--------|--------|--------|--------|--------|--------|--------|
A|--------|--------|--------|--------|--------|--------|--------|--------|--------|
E|--------|--------|--------|--------|--------|--------|--------|--------|--------|


G|--------|--------|--------|--------|--------|--------|--------|--------|--------|
D|--------|--------|--------|--------|--------|--------|--------|--------|--------|
A|--------|--------|--------|--------|--------|--------|--------|--------|--------|
E|--------|--------|--------|--------|--------|--------|--------|--------|--------|


G|--------|--------|--------|--------|--------|--------|--------|--------|--------|
D|--------|--------|--------|--------|--------|--------|--------|--------|--------|
A|--------|--------|--------|--------|--------|--------|--------|--------|--------|
E|--------|--------|--------|--------|--------|--------|--------|--------|--------|


G|--------|--------|--------|--------|--------|--------|--------|--------|--------|
D|--------|--------|--------|--------|--------|--------|--------|--------|--------|
A|--------|--------|--------|--------|--------|--------|--------|--------|--------|
E|--------|--------|--------|--------|--------|--------|--------|--------|--------|


G|--------|--------|--------|--------|--------|--------|--------|--------|--------|
D|--------|--------|--------|--------|--------|--------|--------|--------|--------|
A|--------|--------|--------|--------|--------|--------|--------|--------|--------|
E|--------|--------|--------|--------|--------|--------|--------|--------|--------|


G|--------|--------|--------|--------|--------|--------|--------|--------|--------|
D|--------|--------|--------|--------|--------|--------|--------|--------|--------|
A|--------|--------|--------|--------|--------|--------|--------|--------|--------|
E|--------|--------|--------|--------|--------|--------|--------|--------|--------|


G|--------|--------|--------|--------|--------|--------|--------|--------|--------|
D|--------|--------|--------|--------|--------|--------|--------|--------|--------|
A|--------|--------|--------|--------|--------|--------|--------|--------|--------|
E|--------|--------|--------|--------|--------|--------|--------|--------|--------|


G|--------|--------|--------|--------|--------|--------|--------|--------|--------|
D|--------|--------|--------|--------|--------|--------|--------|--------|--------|
A|--------|--------|--------|--------|--------|--------|--------|--------|--------|
E|--------|--------|--------|--------|--------|--------|--------|--------|--------|


G|--------|--------|--------|--------|--------|--------|--------|--------|--------|
D|--------|--------|--------|--------|--------|--------|--------|--------|--------|
A|--------|--------|--------|--------|--------|--------|--------|--------|--------|
E|--------|--------|--------|--------|--------|--------|--------|--------|--------|


G|--------|--------|--------|--------|--------|--------|--------|--------|--------|
D|--------|--------|--------|--------|--------|--------|--------|--------|--------|
A|--------|--------|--------|--------|--------|--------|--------|--------|--------|
E|--------|--------|--------|--------|--------|--------|--------|--------|--------|


G|--------|--------|--------|--------|--------|--------|--------|--------|--------|
D|--------|--------|--------|--------|--------|--------|--------|--------|--------|
A|--------|--------|--------|--------|--------|--------|--------|--------|--------|
E|--------|--------|--------|--------|--------|--------|--------|--------|--------|


G|--------|--------|--------|--------|--------|--------|--------|--------|--------|
D|--------|--------|--------|--------|--------|--------|--------|--------|--------|
A|--------|--------|--------|--------|--------|--------|--------|--------|--------|
E|--------|--------|--------|--------|--------|--------|--------|--------|--------|


G|--------|--------|--------|--------|--------|
D|--------|--------|--------|--------|--------|
A|--------|--------|--------|--------|--------|
E|--------|--------|--------|--------|--------|