Site menu:

    

Browse: 0-9 A B C D E F G H I J K L N O P Q R S T U V W X Y Z

iced earth - melancholy holy martyr:



Title: Melancholy (Holy Martyr)
Artist: 
Album: Something Wicked This Way Comes
Author: Jon Schaffer


Track 1: Rhythm Guitar

D#|------------------------------|-----------------------|------------------------------|
A#|------------------------------|-----------------------|------------------------------|
F#|------------------------------|-----------------------|------------------------------|
C#|---------9------------9---7---|-----5-------4---4-----|-----4-------7---7---4--------|
G#|-----7------------7-----------|-----------------------|-5-------5----------------5---|
D#|-0------------0---------------|-----------------------|------------------------------|


D#|------------------------------|------------------------------|-----------------------|
A#|------------------------------|------------------------------|-----------------------|
F#|------------------------------|------------------------------|-----------------------|
C#|-----2-------5---5---2--------|---------9------------9---7---|-----5-------4---4-----|
G#|-3-------3----------------3---|-----7------------7-----------|-----------------------|
D#|------------------------------|-0------------0---------------|-----------------------|


D#|------------------------------|------------------------------|------------------------------|
A#|------------------------------|------------------------------|------------------------------|
F#|------------------------------|------------------------------|------------------------------|
C#|-----4-------7---7---4--------|-----2-------5---5---2--------|---------9------------9---7---|
G#|-5-------5----------------5---|-3-------3----------------3---|-----7------------7-----------|
D#|------------------------------|------------------------------|-0------------0---------------|


D#|-----------------------|------------------------------|------------------------------|
A#|-----------------------|------------------------------|------------------------------|
F#|-----------------------|------------------------------|------------------------------|
C#|-----5-------4---4-----|-----4-------7---7---4--------|-----2-------5---5---2--------|
G#|-----------------------|-5-------5----------------5---|-3-------3----------------3---|
D#|-----------------------|------------------------------|------------------------------|


D#|------------------------------|-----------------------|------------------------------|
A#|------------------------------|-----------------------|------------------------------|
F#|------------------------------|-----------------------|------------------------------|
C#|---------9------------9---7---|-----5-------4---4-----|-----4-------7---7---4--------|
G#|-----7------------7-----------|-----------------------|-5-------5----------------5---|
D#|-0------------0---------------|-----------------------|------------------------------|


D#|------------------------------|------------------------------|-----------------------|
A#|------------------------------|------------------------------|-----------------------|
F#|------------------------------|------------------------------|-----------------------|
C#|-----2-------5---5---2--------|---------9------------9---7---|-----5-------4---4-----|
G#|-3-------3----------------3---|-----7------------7-----------|-----------------------|
D#|------------------------------|-0------------0---------------|-----------------------|


D#|------------------------------|------------------------------|------------------------------|
A#|------------------------------|------------------------------|------------------------------|
F#|------------------------------|------------------------------|------------------------------|
C#|-----4-------7---7---4--------|-----2-------5---5---2--------|---------9------------9---7---|
G#|-5-------5----------------5---|-3-------3----------------3---|-----7------------7-----------|
D#|------------------------------|------------------------------|-0------------0---------------|


D#|-----------------------|------------------------------|------------------------------|
A#|-----------------------|------------------------------|------------------------------|
F#|-----------------------|------------------------------|------------------------------|
C#|-----5-------4---4-----|-----4-------7---7---4--------|-----2-------5---5---2--------|
G#|-----------------------|-5-------5----------------5---|-3-------3----------------3---|
D#|-----------------------|------------------------------|------------------------------|


D#|--------|--------|--------|--------|--------|--------|--------|--------|--------|
A#|--------|--------|--------|--------|--------|--------|--------|--------|--------|
F#|--------|--------|--------|--------|--------|--------|--------|--------|--------|
C#|--------|--------|--------|--------|--------|--------|--------|--------|--------|
G#|--------|--------|--------|--------|--------|--------|--------|--------|--------|
D#|--------|--------|--------|--------|--------|--------|--------|--------|--------|


D#|--------|--------|--------|--------|--------|--------|--------|--------|--------------------|
A#|--------|--------|--------|--------|--------|--------|--------|--------|--------------------|
F#|--------|--------|--------|--------|--------|--------|--------|--------|--------------------|
C#|--------|--------|--------|--------|--------|--------|--------|--------|---------------9----|
G#|--------|--------|--------|--------|--------|--------|--------|--------|-----------7--------|
D#|--------|--------|--------|--------|--------|--------|--------|--------|-------0------------|


D#|---------------------------------|-----------------------|------------------------------|
A#|---------------------------------|-----------------------|------------------------------|
F#|---------------------------------|-----------------------|------------------------------|
C#|---------9---7-------5-------4---|-4---------4-------7---|-7---4------------2-------5---|
G#|-----7---------------------------|-------5-------5-------|----------5---3-------3-------|
D#|-0-------------------------------|-----------------------|------------------------------|


D#|---------------------------|---------------------------------|-----------------------|
A#|---------------------------|---------------------------------|-----------------------|
F#|---------------------------|---------------------------------|-----------------------|
C#|-5---2----------------9----|---------9---7-------5-------4---|-4---------4-------7---|
G#|----------3-------7--------|-----7---------------------------|-------5-------5-------|
D#|--------------0------------|-0-------------------------------|-----------------------|


D#|------------------------------|---------------------------|---------------------------------|
A#|------------------------------|---------------------------|---------------------------------|
F#|------------------------------|---------------------------|---------------------------------|
C#|-7---4------------2-------5---|-5---2----------------9----|---------9---7-------5-------4---|
G#|----------5---3-------3-------|----------3-------7--------|-----7---------------------------|
D#|------------------------------|--------------0------------|-0-------------------------------|


D#|-----------------------|------------------------------|---------------------------|
A#|-----------------------|------------------------------|---------------------------|
F#|-----------------------|------------------------------|---------------------------|
C#|-4---------4-------7---|-7---4------------2-------5---|-5---2----------------9----|
G#|-------5-------5-------|----------5---3-------3-------|----------3-------7--------|
D#|-----------------------|------------------------------|--------------0------------|


D#|---------------------------------|-----------------------|------------------------------|
A#|---------------------------------|-----------------------|------------------------------|
F#|---------------------------------|-----------------------|------------------------------|
C#|---------9---7-------5-------4---|-4---------4-------7---|-7---4------------2-------5---|
G#|-----7---------------------------|-------5-------5-------|----------5---3-------3-------|
D#|-0-------------------------------|-----------------------|------------------------------|


D#|---------------------------|---------------------------------|-----------------------|
A#|---------------------------|---------------------------------|-----------------------|
F#|---------------------------|---------------------------------|-----------------------|
C#|-5---2----------------9----|---------9---7-------5-------4---|-4---------4-------7---|
G#|----------3-------7--------|-----7---------------------------|-------5-------5-------|
D#|--------------0------------|-0-------------------------------|-----------------------|


D#|------------------------------|--------------------|--------|--------|--------|
A#|------------------------------|--------------------|--------|--------|--------|
F#|------------------------------|--------------------|--------|--------|--------|
C#|-7---4------------2-------5---|-5---2--------------|--------|--------|--------|
G#|----------5---3-------3-------|----------3---------|--------|--------|--------|
D#|------------------------------|--------------------|--------|--------|--------|


D#|--------|--------|--------|--------|--------|--------|--------|--------|--------|
A#|--------|--------|--------|--------|--------|--------|--------|--------|--------|
F#|--------|--------|--------|--------|--------|--------|--------|--------|--------|
C#|--------|--------|--------|--------|--------|--------|--------|--------|--------|
G#|--------|--------|--------|--------|--------|--------|--------|--------|--------|
D#|--------|--------|--------|--------|--------|--------|--------|--------|--------|


D#|--------|--------|--------|--------|--------|--------|--------|--------|--------|
A#|--------|--------|--------|--------|--------|--------|--------|--------|--------|
F#|--------|--------|--------|--------|--------|--------|--------|--------|--------|
C#|--------|--------|--------|--------|--------|--------|--------|--------|--------|
G#|--------|--------|--------|--------|--------|--------|--------|--------|--------|
D#|--------|--------|--------|--------|--------|--------|--------|--------|--------|


D#|--------|--------|--------|--------|--------|--------|--------|--------|--------|
A#|--------|--------|--------|--------|--------|--------|--------|--------|--------|
F#|--------|--------|--------|--------|--------|--------|--------|--------|--------|
C#|--------|--------|--------|--------|--------|--------|--------|--------|--------|
G#|--------|--------|--------|--------|--------|--------|--------|--------|--------|
D#|--------|--------|--------|--------|--------|--------|--------|--------|--------|


D#|--------|--------|--------|--------|--------|--------|--------|--------|--------|
A#|--------|--------|--------|--------|--------|--------|--------|--------|--------|
F#|--------|--------|--------|--------|--------|--------|--------|--------|--------|
C#|--------|--------|--------|--------|--------|--------|--------|--------|--------|
G#|--------|--------|--------|--------|--------|--------|--------|--------|--------|
D#|--------|--------|--------|--------|--------|--------|--------|--------|--------|


D#|--------|--------|--------|--------|--------|--------|--------|--------|--------|
A#|--------|--------|--------|--------|--------|--------|--------|--------|--------|
F#|--------|--------|--------|--------|--------|--------|--------|--------|--------|
C#|--------|--------|--------|--------|--------|--------|--------|--------|--------|
G#|--------|--------|--------|--------|--------|--------|--------|--------|--------|
D#|--------|--------|--------|--------|--------|--------|--------|--------|--------|


D#|--------|--------|--------|--------|--------|--------|--------|--------|--------|
A#|--------|--------|--------|--------|--------|--------|--------|--------|--------|
F#|--------|--------|--------|--------|--------|--------|--------|--------|--------|
C#|--------|--------|--------|--------|--------|--------|--------|--------|--------|
G#|--------|--------|--------|--------|--------|--------|--------|--------|--------|
D#|--------|--------|--------|--------|--------|--------|--------|--------|--------|


D#|--------|--------|--------|--------|--------|--------|--------|--------|--------|
A#|--------|--------|--------|--------|--------|--------|--------|--------|--------|
F#|--------|--------|--------|--------|--------|--------|--------|--------|--------|
C#|--------|--------|--------|--------|--------|--------|--------|--------|--------|
G#|--------|--------|--------|--------|--------|--------|--------|--------|--------|
D#|--------|--------|--------|--------|--------|--------|--------|--------|--------|


D#|--------|--------|--------|--------|--------|--------|
A#|--------|--------|--------|--------|--------|--------|
F#|--------|--------|--------|--------|--------|--------|
C#|--------|--------|--------|--------|--------|--------|
G#|--------|--------|--------|--------|--------|--------|
D#|--------|--------|--------|--------|--------|--------|





Track 2: Rhythm Guitar

D#|--------|--------|--------|--------|------------------------------|-----------------------|
A#|--------|--------|--------|--------|------------------------------|-----------------------|
F#|--------|--------|--------|--------|------------------------------|-----------------------|
C#|--------|--------|--------|--------|---------12-----------12--10--|-----9-------7---7-----|
G#|--------|--------|--------|--------|-----10-----------10----------|-----------------------|
D#|--------|--------|--------|--------|-0------------0---------------|-----------------------|


D#|-------------0---0------------|-------------0---0------------|------------------------------|
A#|------------------------------|------------------------------|------------------------------|
F#|---------------------7--------|---------------------5--------|------------------------------|
C#|-----7--------------------7---|-----5--------------------5---|---------12-----------12--10--|
G#|-9-------9--------------------|-7-------7--------------------|-----10-----------10----------|
D#|------------------------------|------------------------------|-0------------0---------------|


D#|-----------------------|-------------0---0------------|-------------0---0------------|
A#|-----------------------|------------------------------|------------------------------|
F#|-----------------------|---------------------7--------|---------------------5--------|
C#|-----9-------7---7-----|-----7--------------------7---|-----5--------------------5---|
G#|-----------------------|-9-------9--------------------|-7-------7--------------------|
D#|-----------------------|------------------------------|------------------------------|


D#|------------------------------|-----------------------|-------------0---0------------|
A#|------------------------------|-----------------------|------------------------------|
F#|------------------------------|-----------------------|---------------------7--------|
C#|---------12-----------12--10--|-----9-------7---7-----|-----7--------------------7---|
G#|-----10-----------10----------|-----------------------|-9-------9--------------------|
D#|-0------------0---------------|-----------------------|------------------------------|


D#|-------------0---0------------|------------------------------|-----------------------|
A#|------------------------------|------------------------------|-----------------------|
F#|---------------------5--------|------------------------------|-----------------------|
C#|-----5--------------------5---|---------12-----------12--10--|-----9-------7---7-----|
G#|-7-------7--------------------|-----10-----------10----------|-----------------------|
D#|------------------------------|-0------------0---------------|-----------------------|


D#|-------------0---0------------|-------------0---0------------|------------------------------|
A#|------------------------------|------------------------------|------------------------------|
F#|---------------------7--------|---------------------5--------|------------------------------|
C#|-----7--------------------7---|-----5--------------------5---|---------12-----------12--10--|
G#|-9-------9--------------------|-7-------7--------------------|-----10-----------10----------|
D#|------------------------------|------------------------------|-0------------0---------------|


D#|-----------------------|-------------0---0------------|-------------0---0------------|
A#|-----------------------|------------------------------|------------------------------|
F#|-----------------------|---------------------7--------|---------------------5--------|
C#|-----9-------7---7-----|-----7--------------------7---|-----5--------------------5---|
G#|-----------------------|-9-------9--------------------|-7-------7--------------------|
D#|-----------------------|------------------------------|------------------------------|


D#|--------|--------|--------|--------|--------|--------|--------|--------|--------|
A#|--------|--------|--------|--------|--------|--------|--------|--------|--------|
F#|--------|--------|--------|--------|--------|--------|--------|--------|--------|
C#|--------|--------|--------|--------|--------|--------|--------|--------|--------|
G#|--------|--------|--------|--------|--------|--------|--------|--------|--------|
D#|--------|--------|--------|--------|--------|--------|--------|--------|--------|


D#|--------|--------|--------|--------|--------|--------|--------|--------|--------------------|
A#|--------|--------|--------|--------|--------|--------|--------|--------|--------------------|
F#|--------|--------|--------|--------|--------|--------|--------|--------|--------------------|
C#|--------|--------|--------|--------|--------|--------|--------|--------|---------------12---|
G#|--------|--------|--------|--------|--------|--------|--------|--------|-----------10-------|
D#|--------|--------|--------|--------|--------|--------|--------|--------|-------0------------|


D#|---------------------------------|-------------------0---|-0------------------------0---|
A#|---------------------------------|-----------------------|------------------------------|
F#|---------------------------------|-----------------------|-----7------------------------|
C#|---------12--10------9-------7---|-7---------7-----------|----------7-------5-----------|
G#|-----10--------------------------|-------9-------9-------|--------------7-------7-------|
D#|-0-------------------------------|-----------------------|------------------------------|


D#|-0-------------------------|---------------------------------|-------------------0---|
A#|---------------------------|---------------------------------|-----------------------|
F#|-----5---------------------|---------------------------------|-----------------------|
C#|----------5-----------12---|---------12--10------9-------7---|-7---------7-----------|
G#|------------------10-------|-----10--------------------------|-------9-------9-------|
D#|--------------0------------|-0-------------------------------|-----------------------|


D#|-0------------------------0---|-0-------------------------|---------------------------------|
A#|------------------------------|---------------------------|---------------------------------|
F#|-----7------------------------|-----5---------------------|---------------------------------|
C#|----------7-------5-----------|----------5-----------12---|---------12--10------9-------7---|
G#|--------------7-------7-------|------------------10-------|-----10--------------------------|
D#|------------------------------|--------------0------------|-0-------------------------------|


D#|-------------------0---|-0------------------------0---|-0-------------------------|
A#|-----------------------|------------------------------|---------------------------|
F#|-----------------------|-----7------------------------|-----5---------------------|
C#|-7---------7-----------|----------7-------5-----------|----------5-----------12---|
G#|-------9-------9-------|--------------7-------7-------|------------------10-------|
D#|-----------------------|------------------------------|--------------0------------|


D#|---------------------------------|-------------------0---|-0------------------------0---|
A#|---------------------------------|-----------------------|------------------------------|
F#|---------------------------------|-----------------------|-----7------------------------|
C#|---------12--10------9-------7---|-7---------7-----------|----------7-------5-----------|
G#|-----10--------------------------|-------9-------9-------|--------------7-------7-------|
D#|-0-------------------------------|-----------------------|------------------------------|


D#|-0-------------------------|---------------------------------|-------------------0---|
A#|---------------------------|---------------------------------|-----------------------|
F#|-----5---------------------|---------------------------------|-----------------------|
C#|----------5-----------12---|---------12--10------9-------7---|-7---------7-----------|
G#|------------------10-------|-----10--------------------------|-------9-------9-------|
D#|--------------0------------|-0-------------------------------|-----------------------|


D#|-0------------------------0---|-0------------------|--------|--------|--------|
A#|------------------------------|--------------------|--------|--------|--------|
F#|-----7------------------------|-----5--------------|--------|--------|--------|
C#|----------7-------5-----------|----------5---------|--------|--------|--------|
G#|--------------7-------7-------|--------------------|--------|--------|--------|
D#|------------------------------|--------------------|--------|--------|--------|


D#|--------|--------|--------|--------|--------|--------|--------|--------|--------|
A#|--------|--------|--------|--------|--------|--------|--------|--------|--------|
F#|--------|--------|--------|--------|--------|--------|--------|--------|--------|
C#|--------|--------|--------|--------|--------|--------|--------|--------|--------|
G#|--------|--------|--------|--------|--------|--------|--------|--------|--------|
D#|--------|--------|--------|--------|--------|--------|--------|--------|--------|


D#|--------|--------|--------|--------|--------|--------|--------|--------|--------|
A#|--------|--------|--------|--------|--------|--------|--------|--------|--------|
F#|--------|--------|--------|--------|--------|--------|--------|--------|--------|
C#|--------|--------|--------|--------|--------|--------|--------|--------|--------|
G#|--------|--------|--------|--------|--------|--------|--------|--------|--------|
D#|--------|--------|--------|--------|--------|--------|--------|--------|--------|


D#|--------|--------|--------|--------|--------|--------|--------|--------|--------|
A#|--------|--------|--------|--------|--------|--------|--------|--------|--------|
F#|--------|--------|--------|--------|--------|--------|--------|--------|--------|
C#|--------|--------|--------|--------|--------|--------|--------|--------|--------|
G#|--------|--------|--------|--------|--------|--------|--------|--------|--------|
D#|--------|--------|--------|--------|--------|--------|--------|--------|--------|


D#|--------|--------|--------|--------|--------|--------|--------|--------|--------|
A#|--------|--------|--------|--------|--------|--------|--------|--------|--------|
F#|--------|--------|--------|--------|--------|--------|--------|--------|--------|
C#|--------|--------|--------|--------|--------|--------|--------|--------|--------|
G#|--------|--------|--------|--------|--------|--------|--------|--------|--------|
D#|--------|--------|--------|--------|--------|--------|--------|--------|--------|


D#|--------|--------|--------|--------|--------|--------|--------|--------|--------|
A#|--------|--------|--------|--------|--------|--------|--------|--------|--------|
F#|--------|--------|--------|--------|--------|--------|--------|--------|--------|
C#|--------|--------|--------|--------|--------|--------|--------|--------|--------|
G#|--------|--------|--------|--------|--------|--------|--------|--------|--------|
D#|--------|--------|--------|--------|--------|--------|--------|--------|--------|


D#|--------|--------|--------|--------|--------|--------|--------|--------|--------|
A#|--------|--------|--------|--------|--------|--------|--------|--------|--------|
F#|--------|--------|--------|--------|--------|--------|--------|--------|--------|
C#|--------|--------|--------|--------|--------|--------|--------|--------|--------|
G#|--------|--------|--------|--------|--------|--------|--------|--------|--------|
D#|--------|--------|--------|--------|--------|--------|--------|--------|--------|


D#|--------|--------|--------|--------|--------|--------|--------|--------|--------|
A#|--------|--------|--------|--------|--------|--------|--------|--------|--------|
F#|--------|--------|--------|--------|--------|--------|--------|--------|--------|
C#|--------|--------|--------|--------|--------|--------|--------|--------|--------|
G#|--------|--------|--------|--------|--------|--------|--------|--------|--------|
D#|--------|--------|--------|--------|--------|--------|--------|--------|--------|


D#|--------|--------|--------|--------|--------|--------|
A#|--------|--------|--------|--------|--------|--------|
F#|--------|--------|--------|--------|--------|--------|
C#|--------|--------|--------|--------|--------|--------|
G#|--------|--------|--------|--------|--------|--------|
D#|--------|--------|--------|--------|--------|--------|





Track 3: Rhythm Guitar

D#|--------|--------|--------|--------|--------|--------|--------|--------|--------|
A#|--------|--------|--------|--------|--------|--------|--------|--------|--------|
F#|--------|--------|--------|--------|--------|--------|--------|--------|--------|
C#|--------|--------|--------|--------|--------|--------|--------|--------|--------|
G#|--------|--------|--------|--------|--------|--------|--------|--------|--------|
D#|--------|--------|--------|--------|--------|--------|--------|--------|--------|


D#|--------|--------|--------|--------|--------|--------|--------|--------|--------|
A#|--------|--------|--------|--------|--------|--------|--------|--------|--------|
F#|--------|--------|--------|--------|--------|--------|--------|--------|--------|
C#|--------|--------|--------|--------|--------|--------|--------|--------|--------|
G#|--------|--------|--------|--------|--------|--------|--------|--------|--------|
D#|--------|--------|--------|--------|--------|--------|--------|--------|--------|


D#|--------|--------|--------|--------|--------|--------|----------------------|--------|
A#|--------|--------|--------|--------|--------|--------|----------------------|--------|
F#|--------|--------|--------|--------|--------|--------|----------------------|--------|
C#|--------|--------|--------|--------|--------|--------|----------------------|--------|
G#|--------|--------|--------|--------|--------|--------|-----------2----2-----|-2------|
D#|--------|--------|--------|--------|--------|--------|-0---0--0--0----0-----|-0------|


D#|----------------------|--------|----------------------|--------|----------------------|
A#|----------------------|--------|----------------------|--------|----------------------|
F#|----------------------|--------|----------------------|--------|----------------------|
C#|-----------7----7-----|-7------|----------------------|--------|-----------7----7-----|
G#|-5---5--5--5----5-----|-5------|-----------2----2-----|-2------|-5---5--5--5----5-----|
D#|----------------------|--------|-0---0--0--0----0-----|-0------|----------------------|


D#|--------|----------------------|--------|----------------------|--------|----------------------|
A#|--------|----------------------|--------|----------------------|--------|----------------------|
F#|--------|----------------------|--------|----------------------|--------|----------------------|
C#|-7------|----------------------|--------|-----------7----7-----|-7------|----------------------|
G#|-5------|-----------2----2-----|-2------|-5---5--5--5----5-----|-5------|-----------2----2-----|
D#|--------|-0---0--0--0----0-----|-0------|----------------------|--------|-0---0--0--0----0-----|


D#|--------|----------------------|--------|--------|-------------|-------------|-------------|
A#|--------|----------------------|--------|--------|-------------|-------------|-------------|
F#|--------|----------------------|--------|--------|-------------|-------------|-------------|
C#|--------|-----------7----7-----|-7------|--------|-------------|-------------|-------------|
G#|-2------|-5---5--5--5----5-----|-5------|--------|-------------|-------------|-------------|
D#|-0------|----------------------|--------|-0------|-------0-----|-------0-----|-------------|


D#|-------------|--------|--------|--------|--------|--------|--------|--------|--------|
A#|-------------|--------|--------|--------|--------|--------|--------|--------|--------|
F#|-------------|--------|--------|--------|--------|--------|--------|--------|--------|
C#|-------------|--------|--------|--------|--------|--------|--------|--------|--------|
G#|-------------|--------|--------|--------|--------|--------|--------|--------|--------|
D#|-------------|--------|--------|--------|--------|--------|--------|--------|--------|


D#|--------|--------|--------|--------|--------|--------|--------|--------|----------------------|
A#|--------|--------|--------|--------|--------|--------|--------|--------|----------------------|
F#|--------|--------|--------|--------|--------|--------|--------|--------|----------------------|
C#|--------|--------|--------|--------|--------|--------|--------|--------|----------------------|
G#|--------|--------|--------|--------|--------|--------|--------|--------|-----------------2----|
D#|--------|--------|--------|--------|--------|--------|--------|--------|-------0---0--0--0----|


D#|-------------|----------------------|-------------|----------------------|-------------|
A#|-------------|----------------------|-------------|----------------------|-------------|
F#|-------------|----------------------|-------------|----------------------|-------------|
C#|-------------|-----------------7----|-7-----7-----|----------------------|-------------|
G#|-2-----2-----|-------5---5--5--5----|-5-----5-----|-----------------2----|-2-----2-----|
D#|-0-----0-----|----------------------|-------------|-------0---0--0--0----|-0-----0-----|


D#|----------------------|-------------|----------------------|-------------|----------------------|
A#|----------------------|-------------|----------------------|-------------|----------------------|
F#|----------------------|-------------|----------------------|-------------|----------------------|
C#|-----------------7----|-7-----7-----|----------------------|-------------|-----------------7----|
G#|-------5---5--5--5----|-5-----5-----|-----------------2----|-2-----2-----|-------5---5--5--5----|
D#|----------------------|-------------|-------0---0--0--0----|-0-----0-----|----------------------|


D#|-------------|----------------------|-------------|----------------------|-------------|
A#|-------------|----------------------|-------------|----------------------|-------------|
F#|-------------|----------------------|-------------|----------------------|-------------|
C#|-7-----7-----|----------------------|-------------|-----------------7----|-7-----7-----|
G#|-5-----5-----|-----------------2----|-2-----2-----|-------5---5--5--5----|-5-----5-----|
D#|-------------|-------0---0--0--0----|-0-----0-----|----------------------|-------------|


D#|----------------------|-------------------------------|------------------------------------|
A#|----------------------|-------------------------------|------------------------------------|
F#|----------------------|-------------------------------|------------------------------------|
C#|-----------------9----|-----------9--------------9----|-----------9---------9--7------7----|
G#|-----------------7----|-----------7--------------7----|-----------7---------7--5---0--5----|
D#|-------0---0--0-------|-0---0--0-------0---0--0-------|-0---0--0------0--0-----------------|


D#|----------------------|-----------------------------|-------------------------------|
A#|----------------------|-----------------------------|-------------------------------|
F#|----------------------|-----------------------------|-------------------------------|
C#|-7-----7--5------5----|-5----5--7--------------9----|-----------9--------------9----|
G#|-5-----5--3---0--3----|-3----3--5--------------7----|-----------7--------------7----|
D#|----------------------|--------------0---0--0-------|-0---0--0-------0---0--0-------|


D#|------------------------------------|----------------------|-----------------------------|
A#|------------------------------------|----------------------|-----------------------------|
F#|------------------------------------|----------------------|-----------------------------|
C#|-----------9---------9--7------7----|-7-----7--5------5----|-5----5--7-------------------|
G#|-----------7---------7--5---0--5----|-5-----5--3---0--3----|-3----3--5--------------2----|
D#|-0---0--0------0--0-----------------|----------------------|--------------0---0--0--0----|


D#|-------------|----------------------|-------------|----------------------|-------------|
A#|-------------|----------------------|-------------|----------------------|-------------|
F#|-------------|----------------------|-------------|----------------------|-------------|
C#|-------------|-----------------7----|-7-----7-----|----------------------|-------------|
G#|-2-----2-----|-------5---5--5--5----|-5-----5-----|-----------------2----|-2-----2-----|
D#|-0-----0-----|----------------------|-------------|-------0---0--0--0----|-0-----0-----|


D#|----------------------|-------------|----------------------|-------------|----------------------|
A#|----------------------|-------------|----------------------|-------------|----------------------|
F#|----------------------|-------------|----------------------|-------------|----------------------|
C#|-----------------7----|-7-----7-----|----------------------|-------------|-----------------7----|
G#|-------5---5--5--5----|-5-----5-----|-----------------2----|-2-----2-----|-------5---5--5--5----|
D#|----------------------|-------------|-------0---0--0--0----|-0-----0-----|----------------------|


D#|-------------|----------------------|-------------|----------------------|-------------|
A#|-------------|----------------------|-------------|----------------------|-------------|
F#|-------------|----------------------|-------------|----------------------|-------------|
C#|-7-----7-----|----------------------|-------------|-----------------7----|-7-----7-----|
G#|-5-----5-----|-----------------2----|-2-----2-----|-------5---5--5--5----|-5-----5-----|
D#|-------------|-------0---0--0--0----|-0-----0-----|----------------------|-------------|


D#|----------------------|-------------|----------------------|-------------|----------------------|
A#|----------------------|-------------|----------------------|-------------|----------------------|
F#|----------------------|-------------|----------------------|-------------|----------------------|
C#|----------------------|-------------|-----------------7----|-7-----7-----|----------------------|
G#|-----------------2----|-2-----2-----|-------5---5--5--5----|-5-----5-----|-----------------2----|
D#|-------0---0--0--0----|-0-----0-----|----------------------|-------------|-------0---0--0--0----|


D#|-------------|----------------------|-------------|----------------------|-------------|
A#|-------------|----------------------|-------------|----------------------|-------------|
F#|-------------|----------------------|-------------|----------------------|-------------|
C#|-------------|-----------------7----|-7-----7-----|----------------------|-------------|
G#|-2-----2-----|-------5---5--5--5----|-5-----5-----|-----------------2----|-2-----2-----|
D#|-0-----0-----|----------------------|-------------|-------0---0--0--0----|-0-----0-----|


D#|----------------------|-------------|----------------------|-------------|----------------------|
A#|----------------------|-------------|----------------------|-------------|----------------------|
F#|----------------------|-------------|----------------------|-------------|----------------------|
C#|-----------------7----|-7-----7-----|----------------------|-------------|-----------------7----|
G#|-------5---5--5--5----|-5-----5-----|-----------------2----|-2-----2-----|-------5---5--5--5----|
D#|----------------------|-------------|-------0---0--0--0----|-0-----0-----|----------------------|


D#|-------------|--------|--------|--------|--------|--------|--------|--------|--------|
A#|-------------|--------|--------|--------|--------|--------|--------|--------|--------|
F#|-------------|--------|--------|--------|--------|--------|--------|--------|--------|
C#|-7-----7-----|--------|--------|--------|--------|--------|--------|--------|--------|
G#|-5-----5-----|--------|--------|--------|--------|--------|--------|--------|--------|
D#|-------------|--------|--------|--------|--------|--------|--------|--------|--------|


D#|--------|--------|--------|--------|--------|--------|--------|--------|--------|
A#|--------|--------|--------|--------|--------|--------|--------|--------|--------|
F#|--------|--------|--------|--------|--------|--------|--------|--------|--------|
C#|--------|--------|--------|--------|--------|--------|--------|--------|--------|
G#|--------|--------|--------|--------|--------|--------|--------|--------|--------|
D#|--------|--------|--------|--------|--------|--------|--------|--------|--------|





Track 4: Lead Guitar

D#|--------|--------|--------|--------|--------|--------|--------|--------|--------|
A#|--------|--------|--------|--------|--------|--------|--------|--------|--------|
F#|--------|--------|--------|--------|--------|--------|--------|--------|--------|
C#|--------|--------|--------|--------|--------|--------|--------|--------|--------|
G#|--------|--------|--------|--------|--------|--------|--------|--------|--------|
D#|--------|--------|--------|--------|--------|--------|--------|--------|--------|


D#|--------|--------|--------|--------|--------|--------|--------|--------|--------|
A#|--------|--------|--------|--------|--------|--------|--------|--------|--------|
F#|--------|--------|--------|--------|--------|--------|--------|--------|--------|
C#|--------|--------|--------|--------|--------|--------|--------|--------|--------|
G#|--------|--------|--------|--------|--------|--------|--------|--------|--------|
D#|--------|--------|--------|--------|--------|--------|--------|--------|--------|


D#|--------|--------|--------|--------|--------|--------|--------|--------|--------|
A#|--------|--------|--------|--------|--------|--------|--------|--------|--------|
F#|--------|--------|--------|--------|--------|--------|--------|--------|--------|
C#|--------|--------|--------|--------|--------|--------|--------|--------|--------|
G#|--------|--------|--------|--------|--------|--------|--------|--------|--------|
D#|--------|--------|--------|--------|--------|--------|--------|--------|--------|


D#|--------|--------|--------|--------|--------|--------|--------|--------|--------|
A#|--------|--------|--------|--------|--------|--------|--------|--------|--------|
F#|--------|--------|--------|--------|--------|--------|--------|--------|--------|
C#|--------|--------|--------|--------|--------|--------|--------|--------|--------|
G#|--------|--------|--------|--------|--------|--------|--------|--------|--------|
D#|--------|--------|--------|--------|--------|--------|--------|--------|--------|


D#|--------|--------|--------|--------|--------|--------|--------|--------|--------|
A#|--------|--------|--------|--------|--------|--------|--------|--------|--------|
F#|--------|--------|--------|--------|--------|--------|--------|--------|--------|
C#|--------|--------|--------|--------|--------|--------|--------|--------|--------|
G#|--------|--------|--------|--------|--------|--------|--------|--------|--------|
D#|--------|--------|--------|--------|--------|--------|--------|--------|--------|


D#|--------|--------|--------|--------|--------|--------|--------|--------|--------|
A#|--------|--------|--------|--------|--------|--------|--------|--------|--------|
F#|--------|--------|--------|--------|--------|--------|--------|--------|--------|
C#|--------|--------|--------|--------|--------|--------|--------|--------|--------|
G#|--------|--------|--------|--------|--------|--------|--------|--------|--------|
D#|--------|--------|--------|--------|--------|--------|--------|--------|--------|


D#|--------|--------|--------|--------|--------|--------|--------|--------|--------|
A#|--------|--------|--------|--------|--------|--------|--------|--------|--------|
F#|--------|--------|--------|--------|--------|--------|--------|--------|--------|
C#|--------|--------|--------|--------|--------|--------|--------|--------|--------|
G#|--------|--------|--------|--------|--------|--------|--------|--------|--------|
D#|--------|--------|--------|--------|--------|--------|--------|--------|--------|


D#|--------|--------|--------|--------|--------|--------|--------|--------|--------|
A#|--------|--------|--------|--------|--------|--------|--------|--------|--------|
F#|--------|--------|--------|--------|--------|--------|--------|--------|--------|
C#|--------|--------|--------|--------|--------|--------|--------|--------|--------|
G#|--------|--------|--------|--------|--------|--------|--------|--------|--------|
D#|--------|--------|--------|--------|--------|--------|--------|--------|--------|


D#|--------|--------|--------|--------|--------|-------------------------------|-------------------------------12---|
A#|--------|--------|--------|--------|--------|-------------------------------|----10-12-13-12---12--10-12-13------|
F#|--------|--------|--------|--------|--------|-------------------------9--11-|-12---------------------------------|
C#|--------|--------|--------|--------|--------|----------------7--9--10-------|------------------------------------|
G#|--------|--------|--------|--------|--------|-------7--9--10----------------|------------------------------------|
D#|--------|--------|--------|--------|--------|-------------------------------|------------------------------------|


D#|-12--13-12-10-12--19--19--20--17---|-17----14--15--15---|-15--14-15------19-15----------15-19-15-15-20-15-15-|
A#|-----------------------------------|--------------------|-----------17---------17----17----------------------|
F#|-----------------------------------|--------------------|-------------------------16-------------------------|
C#|-----------------------------------|--------------------|----------------------------------------------------|
G#|-----------------------------------|--------------------|----------------------------------------------------|
D#|-----------------------------------|--------------------|----------------------------------------------------|


D#|-19-15----------15-19-15-15-20-15-15-19-15----------15-19-15-15-20-15-15-|-20---20-19--20--19-17---17---|
A#|-------17----17----------------------------17----17----------------------|------------------------------|
F#|----------16----------------------------------16-------------------------|------------------------------|
C#|-------------------------------------------------------------------------|------------------------------|
G#|-------------------------------------------------------------------------|------------------------------|
D#|-------------------------------------------------------------------------|------------------------------|


D#|-17--17-20-20-19---17-19-17-19-17-19-15-17-15-17-14-15-|-14----------14-15-14-19-14-12----|
A#|-------------------------------------------------------|----15----15----------------------|
F#|-------------------------------------------------------|-------14-------------------------|
C#|-------------------------------------------------------|----------------------------------|
G#|-------------------------------------------------------|----------------------------------|
D#|-------------------------------------------------------|----------------------------------|


D#|-------12----|-12----------|--------|--------|--------|--------|--------|--------|
A#|-------------|-------------|--------|--------|--------|--------|--------|--------|
F#|-------------|-------------|--------|--------|--------|--------|--------|--------|
C#|-------------|-------------|--------|--------|--------|--------|--------|--------|
G#|-------------|-------------|--------|--------|--------|--------|--------|--------|
D#|-------------|-------------|--------|--------|--------|--------|--------|--------|


D#|--------|--------|--------|--------|--------|--------|--------|--------|--------|
A#|--------|--------|--------|--------|--------|--------|--------|--------|--------|
F#|--------|--------|--------|--------|--------|--------|--------|--------|--------|
C#|--------|--------|--------|--------|--------|--------|--------|--------|--------|
G#|--------|--------|--------|--------|--------|--------|--------|--------|--------|
D#|--------|--------|--------|--------|--------|--------|--------|--------|--------|


D#|--------|--------|--------|--------|--------|--------|--------|--------|--------|
A#|--------|--------|--------|--------|--------|--------|--------|--------|--------|
F#|--------|--------|--------|--------|--------|--------|--------|--------|--------|
C#|--------|--------|--------|--------|--------|--------|--------|--------|--------|
G#|--------|--------|--------|--------|--------|--------|--------|--------|--------|
D#|--------|--------|--------|--------|--------|--------|--------|--------|--------|


D#|--------|--------|--------|--------|--------|-----------------------|--------------------------------------|
A#|--------|--------|--------|--------|--------|-------8---------------|----------------------8---------------|
F#|--------|--------|--------|--------|--------|-----------9-------11--|-11--9--11-9--11--9-------9-------11--|
C#|--------|--------|--------|--------|--------|---------------9-------|------------------------------9-------|
G#|--------|--------|--------|--------|--------|-----------------------|--------------------------------------|
D#|--------|--------|--------|--------|--------|-----------------------|--------------------------------------|


D#|----------------------------|-------------|--------------------------------------|
A#|----------------------------|-------7-----|-8---7--8--7----------8---------------|
F#|-11--9--11-9--11--9---7-----|-9-----------|--------------9---7-------9-------11--|
C#|----------------------------|-------------|------------------------------9-------|
G#|----------------------------|-------------|--------------------------------------|
D#|----------------------------|-------------|--------------------------------------|


D#|--------------------------------------|----------------------------|-------------|
A#|----------------------8---------------|----------------------------|-------7-----|
F#|-11--9--11-9--11--9-------9-------11--|-11--9--11-9--11--9---7-----|-9-----------|
C#|------------------------------9-------|----------------------------|-------------|
G#|--------------------------------------|----------------------------|-------------|
D#|--------------------------------------|----------------------------|-------------|


D#|--------------------------------------|--------------------------------------|----------------------------|
A#|-8---7--8--7----------8---------------|----------------------8---------------|----------------------------|
F#|--------------9---7-------9-------11--|-11--9--11-9--11--9-------9-------11--|-11--9--11-9--11--9---7-----|
C#|------------------------------9-------|------------------------------9-------|----------------------------|
G#|--------------------------------------|--------------------------------------|----------------------------|
D#|--------------------------------------|--------------------------------------|----------------------------|


D#|-------------|--------------------------------------|--------------------------------------|
A#|-------7-----|-8---7--8--7----------8---------------|----------------------8---------------|
F#|-9-----------|--------------9---7-------9-------11--|-11--9--11-9--11--9-------9-------11--|
C#|-------------|------------------------------9-------|------------------------------9-------|
G#|-------------|--------------------------------------|--------------------------------------|
D#|-------------|--------------------------------------|--------------------------------------|


D#|----------------------------|-------------|----------------------------|
A#|----------------------------|-------7-----|-8---7--8--7----------------|
F#|-11--9--11-9--11--9---7-----|-9-----------|--------------9---7---------|
C#|----------------------------|-------------|----------------------------|
G#|----------------------------|-------------|----------------------------|
D#|----------------------------|-------------|----------------------------|





Track 5: Harmony Guitar

D#|--------|--------|--------|--------|--------|--------|--------|--------|--------|
A#|--------|--------|--------|--------|--------|--------|--------|--------|--------|
F#|--------|--------|--------|--------|--------|--------|--------|--------|--------|
C#|--------|--------|--------|--------|--------|--------|--------|--------|--------|
G#|--------|--------|--------|--------|--------|--------|--------|--------|--------|
D#|--------|--------|--------|--------|--------|--------|--------|--------|--------|


D#|--------|--------|--------|--------|--------|--------|--------|--------|--------|
A#|--------|--------|--------|--------|--------|--------|--------|--------|--------|
F#|--------|--------|--------|--------|--------|--------|--------|--------|--------|
C#|--------|--------|--------|--------|--------|--------|--------|--------|--------|
G#|--------|--------|--------|--------|--------|--------|--------|--------|--------|
D#|--------|--------|--------|--------|--------|--------|--------|--------|--------|


D#|--------|--------|--------|--------|--------|--------|--------|--------|--------|
A#|--------|--------|--------|--------|--------|--------|--------|--------|--------|
F#|--------|--------|--------|--------|--------|--------|--------|--------|--------|
C#|--------|--------|--------|--------|--------|--------|--------|--------|--------|
G#|--------|--------|--------|--------|--------|--------|--------|--------|--------|
D#|--------|--------|--------|--------|--------|--------|--------|--------|--------|


D#|--------|--------|--------|--------|--------|--------|--------|--------|--------|
A#|--------|--------|--------|--------|--------|--------|--------|--------|--------|
F#|--------|--------|--------|--------|--------|--------|--------|--------|--------|
C#|--------|--------|--------|--------|--------|--------|--------|--------|--------|
G#|--------|--------|--------|--------|--------|--------|--------|--------|--------|
D#|--------|--------|--------|--------|--------|--------|--------|--------|--------|


D#|--------|--------|--------|--------|--------|--------|--------|--------|--------|
A#|--------|--------|--------|--------|--------|--------|--------|--------|--------|
F#|--------|--------|--------|--------|--------|--------|--------|--------|--------|
C#|--------|--------|--------|--------|--------|--------|--------|--------|--------|
G#|--------|--------|--------|--------|--------|--------|--------|--------|--------|
D#|--------|--------|--------|--------|--------|--------|--------|--------|--------|


D#|--------|--------|--------|--------|--------|--------|--------|--------|--------|
A#|--------|--------|--------|--------|--------|--------|--------|--------|--------|
F#|--------|--------|--------|--------|--------|--------|--------|--------|--------|
C#|--------|--------|--------|--------|--------|--------|--------|--------|--------|
G#|--------|--------|--------|--------|--------|--------|--------|--------|--------|
D#|--------|--------|--------|--------|--------|--------|--------|--------|--------|


D#|--------|--------|--------|--------|--------|--------|--------|--------|--------|
A#|--------|--------|--------|--------|--------|--------|--------|--------|--------|
F#|--------|--------|--------|--------|--------|--------|--------|--------|--------|
C#|--------|--------|--------|--------|--------|--------|--------|--------|--------|
G#|--------|--------|--------|--------|--------|--------|--------|--------|--------|
D#|--------|--------|--------|--------|--------|--------|--------|--------|--------|


D#|--------|--------|--------|--------|--------|--------|--------|--------|--------|
A#|--------|--------|--------|--------|--------|--------|--------|--------|--------|
F#|--------|--------|--------|--------|--------|--------|--------|--------|--------|
C#|--------|--------|--------|--------|--------|--------|--------|--------|--------|
G#|--------|--------|--------|--------|--------|--------|--------|--------|--------|
D#|--------|--------|--------|--------|--------|--------|--------|--------|--------|


D#|--------|--------|--------|--------|--------|--------|--------|--------|--------|
A#|--------|--------|--------|--------|--------|--------|--------|--------|--------|
F#|--------|--------|--------|--------|--------|--------|--------|--------|--------|
C#|--------|--------|--------|--------|--------|--------|--------|--------|--------|
G#|--------|--------|--------|--------|--------|--------|--------|--------|--------|
D#|--------|--------|--------|--------|--------|--------|--------|--------|--------|


D#|--------|--------|--------|--------|--------|--------|--------|--------|--------|
A#|--------|--------|--------|--------|--------|--------|--------|--------|--------|
F#|--------|--------|--------|--------|--------|--------|--------|--------|--------|
C#|--------|--------|--------|--------|--------|--------|--------|--------|--------|
G#|--------|--------|--------|--------|--------|--------|--------|--------|--------|
D#|--------|--------|--------|--------|--------|--------|--------|--------|--------|


D#|--------|--------|--------|--------|--------|--------|--------|--------|--------|
A#|--------|--------|--------|--------|--------|--------|--------|--------|--------|
F#|--------|--------|--------|--------|--------|--------|--------|--------|--------|
C#|--------|--------|--------|--------|--------|--------|--------|--------|--------|
G#|--------|--------|--------|--------|--------|--------|--------|--------|--------|
D#|--------|--------|--------|--------|--------|--------|--------|--------|--------|


D#|--------|--------|-------15----|-------15----|-19----19--17----|-------19----|-17----15----|
A#|--------|--------|-------17----|-------17----|-20----20--19----|-------20----|-19----17----|
F#|--------|--------|-------------|-------------|-----------------|-------------|-------------|
C#|--------|--------|-------------|-------------|-----------------|-------------|-------------|
G#|--------|--------|-------------|-------------|-----------------|-------------|-------------|
D#|--------|--------|-------------|-------------|-----------------|-------------|-------------|


D#|-------15----|-19----19--17----|-19----20----|-22----22--15----|-------15----|-19----19--17----|
A#|-------17----|-20----20--19----|-20----22----|-24----24--17----|-------17----|-20----20--19----|
F#|-------------|-----------------|-------------|-----------------|-------------|-----------------|
C#|-------------|-----------------|-------------|-----------------|-------------|-----------------|
G#|-------------|-----------------|-------------|-----------------|-------------|-----------------|
D#|-------------|-----------------|-------------|-----------------|-------------|-----------------|


D#|-------19----|-17----15----|-------15----|-19----19--17----|-19----20----|-22----22--15----|
A#|-------20----|-19----17----|-------17----|-20----20--19----|-20----22----|-24----24--17----|
F#|-------------|-------------|-------------|-----------------|-------------|-----------------|
C#|-------------|-------------|-------------|-----------------|-------------|-----------------|
G#|-------------|-------------|-------------|-----------------|-------------|-----------------|
D#|-------------|-------------|-------------|-----------------|-------------|-----------------|


D#|-------15----|-19----19--17----|-------19----|-17----15----|-------15----|-19----19--17----|
A#|-------17----|-20----20--19----|-------20----|-19----17----|-------17----|-20----20--19----|
F#|-------------|-----------------|-------------|-------------|-------------|-----------------|
C#|-------------|-----------------|-------------|-------------|-------------|-----------------|
G#|-------------|-----------------|-------------|-------------|-------------|-----------------|
D#|-------------|-----------------|-------------|-------------|-------------|-----------------|


D#|-19----20----|-22----22--15----|-------15----|-19----19--17----|-------19----|-17----15----|
A#|-20----22----|-24----24--17----|-------17----|-20----20--19----|-------20----|-19----17----|
F#|-------------|-----------------|-------------|-----------------|-------------|-------------|
C#|-------------|-----------------|-------------|-----------------|-------------|-------------|
G#|-------------|-----------------|-------------|-----------------|-------------|-------------|
D#|-------------|-----------------|-------------|-----------------|-------------|-------------|


D#|-------15----|-19----19--17----|-19----20----|-22----22--------|
A#|-------17----|-20----20--19----|-20----22----|-24----24--------|
F#|-------------|-----------------|-------------|-----------------|
C#|-------------|-----------------|-------------|-----------------|
G#|-------------|-----------------|-------------|-----------------|
D#|-------------|-----------------|-------------|-----------------|





Track 6: Harmony Guitar

D#|--------|--------|--------|--------|--------|--------|--------|--------|--------|
A#|--------|--------|--------|--------|--------|--------|--------|--------|--------|
F#|--------|--------|--------|--------|--------|--------|--------|--------|--------|
C#|--------|--------|--------|--------|--------|--------|--------|--------|--------|
G#|--------|--------|--------|--------|--------|--------|--------|--------|--------|
D#|--------|--------|--------|--------|--------|--------|--------|--------|--------|


D#|--------|--------|--------|--------|--------|--------|--------|--------|--------|
A#|--------|--------|--------|--------|--------|--------|--------|--------|--------|
F#|--------|--------|--------|--------|--------|--------|--------|--------|--------|
C#|--------|--------|--------|--------|--------|--------|--------|--------|--------|
G#|--------|--------|--------|--------|--------|--------|--------|--------|--------|
D#|--------|--------|--------|--------|--------|--------|--------|--------|--------|


D#|--------|--------|--------|--------|--------|--------|--------|--------|--------|
A#|--------|--------|--------|--------|--------|--------|--------|--------|--------|
F#|--------|--------|--------|--------|--------|--------|--------|--------|--------|
C#|--------|--------|--------|--------|--------|--------|--------|--------|--------|
G#|--------|--------|--------|--------|--------|--------|--------|--------|--------|
D#|--------|--------|--------|--------|--------|--------|--------|--------|--------|


D#|--------|--------|--------|--------|--------|--------|--------|--------|--------|
A#|--------|--------|--------|--------|--------|--------|--------|--------|--------|
F#|--------|--------|--------|--------|--------|--------|--------|--------|--------|
C#|--------|--------|--------|--------|--------|--------|--------|--------|--------|
G#|--------|--------|--------|--------|--------|--------|--------|--------|--------|
D#|--------|--------|--------|--------|--------|--------|--------|--------|--------|


D#|--------|--------|--------|--------|--------|--------|--------|--------|--------|
A#|--------|--------|--------|--------|--------|--------|--------|--------|--------|
F#|--------|--------|--------|--------|--------|--------|--------|--------|--------|
C#|--------|--------|--------|--------|--------|--------|--------|--------|--------|
G#|--------|--------|--------|--------|--------|--------|--------|--------|--------|
D#|--------|--------|--------|--------|--------|--------|--------|--------|--------|


D#|--------|--------|--------|--------|--------|--------|--------|--------|--------|
A#|--------|--------|--------|--------|--------|--------|--------|--------|--------|
F#|--------|--------|--------|--------|--------|--------|--------|--------|--------|
C#|--------|--------|--------|--------|--------|--------|--------|--------|--------|
G#|--------|--------|--------|--------|--------|--------|--------|--------|--------|
D#|--------|--------|--------|--------|--------|--------|--------|--------|--------|


D#|--------|--------|--------|--------|--------|--------|--------|--------|--------|
A#|--------|--------|--------|--------|--------|--------|--------|--------|--------|
F#|--------|--------|--------|--------|--------|--------|--------|--------|--------|
C#|--------|--------|--------|--------|--------|--------|--------|--------|--------|
G#|--------|--------|--------|--------|--------|--------|--------|--------|--------|
D#|--------|--------|--------|--------|--------|--------|--------|--------|--------|


D#|--------|--------|--------|--------|--------|--------|--------|--------|--------|
A#|--------|--------|--------|--------|--------|--------|--------|--------|--------|
F#|--------|--------|--------|--------|--------|--------|--------|--------|--------|
C#|--------|--------|--------|--------|--------|--------|--------|--------|--------|
G#|--------|--------|--------|--------|--------|--------|--------|--------|--------|
D#|--------|--------|--------|--------|--------|--------|--------|--------|--------|


D#|--------|--------|--------|--------|--------|--------|--------|--------|--------|
A#|--------|--------|--------|--------|--------|--------|--------|--------|--------|
F#|--------|--------|--------|--------|--------|--------|--------|--------|--------|
C#|--------|--------|--------|--------|--------|--------|--------|--------|--------|
G#|--------|--------|--------|--------|--------|--------|--------|--------|--------|
D#|--------|--------|--------|--------|--------|--------|--------|--------|--------|


D#|--------|--------|--------|--------|--------|--------|--------|--------|--------|
A#|--------|--------|--------|--------|--------|--------|--------|--------|--------|
F#|--------|--------|--------|--------|--------|--------|--------|--------|--------|
C#|--------|--------|--------|--------|--------|--------|--------|--------|--------|
G#|--------|--------|--------|--------|--------|--------|--------|--------|--------|
D#|--------|--------|--------|--------|--------|--------|--------|--------|--------|


D#|--------|--------|--------|--------|--------|--------|--------|--------|--------|
A#|--------|--------|--------|--------|--------|--------|--------|--------|--------|
F#|--------|--------|--------|--------|--------|--------|--------|--------|--------|
C#|--------|--------|--------|--------|--------|--------|--------|--------|--------|
G#|--------|--------|--------|--------|--------|--------|--------|--------|--------|
D#|--------|--------|--------|--------|--------|--------|--------|--------|--------|


D#|--------|--------|--------|--------|--------|--------|--------|--------|--------|
A#|--------|--------|--------|--------|--------|--------|--------|--------|--------|
F#|--------|--------|--------|--------|--------|--------|--------|--------|--------|
C#|--------|--------|--------|--------|--------|--------|--------|--------|--------|
G#|--------|--------|--------|--------|--------|--------|--------|--------|--------|
D#|--------|--------|--------|--------|--------|--------|--------|--------|--------|


D#|--------|--------|--------|--------|--------|--------|--------|--------|--------|
A#|--------|--------|--------|--------|--------|--------|--------|--------|--------|
F#|--------|--------|--------|--------|--------|--------|--------|--------|--------|
C#|--------|--------|--------|--------|--------|--------|--------|--------|--------|
G#|--------|--------|--------|--------|--------|--------|--------|--------|--------|
D#|--------|--------|--------|--------|--------|--------|--------|--------|--------|


D#|-------7---------------|----------------------7---------------|----------------------------|
A#|-----------8-------10--|-10--8--10-8--10--8-------8-------10--|-10--8--10-8--10--8---7-----|
F#|---------------9-------|------------------------------9-------|----------------------------|
C#|-----------------------|--------------------------------------|----------------------------|
G#|-----------------------|--------------------------------------|----------------------------|
D#|-----------------------|--------------------------------------|----------------------------|


D#|-------------|----------------------7---------------|----------------------7---------------|
A#|-8-----10----|-12--10-12-10-------------8-------10--|-10--8--10-8--10--8-------8-------10--|
F#|-------------|--------------12--11----------9-------|------------------------------9-------|
C#|-------------|--------------------------------------|--------------------------------------|
G#|-------------|--------------------------------------|--------------------------------------|
D#|-------------|--------------------------------------|--------------------------------------|


D#|----------------------------|-------------|----------------------7---------------|
A#|-10--8--10-8--10--8---7-----|-8-----10----|-12--10-12-10-------------8-------10--|
F#|----------------------------|-------------|--------------12--11----------9-------|
C#|----------------------------|-------------|--------------------------------------|
G#|----------------------------|-------------|--------------------------------------|
D#|----------------------------|-------------|--------------------------------------|


D#|----------------------7---------------|----------------------------|-------------|
A#|-10--8--10-8--10--8-------8-------10--|-10--8--10-8--10--8---7-----|-8-----10----|
F#|------------------------------9-------|----------------------------|-------------|
C#|--------------------------------------|----------------------------|-------------|
G#|--------------------------------------|----------------------------|-------------|
D#|--------------------------------------|----------------------------|-------------|


D#|----------------------7---------------|----------------------7---------------|----------------------------|
A#|-12--10-12-10-------------8-------10--|-10--8--10-8--10--8-------8-------10--|-10--8--10-8--10--8---7-----|
F#|--------------12--11----------9-------|------------------------------9-------|----------------------------|
C#|--------------------------------------|--------------------------------------|----------------------------|
G#|--------------------------------------|--------------------------------------|----------------------------|
D#|--------------------------------------|--------------------------------------|----------------------------|


D#|-------------|----------------------------|
A#|-8-----10----|-12--10-12-10---------------|
F#|-------------|--------------12--11--------|
C#|-------------|----------------------------|
G#|-------------|----------------------------|
D#|-------------|----------------------------|





Track 7: Bass

F#|--------|--------|--------|--------|--------|--------|--------|--------|--------|
C#|--------|--------|--------|--------|--------|--------|--------|--------|--------|
G#|--------|--------|--------|--------|--------|--------|--------|--------|--------|
D#|--------|--------|--------|--------|--------|--------|--------|--------|--------|


F#|--------|--------|--------|--------|--------|--------|--------|--------|--------|
C#|--------|--------|--------|--------|--------|--------|--------|--------|--------|
G#|--------|--------|--------|--------|--------|--------|--------|--------|--------|
D#|--------|--------|--------|--------|--------|--------|--------|--------|--------|


F#|--------|--------|--------|--------|--------|--------|-----------------------------------------|
C#|--------|--------|--------|--------|--------|--------|-----------------------------------------|
G#|--------|--------|--------|--------|--------|--------|-----------------------------------------|
D#|--------|--------|--------|--------|--------|--------|-0---0--0--0---0--0--0---0--0--0---0--0--|


F#|-----------------------------------------|-----------------------------------------|
C#|-----------------------------------------|-----------------------------------------|
G#|-----------------------------------------|-5---5--5--5---5--5--5---5--5--5---5--5--|
D#|-0---0--0--0---0--0--0---0--0--0---0--0--|-----------------------------------------|


F#|-----------------------------------------|-----------------------------------------|
C#|-----------------------------------------|-----------------------------------------|
G#|-5---5--5--5---5--5--5---5--5--5---5--5--|-----------------------------------------|
D#|-----------------------------------------|-0---0--0--0---0--0--0---0--0--0---0--0--|


F#|-----------------------------------------|-----------------------------------------|
C#|-----------------------------------------|-----------------------------------------|
G#|-----------------------------------------|-5---5--5--5---5--5--5---5--5--5---5--5--|
D#|-0---0--0--0---0--0--0---0--0--0---0--0--|-----------------------------------------|


F#|-----------------------------------------|-----------------------------------------|
C#|-----------------------------------------|-----------------------------------------|
G#|-5---5--5--5---5--5--5---5--5--5---5--5--|-----------------------------------------|
D#|-----------------------------------------|-0---0--0--0---0--0--0---0--0--0---0--0--|


F#|-----------------------------------------|-----------------------------------------|
C#|-----------------------------------------|-----------------------------------------|
G#|-----------------------------------------|-5---5--5--5---5--5--5---5--5--5---5--5--|
D#|-0---0--0--0---0--0--0---0--0--0---0--0--|-----------------------------------------|


F#|-----------------------------------------|-----------------------------------------|
C#|-----------------------------------------|-----------------------------------------|
G#|-5---5--5--5---5--5--5---5--5--5---5--5--|-----------------------------------------|
D#|-----------------------------------------|-0---0--0--0---0--0--0---0--0--0---0--0--|


F#|-----------------------------------------|-----------------------------------------|
C#|-----------------------------------------|-----------------------------------------|
G#|-----------------------------------------|-5---5--5--5---5--5--5---5--5--5---5--5--|
D#|-0---0--0--0---0--0--0---0--0--0---0--0--|-----------------------------------------|


F#|-----------------------------------------|--------|-------------|-------------|
C#|-----------------------------------------|--------|-------------|-------------|
G#|-5---5--5--5---5--5--5---5--5--5---5--5--|--------|-------------|-------------|
D#|-----------------------------------------|-0------|-------0-----|-------0-----|


F#|-------------|-------------|-------------|-------------|-------------|-------------|
C#|-------------|-------------|-------------|-------------|-------------|-------------|
G#|-------------|-------------|-------------|-------------|-------5-----|-------3-----|
D#|-------------|-------------|-------0-----|-------0-----|-------------|-------------|


F#|-----------------|-------------|-------------|--------------------|--------------------|
C#|-----------------|-------------|-------------|--------------------|--------------------|
G#|-----------------|-------------|-------5-----|------0---2---3-----|--------------------|
D#|-------0---0-----|-------0-----|-------------|--------------------|------3---2---0-----|


F#|---------------------------|-------------|-------------|--------------------|---------------------------|
C#|---------------------------|-------------|-------------|--------------------|---------------------------|
G#|---------------------------|-------5-----|-------3-----|--------------------|---------------------------|
D#|-------2-------3-------5---|-5-----------|-------------|------3---2---0-----|-------2-------3-------5---|


F#|----------------------|------------------------|-------------------------------|
C#|----------------------|------------------------|-------------------------------|
G#|----------5--7--5-----|------0---2---3---------|-------------------------------|
D#|-5--------------------|--------------------3---|------2----0---0--0--0---0--0--|


F#|-----------------------------------------|-----------------------------------------|
C#|-----------------------------------------|-----------------------------------------|
G#|-----------------------------------------|---------------------5---5--5--5---5--5--|
D#|-0---0--0--0---0--0--0---0--0--0---0--0--|-0---0--0--0---0--0----------------------|


F#|-----------------------------------------|-----------------------------------------|
C#|-----------------------------------------|-----------------------------------------|
G#|-5---5--5--5---5--5--5---5--5--5---5--5--|-5---5--5--5---5--5----------------------|
D#|-----------------------------------------|---------------------0---0--0--0---0--0--|


F#|-----------------------------------------|-----------------------------------------|
C#|-----------------------------------------|-----------------------------------------|
G#|-----------------------------------------|---------------------5---5--5--5---5--5--|
D#|-0---0--0--0---0--0--0---0--0--0---0--0--|-0---0--0--0---0--0----------------------|


F#|-----------------------------------------|-----------------------------------------|
C#|-----------------------------------------|-----------------------------------------|
G#|-5---5--5--5---5--5--5---5--5--5---5--5--|-5---5--5--5---5--5----------------------|
D#|-----------------------------------------|---------------------0---0--0--0---0--0--|


F#|-----------------------------------------|-----------------------------------------|
C#|-----------------------------------------|-----------------------------------------|
G#|-----------------------------------------|---------------------5---5--5--5---5--5--|
D#|-0---0--0--0---0--0--0---0--0--0---0--0--|-0---0--0--0---0--0----------------------|


F#|-----------------------------------------|-----------------------------------------|
C#|-----------------------------------------|-----------------------------------------|
G#|-5---5--5--5---5--5--5---5--5--5---5--5--|-5---5--5--5---5--5----------------------|
D#|-----------------------------------------|---------------------0---0--0--0---0--0--|


F#|-----------------------------------------|-----------------------------------------|
C#|-----------------------------------------|-----------------------------------------|
G#|-----------------------------------------|---------------------5---5--5--5---5--5--|
D#|-0---0--0--0---0--0--0---0--0--0---0--0--|-0---0--0--0---0--0----------------------|


F#|-----------------------------------------|-----------------------------------------|
C#|-----------------------------------------|-----------------------------------------|
G#|-5---5--5--5---5--5--5---5--5--5---5--5--|-5---5--5--5---5--5--7---7--7--7---7--7--|
D#|-----------------------------------------|-----------------------------------------|


F#|-----------------------------------------|-----------------------------------------|
C#|-----------------------------------------|-----------------------------------------|
G#|-7---7--7--7---7--7--7---7--7--7---7--7--|-7---7--7--7---7--7--5---5--5--5---5--5--|
D#|-----------------------------------------|-----------------------------------------|


F#|-----------------------------------------|------------------------------------|
C#|-----------------------------------------|------------------------------------|
G#|-5---5--5--5---5--5--3---3--3--3---3--3--|-3---3--3--5----7---7--7--7---7--7--|
D#|-----------------------------------------|------------------------------------|


F#|-----------------------------------------|-----------------------------------------|
C#|-----------------------------------------|-----------------------------------------|
G#|-7---7--7--7---7--7--7---7--7--7---7--7--|-7---7--7--7---7--7--5---5--5--5---5--5--|
D#|-----------------------------------------|-----------------------------------------|


F#|-----------------------------------------|------------------------------------|
C#|-----------------------------------------|------------------------------------|
G#|-5---5--5--5---5--5--3---3--3--3---3--3--|-3---3--3--5------------------------|
D#|-----------------------------------------|----------------0---0--0--0---0--0--|


F#|-----------------------------------------|-----------------------------------------|
C#|-----------------------------------------|-----------------------------------------|
G#|-----------------------------------------|---------------------5---5--5--5---5--5--|
D#|-0---0--0--0---0--0--0---0--0--0---0--0--|-0---0--0--0---0--0----------------------|


F#|-----------------------------------------|-----------------------------------------|
C#|-----------------------------------------|-----------------------------------------|
G#|-5---5--5--5---5--5--5---5--5--5---5--5--|-5---5--5--5---5--5----------------------|
D#|-----------------------------------------|---------------------0---0--0--0---0--0--|


F#|-----------------------------------------|-----------------------------------------|
C#|-----------------------------------------|-----------------------------------------|
G#|-----------------------------------------|---------------------5---5--5--5---5--5--|
D#|-0---0--0--0---0--0--0---0--0--0---0--0--|-0---0--0--0---0--0----------------------|


F#|-----------------------------------------|-----------------------------------------|
C#|-----------------------------------------|-----------------------------------------|
G#|-5---5--5--5---5--5--5---5--5--5---5--5--|-5---5--5--5---5--5----------------------|
D#|-----------------------------------------|---------------------0---0--0--0---0--0--|


F#|-----------------------------------------|-----------------------------------------|
C#|-----------------------------------------|-----------------------------------------|
G#|-----------------------------------------|---------------------5---5--5--5---5--5--|
D#|-0---0--0--0---0--0--0---0--0--0---0--0--|-0---0--0--0---0--0----------------------|


F#|-----------------------------------------|-----------------------------------------|
C#|-----------------------------------------|-----------------------------------------|
G#|-5---5--5--5---5--5--5---5--5--5---5--5--|-5---5--5--5---5--5----------------------|
D#|-----------------------------------------|---------------------0---0--0--0---0--0--|


F#|-----------------------------------------|-----------------------------------------|
C#|-----------------------------------------|-----------------------------------------|
G#|-----------------------------------------|---------------------5---5--5--5---5--5--|
D#|-0---0--0--0---0--0--0---0--0--0---0--0--|-0---0--0--0---0--0----------------------|


F#|-----------------------------------------|-----------------------------------------|
C#|-----------------------------------------|-----------------------------------------|
G#|-5---5--5--5---5--5--5---5--5--5---5--5--|-5---5--5--5---5--5----------------------|
D#|-----------------------------------------|---------------------0---0--0--0---0--0--|


F#|-----------------------------------------|-----------------------------------------|
C#|-----------------------------------------|-----------------------------------------|
G#|-----------------------------------------|---------------------5---5--5--5---5--5--|
D#|-0---0--0--0---0--0--0---0--0--0---0--0--|-0---0--0--0---0--0----------------------|


F#|-----------------------------------------|-----------------------------------------|
C#|-----------------------------------------|-----------------------------------------|
G#|-5---5--5--5---5--5--5---5--5--5---5--5--|-5---5--5--5---5--5----------------------|
D#|-----------------------------------------|---------------------0---0--0--0---0--0--|


F#|-----------------------------------------|-----------------------------------------|
C#|-----------------------------------------|-----------------------------------------|
G#|-----------------------------------------|---------------------5---5--5--5---5--5--|
D#|-0---0--0--0---0--0--0---0--0--0---0--0--|-0---0--0--0---0--0----------------------|


F#|-----------------------------------------|-----------------------------------------|
C#|-----------------------------------------|-----------------------------------------|
G#|-5---5--5--5---5--5--5---5--5--5---5--5--|-5---5--5--5---5--5----------------------|
D#|-----------------------------------------|---------------------0---0--0--0---0--0--|


F#|-----------------------------------------|-----------------------------------------|
C#|-----------------------------------------|-----------------------------------------|
G#|-----------------------------------------|---------------------5---5--5--5---5--5--|
D#|-0---0--0--0---0--0--0---0--0--0---0--0--|-0---0--0--0---0--0----------------------|


F#|-----------------------------------------|-----------------------------------------|
C#|-----------------------------------------|-----------------------------------------|
G#|-5---5--5--5---5--5--5---5--5--5---5--5--|-5---5--5--5---5--5----------------------|
D#|-----------------------------------------|---------------------0---0--0--0---0--0--|


F#|-----------------------------------------|-----------------------------------------|
C#|-----------------------------------------|-----------------------------------------|
G#|-----------------------------------------|---------------------5---5--5--5---5--5--|
D#|-0---0--0--0---0--0--0---0--0--0---0--0--|-0---0--0--0---0--0----------------------|


F#|-----------------------------------------|-----------------------------------------|
C#|-----------------------------------------|-----------------------------------------|
G#|-5---5--5--5---5--5--5---5--5--5---5--5--|-5---5--5--5---5--5----------------------|
D#|-----------------------------------------|---------------------0---0--0--0---0--0--|


F#|-----------------------------------------|-----------------------------------------|
C#|-----------------------------------------|-----------------------------------------|
G#|-----------------------------------------|---------------------5---5--5--5---5--5--|
D#|-0---0--0--0---0--0--0---0--0--0---0--0--|-0---0--0--0---0--0----------------------|


F#|-----------------------------------------|-----------------------------------------|
C#|-----------------------------------------|-----------------------------------------|
G#|-5---5--5--5---5--5--5---5--5--5---5--5--|-5---5--5--5---5--5----------------------|
D#|-----------------------------------------|---------------------0---0--0--0---0--0--|


F#|-----------------------------------------|-----------------------------------------|
C#|-----------------------------------------|-----------------------------------------|
G#|-----------------------------------------|---------------------5---5--5--5---5--5--|
D#|-0---0--0--0---0--0--0---0--0--0---0--0--|-0---0--0--0---0--0----------------------|


F#|-----------------------------------------|-----------------------------------------|
C#|-----------------------------------------|-----------------------------------------|
G#|-5---5--5--5---5--5--5---5--5--5---5--5--|-5---5--5--5---5--5----------------------|
D#|-----------------------------------------|---------------------0---0--0--0---0--0--|


F#|-----------------------------------------|-----------------------------------------|
C#|-----------------------------------------|-----------------------------------------|
G#|-----------------------------------------|---------------------5---5--5--5---5--5--|
D#|-0---0--0--0---0--0--0---0--0--0---0--0--|-0---0--0--0---0--0----------------------|


F#|-----------------------------------------|-----------------------------------------|
C#|-----------------------------------------|-----------------------------------------|
G#|-5---5--5--5---5--5--5---5--5--5---5--5--|-5---5--5--5---5--5----------------------|
D#|-----------------------------------------|---------------------0---0--0--0---0--0--|


F#|-----------------------------------------|-----------------------------------------|
C#|-----------------------------------------|-----------------------------------------|
G#|-----------------------------------------|---------------------5---5--5--5---5--5--|
D#|-0---0--0--0---0--0--0---0--0--0---0--0--|-0---0--0--0---0--0----------------------|


F#|-----------------------------------------|---------------------------|
C#|-----------------------------------------|---------------------------|
G#|-5---5--5--5---5--5--5---5--5--5---5--5--|-5---5--5--5---5--5--------|
D#|-----------------------------------------|---------------------------|