Site menu:

    

Browse: 0-9 A B C D E F G H I J K L N O P Q R S T U V W X Y Z

iced earth - imhotep pharaohs curse:



Title: Im-Ho-Tep (Pharaoh's Curse)
Artist: 
Album: Horror Show
Author: Schaffer/Tarnowski


Track 1: Distortion Guitar

D#|------------------------------|--------------------------------|---------------------|
A#|-----12--12---12--12--9---10--|-12---12--12-13-12--10--9---10--|-10-----12--10-12-10-|
F#|-9----------------------------|--------------------------------|---------------------|
C#|------------------------------|--------------------------------|---------------------|
G#|------------------------------|--------------------------------|---------------------|
D#|------------------------------|--------------------------------|---------------------|


D#|--------------------|------------------------------|--------------------------------|
A#|-9------------------|-----12--12---12--12--9---10--|-12---12--12-13-12--10--9---10--|
F#|-----10--9-----9----|-9----------------------------|--------------------------------|
C#|--------------------|------------------------------|--------------------------------|
G#|--------------------|------------------------------|--------------------------------|
D#|--------------------|------------------------------|--------------------------------|


D#|---------------------|--------------------|------------------------------|--------------------------------|
A#|-10-----12--10-12-10-|-9------------------|-----12--12---12--12--9---10--|-12---12--12-13-12--10--9---10--|
F#|---------------------|-----10--9-----9----|-9----------------------------|--------------------------------|
C#|---------------------|--------------------|------------------------------|--------------------------------|
G#|---------------------|--------------------|------------------------------|--------------------------------|
D#|---------------------|--------------------|------------------------------|--------------------------------|


D#|---------------------|--------------------|------------------------------|--------------------------------|
A#|-10-----12--10-12-10-|-9------------------|-----12--12---12--12--9---10--|-12---12--12-13-12--10--9---10--|
F#|---------------------|-----10--9-----9----|-9----------------------------|--------------------------------|
C#|---------------------|--------------------|------------------------------|--------------------------------|
G#|---------------------|--------------------|------------------------------|--------------------------------|
D#|---------------------|--------------------|------------------------------|--------------------------------|


D#|---------------------|----------------|--------|--------|--------|--------|--------|
A#|-10-----12--10-12-10-|-9--------------|--------|--------|--------|--------|--------|
F#|---------------------|-----10--9------|--------|--------|--------|--------|--------|
C#|---------------------|----------------|--------|--------|--------|--------|--------|
G#|---------------------|----------------|--------|--------|--------|--------|--------|
D#|---------------------|----------------|--------|--------|--------|--------|--------|


D#|--------|--------|--------|--------|--------|--------|--------|--------|--------|
A#|--------|--------|--------|--------|--------|--------|--------|--------|--------|
F#|--------|--------|--------|--------|--------|--------|--------|--------|--------|
C#|--------|--------|--------|--------|--------|--------|--------|--------|--------|
G#|--------|--------|--------|--------|--------|--------|--------|--------|--------|
D#|--------|--------|--------|--------|--------|--------|--------|--------|--------|


D#|--------|--------|--------|--------|--------|--------|--------|--------|--------|
A#|--------|--------|--------|--------|--------|--------|--------|--------|--------|
F#|--------|--------|--------|--------|--------|--------|--------|--------|--------|
C#|--------|--------|--------|--------|--------|--------|--------|--------|--------|
G#|--------|--------|--------|--------|--------|--------|--------|--------|--------|
D#|--------|--------|--------|--------|--------|--------|--------|--------|--------|


D#|--------|--------|--------|--------|--------|--------|--------|--------|--------|
A#|--------|--------|--------|--------|--------|--------|--------|--------|--------|
F#|--------|--------|--------|--------|--------|--------|--------|--------|--------|
C#|--------|--------|--------|--------|--------|--------|--------|--------|--------|
G#|--------|--------|--------|--------|--------|--------|--------|--------|--------|
D#|--------|--------|--------|--------|--------|--------|--------|--------|--------|


D#|--------|--------|--------|--------|--------|--------|--------|--------|--------|
A#|--------|--------|--------|--------|--------|--------|--------|--------|--------|
F#|--------|--------|--------|--------|--------|--------|--------|--------|--------|
C#|--------|--------|--------|--------|--------|--------|--------|--------|--------|
G#|--------|--------|--------|--------|--------|--------|--------|--------|--------|
D#|--------|--------|--------|--------|--------|--------|--------|--------|--------|


D#|--------|--------|--------|--------|--------|--------|--------|--------|--------|
A#|--------|--------|--------|--------|--------|--------|--------|--------|--------|
F#|--------|--------|--------|--------|--------|--------|--------|--------|--------|
C#|--------|--------|--------|--------|--------|--------|--------|--------|--------|
G#|--------|--------|--------|--------|--------|--------|--------|--------|--------|
D#|--------|--------|--------|--------|--------|--------|--------|--------|--------|


D#|--------|--------|--------|--------|--------|--------|--------|--------|--------|
A#|--------|--------|--------|--------|--------|--------|--------|--------|--------|
F#|--------|--------|--------|--------|--------|--------|--------|--------|--------|
C#|--------|--------|--------|--------|--------|--------|--------|--------|--------|
G#|--------|--------|--------|--------|--------|--------|--------|--------|--------|
D#|--------|--------|--------|--------|--------|--------|--------|--------|--------|


D#|--------|--------|--------|--------|--------|--------|--------|--------|--------|
A#|--------|--------|--------|--------|--------|--------|--------|--------|--------|
F#|--------|--------|--------|--------|--------|--------|--------|--------|--------|
C#|--------|--------|--------|--------|--------|--------|--------|--------|--------|
G#|--------|--------|--------|--------|--------|--------|--------|--------|--------|
D#|--------|--------|--------|--------|--------|--------|--------|--------|--------|


D#|--------|--------|--------|--------|--------|--------|--------|--------|-19-20-17-20-16-20----20-19-20-17-20-16-20----20-|
A#|--------|--------|--------|--------|--------|--------|--------|--------|-------------------18----------------------18----|
F#|--------|--------|--------|--------|--------|--------|--------|--------|-------------------------------------------------|
C#|--------|--------|--------|--------|--------|--------|--------|--------|-------------------------------------------------|
G#|--------|--------|--------|--------|--------|--------|--------|--------|-------------------------------------------------|
D#|--------|--------|--------|--------|--------|--------|--------|--------|-------------------------------------------------|


D#|----20-17-20-16-20-16------------------|-------------------------------------|------19-17----17-20-17-19-17-16----------|
A#|-17--------------------18--17----------|-------------------------------------|------------18-------------------18-17----|
F#|-------------------------------17--16--|-14----14-16-17-17--16--14--14-16-14-|-13------------------------------------19-|
C#|---------------------------------------|-------------------------------------|------------------------------------------|
G#|---------------------------------------|-------------------------------------|------------------------------------------|
D#|---------------------------------------|-------------------------------------|------------------------------------------|


D#|------------------------|--------|--------|--------|--------|--------|--------|
A#|------------------------|--------|--------|--------|--------|--------|--------|
F#|-19---19---19--19-------|--------|--------|--------|--------|--------|--------|
C#|------------------------|--------|--------|--------|--------|--------|--------|
G#|------------------------|--------|--------|--------|--------|--------|--------|
D#|------------------------|--------|--------|--------|--------|--------|--------|


D#|--------|--------|--------|--------|--------|--------|--------|--------|--------|
A#|--------|--------|--------|--------|--------|--------|--------|--------|--------|
F#|--------|--------|--------|--------|--------|--------|--------|--------|--------|
C#|--------|--------|--------|--------|--------|--------|--------|--------|--------|
G#|--------|--------|--------|--------|--------|--------|--------|--------|--------|
D#|--------|--------|--------|--------|--------|--------|--------|--------|--------|


D#|--------|--------|--------|--------|--------|--------|--------|--------|--------|
A#|--------|--------|--------|--------|--------|--------|--------|--------|--------|
F#|--------|--------|--------|--------|--------|--------|--------|--------|--------|
C#|--------|--------|--------|--------|--------|--------|--------|--------|--------|
G#|--------|--------|--------|--------|--------|--------|--------|--------|--------|
D#|--------|--------|--------|--------|--------|--------|--------|--------|--------|


D#|--------|--------|--------|--------|--------|--------|--------|------------------------------|
A#|--------|--------|--------|--------|--------|--------|--------|-----12--12---12--12--9---10--|
F#|--------|--------|--------|--------|--------|--------|--------|-9----------------------------|
C#|--------|--------|--------|--------|--------|--------|--------|------------------------------|
G#|--------|--------|--------|--------|--------|--------|--------|------------------------------|
D#|--------|--------|--------|--------|--------|--------|--------|------------------------------|


D#|--------------------------------|---------------------|--------------------|------------------------------|
A#|-12---12--12-13-12--10--9---10--|-10-----12--10-12-10-|-9------------------|-----12--12---12--12--9---10--|
F#|--------------------------------|---------------------|-----10--9-----9----|-9----------------------------|
C#|--------------------------------|---------------------|--------------------|------------------------------|
G#|--------------------------------|---------------------|--------------------|------------------------------|
D#|--------------------------------|---------------------|--------------------|------------------------------|


D#|--------------------------------|---------------------|----------------|--------|
A#|-12---12--12-13-12--10--9---10--|-10-----12--10-12-10-|-9--------------|--------|
F#|--------------------------------|---------------------|-----10--9------|-9------|
C#|--------------------------------|---------------------|----------------|--------|
G#|--------------------------------|---------------------|----------------|--------|
D#|--------------------------------|---------------------|----------------|--------|





Track 2: Distortion Guitar

D#|------------------------------|--------------------------------|---------------------|
A#|------------------------------|--------------------------------|---------------------|
F#|------------------------------|--------------------------------|---------------------|
C#|-----9---9----9---9---6---7---|-9----9---9--10-9---7---6---7---|-7------9---7--9--7--|
G#|-7----------------------------|--------------------------------|---------------------|
D#|------------------------------|--------------------------------|---------------------|


D#|--------------------|------------------------------|--------------------------------|
A#|--------------------|------------------------------|--------------------------------|
F#|--------------------|------------------------------|--------------------------------|
C#|-6------------------|-----9---9----9---9---6---7---|-9----9---9--10-9---7---6---7---|
G#|-----8---7-----7----|-7----------------------------|--------------------------------|
D#|--------------------|------------------------------|--------------------------------|


D#|---------------------|--------------------|------------------------------|--------------------------------|
A#|---------------------|--------------------|------------------------------|--------------------------------|
F#|---------------------|--------------------|------------------------------|--------------------------------|
C#|-7------9---7--9--7--|-6------------------|-----9---9----9---9---6---7---|-9----9---9--10-9---7---6---7---|
G#|---------------------|-----8---7-----7----|-7----------------------------|--------------------------------|
D#|---------------------|--------------------|------------------------------|--------------------------------|


D#|---------------------|--------------------|------------------------------|--------------------------------|
A#|---------------------|--------------------|------------------------------|--------------------------------|
F#|---------------------|--------------------|------------------------------|--------------------------------|
C#|-7------9---7--9--7--|-6------------------|-----9---9----9---9---6---7---|-9----9---9--10-9---7---6---7---|
G#|---------------------|-----8---7-----7----|-7----------------------------|--------------------------------|
D#|---------------------|--------------------|------------------------------|--------------------------------|


D#|---------------------|----------------|---------------------------------|------------------------------|
A#|---------------------|----------------|---------------------------------|------------------------------|
F#|---------------------|----------------|---------------------------------|------------------------------|
C#|-7------9---7--9--7--|-6--------------|-----------------7---------------|------------------------------|
G#|---------------------|-----8---7------|-----7---8---10------10--8---7---|-----7---8---7---5---7---7----|
D#|---------------------|----------------|-0-------------------------------|-0----------------------------|


D#|---------------------------------|------------------------------|---------------------------------|
A#|---------------------------------|------------------------------|---------------------------------|
F#|---------------------------------|------------------------------|---------------------------------|
C#|-----------------7---------------|------------------------------|-----------------7---------------|
G#|-----7---8---10------10--8---7---|-----7---8---7---7---5---5----|-----7---8---10------10--8---7---|
D#|-0-------------------------------|-0----------------------------|-0-------------------------------|


D#|------------------------------|---------------------------------|------------------------------|
A#|------------------------------|---------------------------------|------------------------------|
F#|------------------------------|---------------------------------|------------------------------|
C#|------------------------------|-----------------7---------------|------------------------------|
G#|-----7---8---7---5---7---7----|-----7---8---10------10--8---7---|-----7---8---7---7---5---5----|
D#|-0----------------------------|-0-------------------------------|-0----------------------------|


D#|---------------------------|------------------------|---------------------------|
A#|---------------------------|------------------------|---------------------------|
F#|---------------------------|------------------------|---------------------------|
C#|-----9----10--10--12---10--|-----9----10--10--9-----|-----9----10--10--7----10--|
G#|-----7----8---8---10---8---|-----7----8---8---7-----|-----7----8---8---5----8---|
D#|-0-------------------------|-0----------------------|-0-------------------------|


D#|------------------------|---------------------------|------------------------|---------------------------|
A#|------------------------|---------------------------|------------------------|---------------------------|
F#|------------------------|---------------------------|------------------------|---------------------------|
C#|-----9----10--10--9-----|-----9----10--10--12---10--|-----9----10--10--9-----|-----9----10--10--7----10--|
G#|-----7----8---8---7-----|-----7----8---8---10---8---|-----7----8---8---7-----|-----7----8---8---5----8---|
D#|-0----------------------|-0-------------------------|-0----------------------|-0-------------------------|


D#|------------------------|---------------------------|------------------------|---------------------------|
A#|------------------------|---------------------------|------------------------|---------------------------|
F#|------------------------|---------------------------|------------------------|---------------------------|
C#|-----9----10--10--9-----|-----9----10--10--12---10--|-----9----10--10--9-----|-----9----10--10--7----10--|
G#|-----7----8---8---7-----|-----7----8---8---10---8---|-----7----8---8---7-----|-----7----8---8---5----8---|
D#|-0----------------------|-0-------------------------|-0----------------------|-0-------------------------|


D#|------------------------|---------------------------|------------------------|---------------------------|
A#|------------------------|---------------------------|------------------------|---------------------------|
F#|------------------------|---------------------------|------------------------|---------------------------|
C#|-----9----10--10--9-----|-----9----10--10--12---10--|-----9----10--10--9-----|-----9----10--10--7----10--|
G#|-----7----8---8---7-----|-----7----8---8---10---8---|-----7----8---8---7-----|-----7----8---8---5----8---|
D#|-0----------------------|-0-------------------------|-0----------------------|-0-------------------------|


D#|------------------------|--------|--------|--------------------|--------|--------------------|
A#|------------------------|--------|--------|--------------------|--------|--------------------|
F#|------------------------|--------|--------|--------------------|--------|--------------------|
C#|-----9----10--10--9-----|--------|--------|-10-------9---9-----|-9------|-12-------10--10----|
G#|-----7----8---8---7-----|--------|--------|-8--------7---7-----|-7------|-10-------8---8-----|
D#|-0----------------------|--------|--------|------0-------------|--------|------0-------------|


D#|-------------|---------------------------|--------|--------------------|--------|
A#|-------------|---------------------------|--------|--------------------|--------|
F#|-------------|---------------------------|--------|--------------------|--------|
C#|-10-----7----|-10-------9---9--------5---|-5------|-10-------9---9-----|-9------|
G#|-8------5----|-8--------7---7--------3---|-3------|-8--------7---7-----|-7------|
D#|-------------|------0------------0-------|--------|------0-------------|--------|


D#|--------------------|-------------|---------------------------|--------|--------------------|
A#|--------------------|-------------|---------------------------|--------|--------------------|
F#|--------------------|-------------|---------------------------|--------|--------------------|
C#|-12-------10--10----|-10-----7----|-10-------9---9--------5---|-5------|-10-------9---9-----|
G#|-10-------8---8-----|-8------5----|-8--------7---7--------3---|-3------|-8--------7---7-----|
D#|------0-------------|-------------|------0------------0-------|--------|------0-------------|


D#|----------------------|---------------------------|------------------------|---------------------------|
A#|----------------------|---------------------------|------------------------|---------------------------|
F#|----------------------|---------------------------|------------------------|---------------------------|
C#|-9-----9--------------|-----9----10--10--12---10--|-----9----10--10--9-----|-----9----10--10--7----10--|
G#|-7-----7---------5----|-----7----8---8---10---8---|-----7----8---8---7-----|-----7----8---8---5----8---|
D#|-----------0--0--3----|-0-------------------------|-0----------------------|-0-------------------------|


D#|------------------------|---------------------------|------------------------|---------------------------|
A#|------------------------|---------------------------|------------------------|---------------------------|
F#|------------------------|---------------------------|------------------------|---------------------------|
C#|-----9----10--10--9-----|-----9----10--10--12---10--|-----9----10--10--9-----|-----9----10--10--7----10--|
G#|-----7----8---8---7-----|-----7----8---8---10---8---|-----7----8---8---7-----|-----7----8---8---5----8---|
D#|-0----------------------|-0-------------------------|-0----------------------|-0-------------------------|


D#|------------------------|---------------------------|------------------------|---------------------------|
A#|------------------------|---------------------------|------------------------|---------------------------|
F#|------------------------|---------------------------|------------------------|---------------------------|
C#|-----9----10--10--9-----|-----9----10--10--12---10--|-----9----10--10--9-----|-----9----10--10--7----10--|
G#|-----7----8---8---7-----|-----7----8---8---10---8---|-----7----8---8---7-----|-----7----8---8---5----8---|
D#|-0----------------------|-0-------------------------|-0----------------------|-0-------------------------|


D#|------------------------|---------------------------|------------------------|---------------------------|
A#|------------------------|---------------------------|------------------------|---------------------------|
F#|------------------------|---------------------------|------------------------|---------------------------|
C#|-----9----10--10--9-----|-----9----10--10--12---10--|-----9----10--10--9-----|-----9----10--10--7----10--|
G#|-----7----8---8---7-----|-----7----8---8---10---8---|-----7----8---8---7-----|-----7----8---8---5----8---|
D#|-0----------------------|-0-------------------------|-0----------------------|-0-------------------------|


D#|------------------------|--------|--------|--------------------|--------|--------------------|
A#|------------------------|--------|--------|--------------------|--------|--------------------|
F#|------------------------|--------|--------|--------------------|--------|--------------------|
C#|-----9----10--10--9-----|--------|--------|-10-------9---9-----|-9------|-12-------10--10----|
G#|-----7----8---8---7-----|--------|--------|-8--------7---7-----|-7------|-10-------8---8-----|
D#|-0----------------------|--------|--------|------0-------------|--------|------0-------------|


D#|-------------|---------------------------|--------|--------------------|--------|
A#|-------------|---------------------------|--------|--------------------|--------|
F#|-------------|---------------------------|--------|--------------------|--------|
C#|-10-----7----|-10-------9---9--------5---|-5------|-10-------9---9-----|-9------|
G#|-8------5----|-8--------7---7--------3---|-3------|-8--------7---7-----|-7------|
D#|-------------|------0------------0-------|--------|------0-------------|--------|


D#|--------------------|-------------|---------------------------|--------|--------------------|
A#|--------------------|-------------|---------------------------|--------|--------------------|
F#|--------------------|-------------|---------------------------|--------|--------------------|
C#|-12-------10--10----|-10-----7----|-10-------9---9--------5---|-5------|-10-------9---9-----|
G#|-10-------8---8-----|-8------5----|-8--------7---7--------3---|-3------|-8--------7---7-----|
D#|------0-------------|-------------|------0------------0-------|--------|------0-------------|


D#|----------------------|-------------------------------------------------|----------------------------16-13-12---------------------|
A#|----------------------|-12-13-12----------12-13-12----------12----12-13-|-15-13-12-13-12----12----------------15-13-12------------|
F#|----------------------|----------14-13-14----------14-13-14----14-------|----------------14----14-13-------------------14-13--13--|
C#|-9-----9--------------|-------------------------------------------------|---------------------------------------------------------|
G#|-7-----7---------5----|-------------------------------------------------|---------------------------------------------------------|
D#|-----------0--0--3----|-------------------------------------------------|---------------------------------------------------------|


D#|-0--12-13-0--13-16-0--16-17-0--17-19-0--0--20-0--|-19-0--17-0--16-0--19-0--17-0--16-13-13-16-13-12--|
A#|-------------------------------------------------|--------------------------------------------------|
F#|-------------------------------------------------|--------------------------------------------------|
C#|-------------------------------------------------|--------------------------------------------------|
G#|-------------------------------------------------|--------------------------------------------------|
D#|-------------------------------------------------|--------------------------------------------------|


D#|-------------------------------------------------|---------------------------------------|
A#|-15-17-13-17-12-17----17-15-17-13-17-12-17----17-|----17-15-17-13-17-12------------------|
F#|-------------------14----------------------14----|-13--------------------14--13----------|
C#|-------------------------------------------------|-------------------------------15--14--|
G#|-------------------------------------------------|---------------------------------------|
D#|-------------------------------------------------|---------------------------------------|


D#|-------------------------------------|------19-17----17-20-17-19-17-16----------|
A#|-------------------------------------|------------18-------------------18-17----|
F#|-------------------------------------|---------------------------------------19-|
C#|-12----12-14-15-15--14--12--12-14-12-|------------------------------------------|
G#|-------------------------------------|-14---------------------------------------|
D#|-------------------------------------|------------------------------------------|


D#|---------------------------|------------------------|---------------------------|
A#|---------------------------|------------------------|---------------------------|
F#|---------------------------|------------------------|---------------------------|
C#|-----2----3---3---5----3---|-----2----3---3---2-----|-----2----3---3---0----3---|
G#|-----2----3---3---5----3---|-----2----3---3---2-----|-----2----3---3---0----3---|
D#|-0-------------------------|-0----------------------|-0-------------------------|


D#|------------------------|---------------------------|------------------------|---------------------------|
A#|------------------------|---------------------------|------------------------|---------------------------|
F#|------------------------|---------------------------|------------------------|---------------------------|
C#|-----2----3---3---2-----|-----2----3---3---5----3---|-----2----3---3---2-----|-----2----3---3---0----3---|
G#|-----2----3---3---2-----|-----2----3---3---5----3---|-----2----3---3---2-----|-----2----3---3---0----3---|
D#|-0----------------------|-0-------------------------|-0----------------------|-0-------------------------|


D#|------------------------|---------------------------|------------------------|---------------------------|
A#|------------------------|---------------------------|------------------------|---------------------------|
F#|------------------------|---------------------------|------------------------|---------------------------|
C#|-----2----3---3---2-----|-----2----3---3---5----3---|-----2----3---3---2-----|-----2----3---3---0----3---|
G#|-----2----3---3---2-----|-----2----3---3---5----3---|-----2----3---3---2-----|-----2----3---3---0----3---|
D#|-0----------------------|-0-------------------------|-0----------------------|-0-------------------------|


D#|------------------------|---------------------------|------------------------|---------------------------|
A#|------------------------|---------------------------|------------------------|---------------------------|
F#|------------------------|---------------------------|------------------------|---------------------------|
C#|-----2----3---3---2-----|-----2----3---3---5----3---|-----2----3---3---2-----|-----2----3---3---0----3---|
G#|-----2----3---3---2-----|-----2----3---3---5----3---|-----2----3---3---2-----|-----2----3---3---0----3---|
D#|-0----------------------|-0-------------------------|-0----------------------|-0-------------------------|


D#|------------------------|--------|--------|--------------------|--------|--------------------|
A#|------------------------|--------|--------|--------------------|--------|--------------------|
F#|------------------------|--------|--------|--------------------|--------|--------------------|
C#|-----2----3---3---2-----|--------|--------|-10-------9---9-----|-9------|-12-------10--10----|
G#|-----2----3---3---2-----|--------|--------|-8--------7---7-----|-7------|-10-------8---8-----|
D#|-0----------------------|--------|--------|------0-------------|--------|------0-------------|


D#|-------------|---------------------------|--------|--------------------|--------|
A#|-------------|---------------------------|--------|--------------------|--------|
F#|-------------|---------------------------|--------|--------------------|--------|
C#|-10-----7----|-10-------9---9--------5---|-5------|-10-------9---9-----|-9------|
G#|-8------5----|-8--------7---7--------3---|-3------|-8--------7---7-----|-7------|
D#|-------------|------0------------0-------|--------|------0-------------|--------|


D#|--------------------|-------------|---------------------------|--------|--------------------|
A#|--------------------|-------------|---------------------------|--------|--------------------|
F#|--------------------|-------------|---------------------------|--------|--------------------|
C#|-12-------10--10----|-10-----7----|-10-------9---9--------5---|-5------|-10-------9---9-----|
G#|-10-------8---8-----|-8------5----|-8--------7---7--------3---|-3------|-8--------7---7-----|
D#|------0-------------|-------------|------0------------0-------|--------|------0-------------|


D#|----------------------|------------------------------|--------------------------------|
A#|----------------------|------------------------------|--------------------------------|
F#|----------------------|------------------------------|--------------------------------|
C#|-9-----9--------------|-----9---9----9---9---6---7---|-9----9---9--10-9---7---6---7---|
G#|-7-----7---------5----|-7----------------------------|--------------------------------|
D#|-----------0--0--3----|------------------------------|--------------------------------|


D#|---------------------|--------------------|------------------------------|--------------------------------|
A#|---------------------|--------------------|------------------------------|--------------------------------|
F#|---------------------|--------------------|------------------------------|--------------------------------|
C#|-7------9---7--9--7--|-6------------------|-----9---9----9---9---6---7---|-9----9---9--10-9---7---6---7---|
G#|---------------------|-----8---7-----7----|-7----------------------------|--------------------------------|
D#|---------------------|--------------------|------------------------------|--------------------------------|


D#|---------------------|----------------|--------|
A#|---------------------|----------------|--------|
F#|---------------------|----------------|--------|
C#|-7------9---7--9--7--|-6--------------|--------|
G#|---------------------|-----8---7------|-7------|
D#|---------------------|----------------|--------|





Track 3: Distortion Guitar

D#|--------|--------|--------|--------------------|-------0-----|-0------|--------|
A#|--------|--------|--------|--------------------|-------0-----|-0------|--------|
F#|--------|--------|--------|--------------------|-------------|--------|--------|
C#|--------|--------|-7------|-----7---6----6-----|-------------|--------|-7------|
G#|-2------|-2------|-5------|-----8---7----7-----|-2-----2-----|-2------|-5------|
D#|-0------|-0------|-5------|-0------------------|-0-----0-----|-0------|-5------|


D#|--------------------|--------|--------|--------|--------------------|-------0-----|
A#|--------------------|--------|--------|--------|--------------------|-------0-----|
F#|--------------------|--------|--------|--------|--------------------|-------------|
C#|-----7---6----6-----|--------|--------|-7------|-----7---6----6-----|-------------|
G#|-----8---7----7-----|-2------|-2------|-5------|-----8---7----7-----|-2-----2-----|
D#|-0------------------|-0------|-0------|-5------|-0------------------|-0-----0-----|


D#|-0------|--------|--------------------|--------|--------|--------|-------------|
A#|-0------|--------|--------------------|--------|--------|--------|-------------|
F#|--------|--------|--------------------|--------|--------|--------|-------------|
C#|--------|-7------|-----7---6----6-----|--------|--------|--------|-------------|
G#|-2------|-5------|-----8---7----7-----|-2------|-5------|-4------|-7-----5-----|
D#|-0------|-5------|-0------------------|-0------|-3------|-2------|-5-----3-----|


D#|--------|--------|--------|-------------|---------------------------------|---------------------------------|
A#|--------|--------|--------|-------------|---------------------------------|---------------------------------|
F#|--------|--------|--------|-------------|---------------------------------|---------------------------------|
C#|--------|--------|--------|-------------|---------------------------------|---------------------------------|
G#|-2------|-5------|-4------|-7-----5-----|-2---2-------2-------2-------2---|-2---2-------2-------2-------2---|
D#|-0------|-3------|-2------|-5-----3-----|-0---0-------0-------0-------0---|-0---0-------0-------0-------0---|


D#|---------------------------------|---------------------------------|---------------------------------|
A#|---------------------------------|---------------------------------|---------------------------------|
F#|---------------------------------|---------------------------------|---------------------------------|
C#|---------------------------------|---------------------------------|---------------------------------|
G#|-2---2-------2-------2-------2---|-2---2-------2-------2-------2---|-2---2-------2-------2-------2---|
D#|-0---0-------0-------0-------0---|-0---0-------0-------0-------0---|-0---0-------0-------0-------0---|


D#|---------------------------------|---------------------------------|---------------------------------|
A#|---------------------------------|---------------------------------|---------------------------------|
F#|---------------------------------|---------------------------------|---------------------------------|
C#|---------------------------------|---------------------------------|---------------------------------|
G#|-2---2-------2-------2-------2---|-2---2-------2-------2-------2---|-2---2-------2-------2-------2---|
D#|-0---0-------0-------0-------0---|-0---0-------0-------0-------0---|-0---0-------0-------0-------0---|


D#|---------------------------------|---------------------------------|---------------------------------|
A#|---------------------------------|---------------------------------|---------------------------------|
F#|---------------------------------|---------------------------------|---------------------------------|
C#|---------------------------------|---------------------------------|---------------------------------|
G#|-2---2-------2-------2-------2---|-2---2-------2-------2-------2---|-2---2-------2-------2-------2---|
D#|-0---0-------0-------0-------0---|-0---0-------0-------0-------0---|-0---0-------0-------0-------0---|


D#|---------------------------------|---------------------------------|---------------------------------|
A#|---------------------------------|---------------------------------|---------------------------------|
F#|---------------------------------|---------------------------------|---------------------------------|
C#|---------------------------------|---------------------------------|---------------------------------|
G#|-2---2-------2-------2-------2---|-2---2-------2-------2-------2---|-2---2-------2-------2-------2---|
D#|-0---0-------0-------0-------0---|-0---0-------0-------0-------0---|-0---0-------0-------0-------0---|


D#|---------------------------------|---------------------------------|--------|--------|
A#|---------------------------------|---------------------------------|--------|--------|
F#|---------------------------------|---------------------------------|--------|--------|
C#|---------------------------------|---------------------------------|--------|--------|
G#|-2---2-------2-------2-------2---|-2---2-------2-------2-------2---|-2------|-2------|
D#|-0---0-------0-------0-------0---|-0---0-------0-------0-------0---|-0------|-0------|


D#|-------------------------------------------------|-------------------------------------------------|
A#|-------------------------------------------------|-------------------------------------------------|
F#|-------------------------------------------------|-------------------------------------------------|
C#|-------------------------------------------------|-------------------------------------------------|
G#|-------------------------------------------------|-------------------------------------------------|
D#|-0--0--0--0--0--0--0--0--0--0--0--0--0--0--0--0--|-0--0--0--0--0--0--0--0--0--0--0--0--0--0--0--0--|


D#|-------------------------------------------------|-------------------------------------------------|
A#|-------------------------------------------------|-------------------------------------------------|
F#|-------------------------------------------------|-------------------------------------------------|
C#|-------------------------------------------------|-------------------------------------------------|
G#|-------------------------------------------------|-------------------------------------------------|
D#|-0--0--0--0--0--0--0--0--0--0--0--0--0--0--0--0--|-0--0--0--0--0--0--0--0--0--0--0--0--0--0--0--0--|


D#|-------------------------------------------------|-------------------------------------------------|
A#|-------------------------------------------------|-------------------------------------------------|
F#|-------------------------------------------------|-------------------------------------------------|
C#|-------------------------------------------------|-------------------------------------------------|
G#|-------------------------------------------------|-------------------------------------------------|
D#|-0--0--0--0--0--0--0--0--0--0--0--0--0--0--0--0--|-0--0--0--0--0--0--0--0--0--0--0--0--0--0--0--0--|


D#|-------------------------------------------------|-------------------------------------------------|
A#|-------------------------------------------------|-------------------------------------------------|
F#|-------------------------------------------------|-------------------------------------------------|
C#|-------------------------------------------------|-------------------------------------------------|
G#|-------------------------------------------------|-------------------------------------------------|
D#|-0--0--0--0--0--0--0--0--0--0--0--0--0--0--0--0--|-0--0--0--0--0--0--0--0--0--0--0--0--0--0--0--0--|


D#|-------------------------------------------------|-------------------------------------------------|
A#|-------------------------------------------------|-------------------------------------------------|
F#|-------------------------------------------------|-------------------------------------------------|
C#|-------------------------------------------------|-------------------------------------------------|
G#|-------------------------------------------------|-------------------------------------------------|
D#|-0--0--0--0--0--0--0--0--0--0--0--0--0--0--0--0--|-0--0--0--0--0--0--0--0--0--0--0--0--0--0--0--0--|


D#|-------------------------------------------------|-------------------------------------------------|
A#|-------------------------------------------------|-------------------------------------------------|
F#|-------------------------------------------------|-------------------------------------------------|
C#|-------------------------------------------------|-------------------------------------------------|
G#|-------------------------------------------------|-------------------------------------------------|
D#|-0--0--0--0--0--0--0--0--0--0--0--0--0--0--0--0--|-0--0--0--0--0--0--0--0--0--0--0--0--0--0--0--0--|


D#|-------------------------------------------------|------------------------------------------|
A#|-------------------------------------------------|------------------------------------------|
F#|-------------------------------------------------|------------------------------------------|
C#|-------------------------------------------------|------------------------------------------|
G#|-------------------------------------------------|-------------------------------------5----|
D#|-0--0--0--0--0--0--0--0--0--0--0--0--0--0--0--0--|-0--0--0--0--0--0--0--0--0--0--0--0--3----|


D#|---------------------------------|---------------------------------|---------------------------------|
A#|---------------------------------|---------------------------------|---------------------------------|
F#|---------------------------------|---------------------------------|---------------------------------|
C#|---------------------------------|---------------------------------|---------------------------------|
G#|-2---2-------2-------2-------2---|-2---2-------2-------2-------2---|-2---2-------2-------2-------2---|
D#|-0---0-------0-------0-------0---|-0---0-------0-------0-------0---|-0---0-------0-------0-------0---|


D#|---------------------------------|---------------------------------|---------------------------------|
A#|---------------------------------|---------------------------------|---------------------------------|
F#|---------------------------------|---------------------------------|---------------------------------|
C#|---------------------------------|---------------------------------|---------------------------------|
G#|-2---2-------2-------2-------2---|-2---2-------2-------2-------2---|-2---2-------2-------2-------2---|
D#|-0---0-------0-------0-------0---|-0---0-------0-------0-------0---|-0---0-------0-------0-------0---|


D#|---------------------------------|---------------------------------|---------------------------------|
A#|---------------------------------|---------------------------------|---------------------------------|
F#|---------------------------------|---------------------------------|---------------------------------|
C#|---------------------------------|---------------------------------|---------------------------------|
G#|-2---2-------2-------2-------2---|-2---2-------2-------2-------2---|-2---2-------2-------2-------2---|
D#|-0---0-------0-------0-------0---|-0---0-------0-------0-------0---|-0---0-------0-------0-------0---|


D#|---------------------------------|---------------------------------|---------------------------------|
A#|---------------------------------|---------------------------------|---------------------------------|
F#|---------------------------------|---------------------------------|---------------------------------|
C#|---------------------------------|---------------------------------|---------------------------------|
G#|-2---2-------2-------2-------2---|-2---2-------2-------2-------2---|-2---2-------2-------2-------2---|
D#|-0---0-------0-------0-------0---|-0---0-------0-------0-------0---|-0---0-------0-------0-------0---|


D#|---------------------------------|---------------------------------|---------------------------------|
A#|---------------------------------|---------------------------------|---------------------------------|
F#|---------------------------------|---------------------------------|---------------------------------|
C#|---------------------------------|---------------------------------|---------------------------------|
G#|-2---2-------2-------2-------2---|-2---2-------2-------2-------2---|-2---2-------2-------2-------2---|
D#|-0---0-------0-------0-------0---|-0---0-------0-------0-------0---|-0---0-------0-------0-------0---|


D#|---------------------------------|--------|--------|-------------------------------------------------|
A#|---------------------------------|--------|--------|-------------------------------------------------|
F#|---------------------------------|--------|--------|-------------------------------------------------|
C#|---------------------------------|--------|--------|-------------------------------------------------|
G#|-2---2-------2-------2-------2---|-2------|-2------|-------------------------------------------------|
D#|-0---0-------0-------0-------0---|-0------|-0------|-0--0--0--0--0--0--0--0--0--0--0--0--0--0--0--0--|


D#|-------------------------------------------------|-------------------------------------------------|
A#|-------------------------------------------------|-------------------------------------------------|
F#|-------------------------------------------------|-------------------------------------------------|
C#|-------------------------------------------------|-------------------------------------------------|
G#|-------------------------------------------------|-------------------------------------------------|
D#|-0--0--0--0--0--0--0--0--0--0--0--0--0--0--0--0--|-0--0--0--0--0--0--0--0--0--0--0--0--0--0--0--0--|


D#|-------------------------------------------------|-------------------------------------------------|
A#|-------------------------------------------------|-------------------------------------------------|
F#|-------------------------------------------------|-------------------------------------------------|
C#|-------------------------------------------------|-------------------------------------------------|
G#|-------------------------------------------------|-------------------------------------------------|
D#|-0--0--0--0--0--0--0--0--0--0--0--0--0--0--0--0--|-0--0--0--0--0--0--0--0--0--0--0--0--0--0--0--0--|


D#|-------------------------------------------------|-------------------------------------------------|
A#|-------------------------------------------------|-------------------------------------------------|
F#|-------------------------------------------------|-------------------------------------------------|
C#|-------------------------------------------------|-------------------------------------------------|
G#|-------------------------------------------------|-------------------------------------------------|
D#|-0--0--0--0--0--0--0--0--0--0--0--0--0--0--0--0--|-0--0--0--0--0--0--0--0--0--0--0--0--0--0--0--0--|


D#|-------------------------------------------------|-------------------------------------------------|
A#|-------------------------------------------------|-------------------------------------------------|
F#|-------------------------------------------------|-------------------------------------------------|
C#|-------------------------------------------------|-------------------------------------------------|
G#|-------------------------------------------------|-------------------------------------------------|
D#|-0--0--0--0--0--0--0--0--0--0--0--0--0--0--0--0--|-0--0--0--0--0--0--0--0--0--0--0--0--0--0--0--0--|


D#|-------------------------------------------------|-------------------------------------------------|
A#|-------------------------------------------------|-------------------------------------------------|
F#|-------------------------------------------------|-------------------------------------------------|
C#|-------------------------------------------------|-------------------------------------------------|
G#|-------------------------------------------------|-------------------------------------------------|
D#|-0--0--0--0--0--0--0--0--0--0--0--0--0--0--0--0--|-0--0--0--0--0--0--0--0--0--0--0--0--0--0--0--0--|


D#|-------------------------------------------------|-------------------------------------------------|
A#|-------------------------------------------------|-------------------------------------------------|
F#|-------------------------------------------------|-------------------------------------------------|
C#|-------------------------------------------------|-------------------------------------------------|
G#|-------------------------------------------------|-------------------------------------------------|
D#|-0--0--0--0--0--0--0--0--0--0--0--0--0--0--0--0--|-0--0--0--0--0--0--0--0--0--0--0--0--0--0--0--0--|


D#|------------------------------------------|-----------------------------------|
A#|------------------------------------------|-----------------------------------|
F#|------------------------------------------|-----------------------------------|
C#|------------------------------------------|---------------------------4---7---|
G#|------------------------------------------|-2-------------2---2-------5---8---|
D#|-0--0--0--0--0--0--0--0--0--0--0--0--15---|-0---0--0--3---0---0---0-----------|


D#|--------------------------------|-----------------------------------------|--------------------------------|
A#|--------------------------------|-----------------------------------------|--------------------------------|
F#|--------------------------------|-----------------------------------------|--------------------------------|
C#|--------------------------------|-7---------------7---------------7---10--|-9------------------------------|
G#|-2-------------2---2-------5----|-5---5--5--5--5--5---5--5--5--5--5---8---|-7-------------2---2-------5----|
D#|-0---0--0--3---0---0---0---3----|-----------------------------------------|-----0--0--3---0---0---0---3----|


D#|-----------------------------------|--------------------------------|-----------------------------------------|
A#|-----------------------------------|--------------------------------|-----------------------------------------|
F#|-----------------------------------|--------------------------------|-----------------------------------------|
C#|---------------------------4---7---|--------------------------------|-7---------------7---------------7---10--|
G#|-2-------------2---2-------5---8---|-2-------------2---2-------5----|-5---5--5--5--5--5---5--5--5--5--5---8---|
D#|-0---0--0--3---0---0---0-----------|-0---0--0--3---0---0---0---3----|-----------------------------------------|


D#|--------------------------------|---------------------------------|---------------------------------|
A#|--------------------------------|---------------------------------|---------------------------------|
F#|--------------------------------|---------------------------------|---------------------------------|
C#|-9------------------------------|---------------------------------|---------------------------------|
G#|-7-------------2---2-------5----|-2---2-------2-------2-------2---|-2---2-------2-------2-------2---|
D#|-----0--0--3---0---0---0---3----|-0---0-------0-------0-------0---|-0---0-------0-------0-------0---|


D#|---------------------------------|---------------------------------|---------------------------------|
A#|---------------------------------|---------------------------------|---------------------------------|
F#|---------------------------------|---------------------------------|---------------------------------|
C#|---------------------------------|---------------------------------|---------------------------------|
G#|-2---2-------2-------2-------2---|-2---2-------2-------2-------2---|-2---2-------2-------2-------2---|
D#|-0---0-------0-------0-------0---|-0---0-------0-------0-------0---|-0---0-------0-------0-------0---|


D#|---------------------------------|---------------------------------|---------------------------------|
A#|---------------------------------|---------------------------------|---------------------------------|
F#|---------------------------------|---------------------------------|---------------------------------|
C#|---------------------------------|---------------------------------|---------------------------------|
G#|-2---2-------2-------2-------2---|-2---2-------2-------2-------2---|-2---2-------2-------2-------2---|
D#|-0---0-------0-------0-------0---|-0---0-------0-------0-------0---|-0---0-------0-------0-------0---|


D#|---------------------------------|---------------------------------|---------------------------------|
A#|---------------------------------|---------------------------------|---------------------------------|
F#|---------------------------------|---------------------------------|---------------------------------|
C#|---------------------------------|---------------------------------|---------------------------------|
G#|-2---2-------2-------2-------2---|-2---2-------2-------2-------2---|-2---2-------2-------2-------2---|
D#|-0---0-------0-------0-------0---|-0---0-------0-------0-------0---|-0---0-------0-------0-------0---|


D#|---------------------------------|---------------------------------|---------------------------------|
A#|---------------------------------|---------------------------------|---------------------------------|
F#|---------------------------------|---------------------------------|---------------------------------|
C#|---------------------------------|---------------------------------|---------------------------------|
G#|-2---2-------2-------2-------2---|-2---2-------2-------2-------2---|-2---2-------2-------2-------2---|
D#|-0---0-------0-------0-------0---|-0---0-------0-------0-------0---|-0---0-------0-------0-------0---|


D#|---------------------------------|---------------------------------|--------|--------|
A#|---------------------------------|---------------------------------|--------|--------|
F#|---------------------------------|---------------------------------|--------|--------|
C#|---------------------------------|---------------------------------|--------|--------|
G#|-2---2-------2-------2-------2---|-2---2-------2-------2-------2---|-2------|-2------|
D#|-0---0-------0-------0-------0---|-0---0-------0-------0-------0---|-0------|-0------|


D#|-------------------------------------------------|-------------------------------------------------|
A#|-------------------------------------------------|-------------------------------------------------|
F#|-------------------------------------------------|-------------------------------------------------|
C#|-------------------------------------------------|-------------------------------------------------|
G#|-------------------------------------------------|-------------------------------------------------|
D#|-0--0--0--0--0--0--0--0--0--0--0--0--0--0--0--0--|-0--0--0--0--0--0--0--0--0--0--0--0--0--0--0--0--|


D#|-------------------------------------------------|-------------------------------------------------|
A#|-------------------------------------------------|-------------------------------------------------|
F#|-------------------------------------------------|-------------------------------------------------|
C#|-------------------------------------------------|-------------------------------------------------|
G#|-------------------------------------------------|-------------------------------------------------|
D#|-0--0--0--0--0--0--0--0--0--0--0--0--0--0--0--0--|-0--0--0--0--0--0--0--0--0--0--0--0--0--0--0--0--|


D#|-------------------------------------------------|-------------------------------------------------|
A#|-------------------------------------------------|-------------------------------------------------|
F#|-------------------------------------------------|-------------------------------------------------|
C#|-------------------------------------------------|-------------------------------------------------|
G#|-------------------------------------------------|-------------------------------------------------|
D#|-0--0--0--0--0--0--0--0--0--0--0--0--0--0--0--0--|-0--0--0--0--0--0--0--0--0--0--0--0--0--0--0--0--|


D#|-------------------------------------------------|-------------------------------------------------|
A#|-------------------------------------------------|-------------------------------------------------|
F#|-------------------------------------------------|-------------------------------------------------|
C#|-------------------------------------------------|-------------------------------------------------|
G#|-------------------------------------------------|-------------------------------------------------|
D#|-0--0--0--0--0--0--0--0--0--0--0--0--0--0--0--0--|-0--0--0--0--0--0--0--0--0--0--0--0--0--0--0--0--|


D#|-------------------------------------------------|-------------------------------------------------|
A#|-------------------------------------------------|-------------------------------------------------|
F#|-------------------------------------------------|-------------------------------------------------|
C#|-------------------------------------------------|-------------------------------------------------|
G#|-------------------------------------------------|-------------------------------------------------|
D#|-0--0--0--0--0--0--0--0--0--0--0--0--0--0--0--0--|-0--0--0--0--0--0--0--0--0--0--0--0--0--0--0--0--|


D#|-------------------------------------------------|-------------------------------------------------|
A#|-------------------------------------------------|-------------------------------------------------|
F#|-------------------------------------------------|-------------------------------------------------|
C#|-------------------------------------------------|-------------------------------------------------|
G#|-------------------------------------------------|-------------------------------------------------|
D#|-0--0--0--0--0--0--0--0--0--0--0--0--0--0--0--0--|-0--0--0--0--0--0--0--0--0--0--0--0--0--0--0--0--|


D#|-------------------------------------------------|------------------------------------------|
A#|-------------------------------------------------|------------------------------------------|
F#|-------------------------------------------------|------------------------------------------|
C#|-------------------------------------------------|------------------------------------------|
G#|-------------------------------------------------|-------------------------------------5----|
D#|-0--0--0--0--0--0--0--0--0--0--0--0--0--0--0--0--|-0--0--0--0--0--0--0--0--0--0--0--0--3----|


D#|--------|--------|--------|--------------------|-------0-----|-0------|--------|
A#|--------|--------|--------|--------------------|-------0-----|-0------|--------|
F#|--------|--------|--------|--------------------|-------------|--------|--------|
C#|--------|--------|-7------|-----7---6----6-----|-------------|--------|-7------|
G#|-2------|-2------|-5------|-----8---7----7-----|-2-----2-----|-2------|-5------|
D#|-0------|-0------|-5------|-0------------------|-0-----0-----|-0------|-5------|


D#|--------------------|--------|
A#|--------------------|--------|
F#|--------------------|--------|
C#|-----7---6----6-----|--------|
G#|-----8---7----7-----|-2------|
D#|-0------------------|-0------|





Track 4: Untitled

G|--------|--------|--------|--------|--------|--------|--------|--------|--------|
D|--------|--------|--------|--------|--------|--------|--------|--------|--------|
A|--------|--------|--------|--------|--------|--------|--------|--------|--------|
E|--------|--------|--------|--------|--------|--------|--------|--------|--------|


G|--------|--------|--------|--------|--------|--------|--------|--------|--------|
D|--------|--------|--------|--------|--------|--------|--------|--------|--------|
A|--------|--------|--------|--------|--------|--------|--------|--------|--------|
E|--------|--------|--------|--------|--------|--------|--------|--------|--------|


G|--------|--------|--------|--------|--------|--------|--------|--------|--------|
D|--------|--------|--------|--------|--------|--------|--------|--------|--------|
A|--------|--------|--------|--------|--------|--------|--------|--------|--------|
E|--------|--------|--------|--------|--------|--------|--------|--------|--------|


G|--------|--------|--------|--------|--------|--------|--------|--------|--------|
D|--------|--------|--------|--------|--------|--------|--------|--------|--------|
A|--------|--------|--------|--------|--------|--------|--------|--------|--------|
E|--------|--------|--------|--------|--------|--------|--------|--------|--------|


G|--------|--------|--------|--------|--------|--------|--------|--------|--------|
D|--------|--------|--------|--------|--------|--------|--------|--------|--------|
A|--------|--------|--------|--------|--------|--------|--------|--------|--------|
E|--------|--------|--------|--------|--------|--------|--------|--------|--------|


G|--------|--------|--------|--------|--------|--------|--------|--------|--------|
D|--------|--------|--------|--------|--------|--------|--------|--------|--------|
A|--------|--------|--------|--------|--------|--------|--------|--------|--------|
E|--------|--------|--------|--------|--------|--------|--------|--------|--------|


G|--------|--------|--------|--------|--------|--------|--------|--------|--------|
D|--------|--------|--------|--------|--------|--------|--------|--------|--------|
A|--------|--------|--------|--------|--------|--------|--------|--------|--------|
E|--------|--------|--------|--------|--------|--------|--------|--------|--------|


G|--------|--------|--------|--------|--------|--------|--------|--------|--------|
D|--------|--------|--------|--------|--------|--------|--------|--------|--------|
A|--------|--------|--------|--------|--------|--------|--------|--------|--------|
E|--------|--------|--------|--------|--------|--------|--------|--------|--------|


G|--------|--------|--------|--------|--------|--------|--------|--------|--------|
D|--------|--------|--------|--------|--------|--------|--------|--------|--------|
A|--------|--------|--------|--------|--------|--------|--------|--------|--------|
E|--------|--------|--------|--------|--------|--------|--------|--------|--------|


G|--------|--------|--------|--------|--------|--------|--------|--------|--------|
D|--------|--------|--------|--------|--------|--------|--------|--------|--------|
A|--------|--------|--------|--------|--------|--------|--------|--------|--------|
E|--------|--------|--------|--------|--------|--------|--------|--------|--------|


G|--------|--------|--------|--------|--------|--------|--------|--------|--------|
D|--------|--------|--------|--------|--------|--------|--------|--------|--------|
A|--------|--------|--------|--------|--------|--------|--------|--------|--------|
E|--------|--------|--------|--------|--------|--------|--------|--------|--------|


G|--------|--------|--------|--------|--------|--------|--------|--------|--------|
D|--------|--------|--------|--------|--------|--------|--------|--------|--------|
A|--------|--------|--------|--------|--------|--------|--------|--------|--------|
E|--------|--------|--------|--------|--------|--------|--------|--------|--------|


G|--------|--------|--------|--------|--------|--------|--------|--------|--------|
D|--------|--------|--------|--------|--------|--------|--------|--------|--------|
A|--------|--------|--------|--------|--------|--------|--------|--------|--------|
E|--------|--------|--------|--------|--------|--------|--------|--------|--------|


G|--------|--------|--------|--------|--------|--------|--------|--------|--------|
D|--------|--------|--------|--------|--------|--------|--------|--------|--------|
A|--------|--------|--------|--------|--------|--------|--------|--------|--------|
E|--------|--------|--------|--------|--------|--------|--------|--------|--------|


G|--------|--------|--------|--------|--------|--------|--------|--------|--------|
D|--------|--------|--------|--------|--------|--------|--------|--------|--------|
A|--------|--------|--------|--------|--------|--------|--------|--------|--------|
E|--------|--------|--------|--------|--------|--------|--------|--------|--------|


G|--------|--------|
D|--------|--------|
A|--------|--------|
E|--------|--------|