Site menu:

    

Browse: 0-9 A B C D E F G H I J K L N O P Q R S T U V W X Y Z

iced earth - burning times:



Title: Burning Times
Artist: 
Album: Something Wicked This Way Comes
Author: Jon Schaffer


Track 1: Rhythm Guitar

D#|-----------------------------------|------------------------------|-----------------------------------|
A#|-----------------------------------|------------------------------|-----------------------------------|
F#|-----------------------------------|------------------------------|-----------------------------------|
C#|-----------------------------------|------------------------------|-----------------------------------|
G#|---------2-------------7-------8---|-----7-------5-------8---7----|---------2-------------7-------10--|
D#|-0---0---0---0--0--0-------0-------|-0-------0-------0------------|-0---0---0---0--0--0-------0-------|


D#|------------------------------|-----------------------------------|---------------------------------|
A#|------------------------------|-----------------------------------|---------------------------------|
F#|------------------------------|-----------------------------------|---------------------------------|
C#|------------------------------|-----------------------------------|---------------------------------|
G#|-----8-------5-------8---7----|---------2-------------7-------8---|-----7-------5-------8---7-------|
D#|-0-------0-------0------------|-0---0---0---0--0--0-------0-------|-0-------0-------0-----------0---|


D#|--------------------------------|------------------------|-----------------------------------|
A#|--------------------------------|------------------------|-----------------------------------|
F#|--------------------------------|------------------------|-----------------------------------|
C#|-5----5-------------7-------4---|-4----4-----------------|-----------------------------------|
G#|-3----3---3--3--3---5---0---2---|-2----2---0-------------|---------2-------------10------12--|
D#|--------------------------------|--------------3---2-----|-0---0---0---0--0--0-------0-------|


D#|------------------------------|-----------------------------------|------------------------------|
A#|------------------------------|-----------------------------------|------------------------------|
F#|------------------------------|-----------------------------------|------------------------------|
C#|------------------------------|-----------------------------------|------------------------------|
G#|-----10------9-------12--10---|---------2-------------10------14--|-----12------9-------12--10---|
D#|-0-------0-------0------------|-0---0---0---0--0--0-------0-------|-0-------0-------0------------|


D#|-----------------------------------|---------------------------------|--------------------------------|
A#|-----------------------------------|---------------------------------|--------------------------------|
F#|-----------------------------------|---------------------------------|--------------------------------|
C#|-----------------------------------|---------------------------------|-5----5-------------7-------4---|
G#|---------2-------------7-------8---|-----7-------5-------8---7-------|-3----3---3--3--3---5---0---2---|
D#|-0---0---0---0--0--0-------0-------|-0-------0-------0-----------0---|--------------------------------|


D#|------------------------|-----------------------------------|--------------------------------|
A#|------------------------|-----------------------------------|--------------------------------|
F#|------------------------|-----------------------------------|--------------------------------|
C#|-4----4-----------------|---------2-------------2-------0---|-0---2---2-----------------2----|
G#|-2----2---0-------------|---------2-------------2-------0---|-0---2---2-----------------2----|
D#|--------------3---2-----|-0---0-------0--0--0-------0-------|-------------0--0--0---0--------|


D#|-----------------------------------|------------------------------|-----------------------------------|
A#|-----------------------------------|------------------------------|-----------------------------------|
F#|-----------------------------------|------------------------------|-----------------------------------|
C#|---------2-------------2-------5---|-5-------5---3---3----3---2---|---------2-------------2-------0---|
G#|---------2-------------2-------5---|-5-------5---3---3----3---2---|---------2-------------2-------0---|
D#|-0---0-------0--0--0-------0-------|-----0------------------------|-0---0-------0--0--0-------0-------|


D#|--------------------------------|-----------------------------------|------------------------------|
A#|--------------------------------|-----------------------------------|------------------------------|
F#|--------------------------------|-----------------------------------|------------------------------|
C#|-0---2---2-----------------2----|---------2-------------2-------5---|-5-------5---3---3----3---2---|
G#|-0---2---2-----------------2----|---------2-------------2-------5---|-5-------5---3---3----3---2---|
D#|-------------0--0--0---0--------|-0---0-------0--0--0-------0-------|-----0------------------------|


D#|-----------------------------------|--------------------------------|-----------------------------------|
A#|-----------------------------------|--------------------------------|-----------------------------------|
F#|-----------------------------------|--------------------------------|-----------------------------------|
C#|---------2-------------2-------0---|-0---2---2-----------------2----|---------2-------------2-------5---|
G#|---------2-------------2-------0---|-0---2---2-----------------2----|---------2-------------2-------5---|
D#|-0---0-------0--0--0-------0-------|-------------0--0--0---0--------|-0---0-------0--0--0-------0-------|


D#|------------------------------|-----------------------------------|--------------------------------|
A#|------------------------------|-----------------------------------|--------------------------------|
F#|------------------------------|-----------------------------------|--------------------------------|
C#|-5-------5---3---3----3---2---|---------2-------------2-------0---|-0---2---2-----------------2----|
G#|-5-------5---3---3----3---2---|---------2-------------2-------0---|-0---2---2-----------------2----|
D#|-----0------------------------|-0---0-------0--0--0-------0-------|-------------0--0--0---0--------|


D#|-----------------------------------|------------------------------|-----------------------------------|
A#|-----------------------------------|------------------------------|-----------------------------------|
F#|-----------------------------------|------------------------------|-----------------------------------|
C#|---------2-------------2-------5---|-5-------5---3---3----3---2---|-----------------------------------|
G#|---------2-------------2-------5---|-5-------5---3---3----3---2---|---------2-------------10------12--|
D#|-0---0-------0--0--0-------0-------|-----0------------------------|-0---0---0---0--0--0-------0-------|


D#|------------------------------|-----------------------------------|------------------------------|
A#|------------------------------|-----------------------------------|------------------------------|
F#|------------------------------|-----------------------------------|------------------------------|
C#|------------------------------|-----------------------------------|------------------------------|
G#|-----10------9-------12--10---|---------2-------------10------14--|-----12------9-------12--10---|
D#|-0-------0-------0------------|-0---0---0---0--0--0-------0-------|-0-------0-------0------------|


D#|-----------------------------------|---------------------------------|--------------------------------|
A#|-----------------------------------|---------------------------------|--------------------------------|
F#|-----------------------------------|---------------------------------|--------------------------------|
C#|-----------------------------------|---------------------------------|-5----5-------------7-------4---|
G#|---------2-------------7-------8---|-----7-------5-------8---7-------|-3----3---3--3--3---5---0---2---|
D#|-0---0---0---0--0--0-------0-------|-0-------0-------0-----------0---|--------------------------------|


D#|------------------------|-----------------------------------|--------------------------------|
A#|------------------------|-----------------------------------|--------------------------------|
F#|------------------------|-----------------------------------|--------------------------------|
C#|-4----4-----------------|---------2-------------2-------0---|-0---2---2-----------------2----|
G#|-2----2---0-------------|---------2-------------2-------0---|-0---2---2-----------------2----|
D#|--------------3---2-----|-0---0-------0--0--0-------0-------|-------------0--0--0---0--------|


D#|-----------------------------------|------------------------------|-----------------------------------|
A#|-----------------------------------|------------------------------|-----------------------------------|
F#|-----------------------------------|------------------------------|-----------------------------------|
C#|---------2-------------2-------5---|-5-------5---3---3----3---2---|---------2-------------2-------0---|
G#|---------2-------------2-------5---|-5-------5---3---3----3---2---|---------2-------------2-------0---|
D#|-0---0-------0--0--0-------0-------|-----0------------------------|-0---0-------0--0--0-------0-------|


D#|--------------------------------|-----------------------------------|------------------------------|
A#|--------------------------------|-----------------------------------|------------------------------|
F#|--------------------------------|-----------------------------------|------------------------------|
C#|-0---2---2-----------------2----|---------2-------------2-------5---|-5-------5---3---3----3---2---|
G#|-0---2---2-----------------2----|---------2-------------2-------5---|-5-------5---3---3----3---2---|
D#|-------------0--0--0---0--------|-0---0-------0--0--0-------0-------|-----0------------------------|


D#|-----------------------------------|--------------------------------|-----------------------------------|
A#|-----------------------------------|--------------------------------|-----------------------------------|
F#|-----------------------------------|--------------------------------|-----------------------------------|
C#|---------2-------------2-------0---|-0---2---2-----------------2----|---------2-------------2-------5---|
G#|---------2-------------2-------0---|-0---2---2-----------------2----|---------2-------------2-------5---|
D#|-0---0-------0--0--0-------0-------|-------------0--0--0---0--------|-0---0-------0--0--0-------0-------|


D#|------------------------------|-----------------------------------|--------------------------------|
A#|------------------------------|-----------------------------------|--------------------------------|
F#|------------------------------|-----------------------------------|--------------------------------|
C#|-5-------5---3---3----3---2---|---------2-------------2-------0---|-0---2---2-----------------2----|
G#|-5-------5---3---3----3---2---|---------2-------------2-------0---|-0---2---2-----------------2----|
D#|-----0------------------------|-0---0-------0--0--0-------0-------|-------------0--0--0---0--------|


D#|-----------------------------------|------------------------------|-----------------------------------|
A#|-----------------------------------|------------------------------|-----------------------------------|
F#|-----------------------------------|------------------------------|-----------------------------------|
C#|---------2-------------2-------5---|-5-------5---3---3----3---2---|-----------------------9-------10--|
G#|---------2-------------2-------5---|-5-------5---3---3----3---2---|---------2-------------7-------8---|
D#|-0---0-------0--0--0-------0-------|-----0------------------------|-0---0---0---0--0--0-------0-------|


D#|------------------------------|-----------------------------------|------------------------------|
A#|------------------------------|-----------------------------------|------------------------------|
F#|------------------------------|-----------------------------------|------------------------------|
C#|-----9-------7-------10--9----|-----------------------9-------12--|-----10------7-------10--9----|
G#|-----7-------5-------8---7----|---------2-------------7-------10--|-----8-------5-------8---7----|
D#|-0-------0-------0------------|-0---0---0---0--0--0-------0-------|-0-------0-------0------------|


D#|-----------------------------------|---------------------------------|--------------------------------|
A#|-----------------------------------|---------------------------------|--------------------------------|
F#|-----------------------------------|---------------------------------|--------------------------------|
C#|-----------------------9-------10--|-----9-------7-------10--9-------|-5----5-------------7-------4---|
G#|---------2-------------7-------8---|-----7-------5-------8---7-------|-3----3---3--3--3---5---0---2---|
D#|-0---0---0---0--0--0-------0-------|-0-------0-------0-----------0---|--------------------------------|


D#|------------------------|-----------------------------------|------------------------------|
A#|------------------------|-----------------------------------|------------------------------|
F#|------------------------|-----------------------------------|------------------------------|
C#|-4----4-----------------|-----------------------9-------10--|-----9-------7-------10--9----|
G#|-2----2---0-------------|---------2-------------7-------8---|-----7-------5-------8---7----|
D#|--------------3---2-----|-0---0---0---0--0--0-------0-------|-0-------0-------0------------|


D#|-----------------------------------|------------------------------|-----------------------------------|
A#|-----------------------------------|------------------------------|-----------------------------------|
F#|-----------------------------------|------------------------------|-----------------------------------|
C#|-----------------------9-------12--|-----10------7-------10--9----|-----------------------9-------10--|
G#|---------2-------------7-------10--|-----8-------5-------8---7----|---------2-------------7-------8---|
D#|-0---0---0---0--0--0-------0-------|-0-------0-------0------------|-0---0---0---0--0--0-------0-------|


D#|---------------------------------|--------------------------------|------------------------|
A#|---------------------------------|--------------------------------|------------------------|
F#|---------------------------------|--------------------------------|------------------------|
C#|-----9-------7-------10--9-------|-5----5-------------7-------4---|-4----4-----------------|
G#|-----7-------5-------8---7-------|-3----3---3--3--3---5---0---2---|-2----2---0-------------|
D#|-0-------0-------0-----------0---|--------------------------------|--------------3---2-----|


D#|------------------------------|---------------------------------|------------------------------|
A#|------------------------------|---------------------------------|------------------------------|
F#|------------------------------|---------------------------------|------------------------------|
C#|------------------------------|---------------------5---5---5---|--------------------------8---|
G#|-2----2---2---2---2---2---2---|-2---2---2---2---2---5---5---5---|-2----2---2---2---2---2---8---|
D#|-0----0---0---0---0---0---0---|-0---0---0---0---0---3---3---3---|-0----0---0---0---0---0---6---|


D#|---------------------------|------------------------------|---------------------------------|
A#|---------------------------|------------------------------|---------------------------------|
F#|---------------------------|------------------------------|---------------------------------|
C#|-----8-------8---7----7----|------------------------------|---------------------5---5---5---|
G#|-----8-------8---7----7----|-2----2---2---2---2---2---2---|-2---2---2---2---2---5---5---5---|
D#|-0---6---0---6---5----5----|-0----0---0---0---0---0---0---|-0---0---0---0---0---3---3---3---|


D#|------------------------------|---------------------------|-----------------------------|
A#|------------------------------|---------------------------|-----------------------------|
F#|------------------------------|---------------------------|-----------------------------|
C#|--------------------------8---|-----8-------8---7----7----|-5---------------7-------4---|
G#|-2----2---2---2---2---2---8---|-----8-------8---7----7----|-3-----3--3--3---5---0---2---|
D#|-0----0---0---0---0---0---6---|-0---6---0---6---5----5----|-----------------------------|


D#|--------|-----------------------------|------------------------|-----------------------------------|
A#|--------|-----------------------------|------------------------|-----------------------------------|
F#|--------|-----------------------------|------------------------|-----------------------------------|
C#|-4------|-5---------------7-------4---|-4----4-----------------|---------2-------------2-------0---|
G#|-2------|-3-----3--3--3---5---0---2---|-2----2---0-------------|---------2-------------2-------0---|
D#|--------|-----------------------------|--------------3---2-----|-0---0-------0--0--0-------0-------|


D#|--------------------------------|-----------------------------------|------------------------------|
A#|--------------------------------|-----------------------------------|------------------------------|
F#|--------------------------------|-----------------------------------|------------------------------|
C#|-0---2---2-----------------2----|---------2-------------2-------5---|-5-------5---3---3----3---2---|
G#|-0---2---2-----------------2----|---------2-------------2-------5---|-5-------5---3---3----3---2---|
D#|-------------0--0--0---0--------|-0---0-------0--0--0-------0-------|-----0------------------------|


D#|-----------------------------------|--------------------------------|-----------------------------------|
A#|-----------------------------------|--------------------------------|-----------------------------------|
F#|-----------------------------------|--------------------------------|-----------------------------------|
C#|---------2-------------2-------0---|-0---2---2-----------------2----|---------2-------------2-------5---|
G#|---------2-------------2-------0---|-0---2---2-----------------2----|---------2-------------2-------5---|
D#|-0---0-------0--0--0-------0-------|-------------0--0--0---0--------|-0---0-------0--0--0-------0-------|


D#|------------------------------|-----------------------------------|--------------------------------|
A#|------------------------------|-----------------------------------|--------------------------------|
F#|------------------------------|-----------------------------------|--------------------------------|
C#|-5-------5---3---3----3---2---|---------2-------------2-------0---|-0---2---2-----------------2----|
G#|-5-------5---3---3----3---2---|---------2-------------2-------0---|-0---2---2-----------------2----|
D#|-----0------------------------|-0---0-------0--0--0-------0-------|-------------0--0--0---0--------|


D#|-----------------------------------|------------------------------|-----------------------------------|
A#|-----------------------------------|------------------------------|-----------------------------------|
F#|-----------------------------------|------------------------------|-----------------------------------|
C#|---------2-------------2-------5---|-5-------5---3---3----3---2---|---------2-------------2-------0---|
G#|---------2-------------2-------5---|-5-------5---3---3----3---2---|---------2-------------2-------0---|
D#|-0---0-------0--0--0-------0-------|-----0------------------------|-0---0-------0--0--0-------0-------|


D#|--------------------------------|-----------------------------------|------------------------------|
A#|--------------------------------|-----------------------------------|------------------------------|
F#|--------------------------------|-----------------------------------|------------------------------|
C#|-0---2---2-----------------2----|---------2-------------2-------5---|-5-------5---3---3----3---2---|
G#|-0---2---2-----------------2----|---------2-------------2-------5---|-5-------5---3---3----3---2---|
D#|-------------0--0--0---0--------|-0---0-------0--0--0-------0-------|-----0------------------------|


D#|-----------------------------------|------------------------------|-----------------------------------|
A#|-----------------------------------|------------------------------|-----------------------------------|
F#|-----------------------------------|------------------------------|-----------------------------------|
C#|-----------------------9-------10--|-----9-------7-------10--9----|-----------------------9-------12--|
G#|---------2-------------7-------8---|-----7-------5-------8---7----|---------2-------------7-------10--|
D#|-0---0---0---0--0--0-------0-------|-0-------0-------0------------|-0---0---0---0--0--0-------0-------|


D#|------------------------------|-----------------------------------|---------------------------------|
A#|------------------------------|-----------------------------------|---------------------------------|
F#|------------------------------|-----------------------------------|---------------------------------|
C#|-----10------7-------10--9----|-----------------------9-------10--|-----9-------7-------10--9-------|
G#|-----8-------5-------8---7----|---------2-------------7-------8---|-----7-------5-------8---7-------|
D#|-0-------0-------0------------|-0---0---0---0--0--0-------0-------|-0-------0-------0-----------0---|


D#|--------------------------------|------------------------|-----------------------------------|
A#|--------------------------------|------------------------|-----------------------------------|
F#|--------------------------------|------------------------|-----------------------------------|
C#|-5----5-------------7-------4---|-4----4-----------------|-----------------------9-------10--|
G#|-3----3---3--3--3---5---0---2---|-2----2---0-------------|---------2-------------7-------8---|
D#|--------------------------------|--------------3---2-----|-0---0---0---0--0--0-------0-------|


D#|------------------------------|-----------------------------------|------------------------------|
A#|------------------------------|-----------------------------------|------------------------------|
F#|------------------------------|-----------------------------------|------------------------------|
C#|-----9-------7-------10--9----|-----------------------9-------12--|-----10------7-------10--9----|
G#|-----7-------5-------8---7----|---------2-------------7-------10--|-----8-------5-------8---7----|
D#|-0-------0-------0------------|-0---0---0---0--0--0-------0-------|-0-------0-------0------------|


D#|-----------------------------------|---------------------------------|--------------------------------|
A#|-----------------------------------|---------------------------------|--------------------------------|
F#|-----------------------------------|---------------------------------|--------------------------------|
C#|-----------------------9-------10--|-----9-------7-------10--9-------|-5----5-------------7-------4---|
G#|---------2-------------7-------8---|-----7-------5-------8---7-------|-3----3---3--3--3---5---0---2---|
D#|-0---0---0---0--0--0-------0-------|-0-------0-------0-----------0---|--------------------------------|


D#|------------------------|------------------------------|---------------------------------|
A#|------------------------|------------------------------|---------------------------------|
F#|------------------------|------------------------------|---------------------------------|
C#|-4----4-----------------|------------------------------|---------------------------------|
G#|-2----2---0-------------|-2----2---2---2---2---2---2---|-2---2---2---2---2---2---2---2---|
D#|--------------3---2-----|-0----0---0---0---0---0---0---|-0---0---0---0---0---0---0---0---|


D#|---------------------------------|---------------------------------|---------------------------------|
A#|---------------------------------|---------------------------------|---------------------------------|
F#|---------------------------------|---------------------------------|---------------------------------|
C#|---------------------------------|---------------------------------|---------------------------------|
G#|-2---2---2---2---2---2---2---2---|-2---2---2---2---2---2---2---2---|-2---2---2---2---2---2---2---2---|
D#|-0---0---0---0---0---0---0---0---|-0---0---0---0---0---0---0---0---|-0---0---0---0---0---0---0---0---|


D#|---------------------------------|---------------------------------|---------------------------------|
A#|---------------------------------|---------------------------------|---------------------------------|
F#|---------------------------------|---------------------------------|---------------------------------|
C#|---------------------------------|---------------------------------|---------------------------------|
G#|-2---2---2---2---2---2---2---2---|-2---2---2---2---2---2---2---2---|-2---2---2---2---2---2---2---2---|
D#|-0---0---0---0---0---0---0---0---|-0---0---0---0---0---0---0---0---|-0---0---0---0---0---0---0---0---|


D#|-----------------------|--------|-----------------------|---------------------|
A#|-----------------------|--------|-----------------------|---------------------|
F#|-----------------------|--------|-----------------------|---------------------|
C#|-5-----5---7-------4---|-4------|-5-----5---7-------4---|-4-------------------|
G#|-3-----3---5---0---2---|-2------|-3-----3---5---0---2---|-2-----0---5---4-----|
D#|-----------------------|--------|-----------------------|-----------3---2-----|


D#|-----------------|
A#|-----------------|
F#|-----------------|
C#|-----------------|
G#|-2---------------|
D#|-0---------------|





Track 2: Rhythm Guitar

D#|--------------------|--------|--------------------|--------|--------------------|
A#|--------------------|--------|--------------------|--------|--------------------|
F#|--------------------|--------|--------------------|--------|--------------------|
C#|--------------------|--------|--------------------|--------|--------------------|
G#|---------2----2-----|-2------|---------2----2-----|-2------|---------2----2-----|
D#|-0---0---0----0-----|-0------|-0---0---0----0-----|-0------|-0---0---0----0-----|


D#|-----------------|--------------------------------|------------------------|-----------------------------------|
A#|-----------------|--------------------------------|------------------------|-----------------------------------|
F#|-----------------|--------------------------------|------------------------|-----------------------------------|
C#|-----------------|-5----5-------------7-------4---|-4----4-----------------|-----------------------------------|
G#|-2-----2---------|-3----3---3--3--3---5---0---2---|-2----2---0-------------|---------2-------------7-------8---|
D#|-0-----0-----0---|--------------------------------|--------------3---2-----|-0---0---0---0--0--0-------0-------|


D#|------------------------------|-----------------------------------|------------------------------|
A#|------------------------------|-----------------------------------|------------------------------|
F#|------------------------------|-----------------------------------|------------------------------|
C#|------------------------------|-----------------------------------|------------------------------|
G#|-----7-------5-------8---7----|---------2-------------7-------10--|-----8-------5-------8---7----|
D#|-0-------0-------0------------|-0---0---0---0--0--0-------0-------|-0-------0-------0------------|


D#|-----------------------------------|---------------------------------|--------------------------------|
A#|-----------------------------------|---------------------------------|--------------------------------|
F#|-----------------------------------|---------------------------------|--------------------------------|
C#|-----------------------------------|---------------------------------|-5----5-------------7-------4---|
G#|---------2-------------10------12--|-----10------9-------12--10------|-3----3---3--3--3---5---0---2---|
D#|-0---0---0---0--0--0-------0-------|-0-------0-------0-----------0---|--------------------------------|


D#|------------------------|--------|--------|--------|--------|--------|--------|
A#|------------------------|--------|--------|--------|--------|--------|--------|
F#|------------------------|--------|--------|--------|--------|--------|--------|
C#|-4----4-----------------|--------|--------|--------|--------|--------|--------|
G#|-2----2---0-------------|--------|--------|--------|--------|--------|--------|
D#|--------------3---2-----|--------|--------|--------|--------|--------|--------|


D#|--------|--------|--------|--------|--------|--------|--------|--------|--------|
A#|--------|--------|--------|--------|--------|--------|--------|--------|--------|
F#|--------|--------|--------|--------|--------|--------|--------|--------|--------|
C#|--------|--------|--------|--------|--------|--------|--------|--------|--------|
G#|--------|--------|--------|--------|--------|--------|--------|--------|--------|
D#|--------|--------|--------|--------|--------|--------|--------|--------|--------|


D#|--------|--------|--------|--------|--------|--------|--------|--------|--------|
A#|--------|--------|--------|--------|--------|--------|--------|--------|--------|
F#|--------|--------|--------|--------|--------|--------|--------|--------|--------|
C#|--------|--------|--------|--------|--------|--------|--------|--------|--------|
G#|--------|--------|--------|--------|--------|--------|--------|--------|--------|
D#|--------|--------|--------|--------|--------|--------|--------|--------|--------|


D#|--------|--------|--------|--------|--------|--------|--------|--------|--------|
A#|--------|--------|--------|--------|--------|--------|--------|--------|--------|
F#|--------|--------|--------|--------|--------|--------|--------|--------|--------|
C#|--------|--------|--------|--------|--------|--------|--------|--------|--------|
G#|--------|--------|--------|--------|--------|--------|--------|--------|--------|
D#|--------|--------|--------|--------|--------|--------|--------|--------|--------|


D#|--------|--------|--------|--------|--------|--------|--------|--------|--------|
A#|--------|--------|--------|--------|--------|--------|--------|--------|--------|
F#|--------|--------|--------|--------|--------|--------|--------|--------|--------|
C#|--------|--------|--------|--------|--------|--------|--------|--------|--------|
G#|--------|--------|--------|--------|--------|--------|--------|--------|--------|
D#|--------|--------|--------|--------|--------|--------|--------|--------|--------|


D#|--------|--------|--------|--------|--------|--------|--------|--------|--------|
A#|--------|--------|--------|--------|--------|--------|--------|--------|--------|
F#|--------|--------|--------|--------|--------|--------|--------|--------|--------|
C#|--------|--------|--------|--------|--------|--------|--------|--------|--------|
G#|--------|--------|--------|--------|--------|--------|--------|--------|--------|
D#|--------|--------|--------|--------|--------|--------|--------|--------|--------|


D#|--------|--------|--------|--------|--------|--------|--------|--------|--------|
A#|--------|--------|--------|--------|--------|--------|--------|--------|--------|
F#|--------|--------|--------|--------|--------|--------|--------|--------|--------|
C#|--------|--------|--------|--------|--------|--------|--------|--------|--------|
G#|--------|--------|--------|--------|--------|--------|--------|--------|--------|
D#|--------|--------|--------|--------|--------|--------|--------|--------|--------|


D#|--------|--------|--------|--------|--------|--------|--------|--------|--------|
A#|--------|--------|--------|--------|--------|--------|--------|--------|--------|
F#|--------|--------|--------|--------|--------|--------|--------|--------|--------|
C#|--------|--------|--------|--------|--------|--------|--------|--------|--------|
G#|--------|--------|--------|--------|--------|--------|--------|--------|--------|
D#|--------|--------|--------|--------|--------|--------|--------|--------|--------|


D#|--------|--------|--------|--------|--------|--------|--------|--------|--------|
A#|--------|--------|--------|--------|--------|--------|--------|--------|--------|
F#|--------|--------|--------|--------|--------|--------|--------|--------|--------|
C#|--------|--------|--------|--------|--------|--------|--------|--------|--------|
G#|--------|--------|--------|--------|--------|--------|--------|--------|--------|
D#|--------|--------|--------|--------|--------|--------|--------|--------|--------|


D#|--------|--------|--------|--------|--------|--------|--------|--------|--------|
A#|--------|--------|--------|--------|--------|--------|--------|--------|--------|
F#|--------|--------|--------|--------|--------|--------|--------|--------|--------|
C#|--------|--------|--------|--------|--------|--------|--------|--------|--------|
G#|--------|--------|--------|--------|--------|--------|--------|--------|--------|
D#|--------|--------|--------|--------|--------|--------|--------|--------|--------|


D#|--------|--------|--------|--------|--------|--------|--------|--------|--------|
A#|--------|--------|--------|--------|--------|--------|--------|--------|--------|
F#|--------|--------|--------|--------|--------|--------|--------|--------|--------|
C#|--------|--------|--------|--------|--------|--------|--------|--------|--------|
G#|--------|--------|--------|--------|--------|--------|--------|--------|--------|
D#|--------|--------|--------|--------|--------|--------|--------|--------|--------|


D#|--------|--------|--------|--------|--------|--------|--------|--------|--------|
A#|--------|--------|--------|--------|--------|--------|--------|--------|--------|
F#|--------|--------|--------|--------|--------|--------|--------|--------|--------|
C#|--------|--------|--------|--------|--------|--------|--------|--------|--------|
G#|--------|--------|--------|--------|--------|--------|--------|--------|--------|
D#|--------|--------|--------|--------|--------|--------|--------|--------|--------|


D#|--------|--------|--------|--------|--------|--------|--------|--------|
A#|--------|--------|--------|--------|--------|--------|--------|--------|
F#|--------|--------|--------|--------|--------|--------|--------|--------|
C#|--------|--------|--------|--------|--------|--------|--------|--------|
G#|--------|--------|--------|--------|--------|--------|--------|--------|
D#|--------|--------|--------|--------|--------|--------|--------|--------|





Track 3: Rhythm Guitar

D#|--------|--------|--------|--------|--------|--------|--------|--------|--------|
A#|--------|--------|--------|--------|--------|--------|--------|--------|--------|
F#|--------|--------|--------|--------|--------|--------|--------|--------|--------|
C#|--------|--------|--------|--------|--------|--------|--------|--------|--------|
G#|--------|--------|--------|--------|--------|--------|--------|--------|--------|
D#|--------|--------|--------|--------|--------|--------|--------|--------|--------|


D#|--------|--------|--------|--------|--------|--------|--------|--------|--------|
A#|--------|--------|--------|--------|--------|--------|--------|--------|--------|
F#|--------|--------|--------|--------|--------|--------|--------|--------|--------|
C#|--------|--------|--------|--------|--------|--------|--------|--------|--------|
G#|--------|--------|--------|--------|--------|--------|--------|--------|--------|
D#|--------|--------|--------|--------|--------|--------|--------|--------|--------|


D#|--------|--------|--------|--------|--------|--------|--------|--------|--------|
A#|--------|--------|--------|--------|--------|--------|--------|--------|--------|
F#|--------|--------|--------|--------|--------|--------|--------|--------|--------|
C#|--------|--------|--------|--------|--------|--------|--------|--------|--------|
G#|--------|--------|--------|--------|--------|--------|--------|--------|--------|
D#|--------|--------|--------|--------|--------|--------|--------|--------|--------|


D#|--------|--------|--------|--------|--------|-----------------------------------|
A#|--------|--------|--------|--------|--------|-----------------------------------|
F#|--------|--------|--------|--------|--------|-----------------------------------|
C#|--------|--------|--------|--------|--------|-----------------------------------|
G#|--------|--------|--------|--------|--------|---------2-------------7-------8---|
D#|--------|--------|--------|--------|--------|-0---0---0---0--0--0-------0-------|


D#|------------------------------|-----------------------------------|------------------------------|
A#|------------------------------|-----------------------------------|------------------------------|
F#|------------------------------|-----------------------------------|------------------------------|
C#|------------------------------|-----------------------------------|------------------------------|
G#|-----7-------5-------8---7----|---------2-------------7-------10--|-----8-------5-------8---7----|
D#|-0-------0-------0------------|-0---0---0---0--0--0-------0-------|-0-------0-------0------------|


D#|-----------------------------------|---------------------------------|--------------------------------|
A#|-----------------------------------|---------------------------------|--------------------------------|
F#|-----------------------------------|---------------------------------|--------------------------------|
C#|-----------------------------------|---------------------------------|-5----5-------------7-------4---|
G#|---------2-------------10------12--|-----10------9-------12--10------|-3----3---3--3--3---5---0---2---|
D#|-0---0---0---0--0--0-------0-------|-0-------0-------0-----------0---|--------------------------------|


D#|------------------------|--------|--------|--------|--------|--------|--------|
A#|------------------------|--------|--------|--------|--------|--------|--------|
F#|------------------------|--------|--------|--------|--------|--------|--------|
C#|-4----4-----------------|--------|--------|--------|--------|--------|--------|
G#|-2----2---0-------------|--------|--------|--------|--------|--------|--------|
D#|--------------3---2-----|--------|--------|--------|--------|--------|--------|


D#|--------|--------|--------|--------|--------|--------|--------|--------|--------|
A#|--------|--------|--------|--------|--------|--------|--------|--------|--------|
F#|--------|--------|--------|--------|--------|--------|--------|--------|--------|
C#|--------|--------|--------|--------|--------|--------|--------|--------|--------|
G#|--------|--------|--------|--------|--------|--------|--------|--------|--------|
D#|--------|--------|--------|--------|--------|--------|--------|--------|--------|


D#|--------|--------|--------|--------|--------|--------|--------|--------|--------|
A#|--------|--------|--------|--------|--------|--------|--------|--------|--------|
F#|--------|--------|--------|--------|--------|--------|--------|--------|--------|
C#|--------|--------|--------|--------|--------|--------|--------|--------|--------|
G#|--------|--------|--------|--------|--------|--------|--------|--------|--------|
D#|--------|--------|--------|--------|--------|--------|--------|--------|--------|


D#|--------|--------|--------|--------|--------|--------|--------|--------|--------|
A#|--------|--------|--------|--------|--------|--------|--------|--------|--------|
F#|--------|--------|--------|--------|--------|--------|--------|--------|--------|
C#|--------|--------|--------|--------|--------|--------|--------|--------|--------|
G#|--------|--------|--------|--------|--------|--------|--------|--------|--------|
D#|--------|--------|--------|--------|--------|--------|--------|--------|--------|


D#|--------|--------|--------|--------|--------|--------|--------|--------|--------|
A#|--------|--------|--------|--------|--------|--------|--------|--------|--------|
F#|--------|--------|--------|--------|--------|--------|--------|--------|--------|
C#|--------|--------|--------|--------|--------|--------|--------|--------|--------|
G#|--------|--------|--------|--------|--------|--------|--------|--------|--------|
D#|--------|--------|--------|--------|--------|--------|--------|--------|--------|


D#|--------|--------|--------|--------|--------|--------|--------|--------|--------|
A#|--------|--------|--------|--------|--------|--------|--------|--------|--------|
F#|--------|--------|--------|--------|--------|--------|--------|--------|--------|
C#|--------|--------|--------|--------|--------|--------|--------|--------|--------|
G#|--------|--------|--------|--------|--------|--------|--------|--------|--------|
D#|--------|--------|--------|--------|--------|--------|--------|--------|--------|


D#|--------|--------|--------|--------|--------|--------|--------|--------|--------|
A#|--------|--------|--------|--------|--------|--------|--------|--------|--------|
F#|--------|--------|--------|--------|--------|--------|--------|--------|--------|
C#|--------|--------|--------|--------|--------|--------|--------|--------|--------|
G#|--------|--------|--------|--------|--------|--------|--------|--------|--------|
D#|--------|--------|--------|--------|--------|--------|--------|--------|--------|


D#|--------|--------|--------|--------|--------|--------|--------|--------|--------|
A#|--------|--------|--------|--------|--------|--------|--------|--------|--------|
F#|--------|--------|--------|--------|--------|--------|--------|--------|--------|
C#|--------|--------|--------|--------|--------|--------|--------|--------|--------|
G#|--------|--------|--------|--------|--------|--------|--------|--------|--------|
D#|--------|--------|--------|--------|--------|--------|--------|--------|--------|


D#|--------|--------|--------|--------|--------|--------|--------|--------|--------|
A#|--------|--------|--------|--------|--------|--------|--------|--------|--------|
F#|--------|--------|--------|--------|--------|--------|--------|--------|--------|
C#|--------|--------|--------|--------|--------|--------|--------|--------|--------|
G#|--------|--------|--------|--------|--------|--------|--------|--------|--------|
D#|--------|--------|--------|--------|--------|--------|--------|--------|--------|


D#|--------|--------|--------|--------|--------|--------|--------|--------|--------|
A#|--------|--------|--------|--------|--------|--------|--------|--------|--------|
F#|--------|--------|--------|--------|--------|--------|--------|--------|--------|
C#|--------|--------|--------|--------|--------|--------|--------|--------|--------|
G#|--------|--------|--------|--------|--------|--------|--------|--------|--------|
D#|--------|--------|--------|--------|--------|--------|--------|--------|--------|


D#|--------|--------|
A#|--------|--------|
F#|--------|--------|
C#|--------|--------|
G#|--------|--------|
D#|--------|--------|





Track 4: Harmony Guitar

D#|--------|--------|--------|--------|--------|--------|--------|--------|--------|
A#|--------|--------|--------|--------|--------|--------|--------|--------|--------|
F#|--------|--------|--------|--------|--------|--------|--------|--------|--------|
C#|--------|--------|--------|--------|--------|--------|--------|--------|--------|
G#|--------|--------|--------|--------|--------|--------|--------|--------|--------|
D#|--------|--------|--------|--------|--------|--------|--------|--------|--------|


D#|--------|--------|--------|--------|--------|--------|--------|--------|--------|
A#|--------|--------|--------|--------|--------|--------|--------|--------|--------|
F#|--------|--------|--------|--------|--------|--------|--------|--------|--------|
C#|--------|--------|--------|--------|--------|--------|--------|--------|--------|
G#|--------|--------|--------|--------|--------|--------|--------|--------|--------|
D#|--------|--------|--------|--------|--------|--------|--------|--------|--------|


D#|--------|--------|--------|--------|--------|--------|--------|--------|--------|
A#|--------|--------|--------|--------|--------|--------|--------|--------|--------|
F#|--------|--------|--------|--------|--------|--------|--------|--------|--------|
C#|--------|--------|--------|--------|--------|--------|--------|--------|--------|
G#|--------|--------|--------|--------|--------|--------|--------|--------|--------|
D#|--------|--------|--------|--------|--------|--------|--------|--------|--------|


D#|--------|--------|--------|--------|--------|--------|--------|--------|--------|
A#|--------|--------|--------|--------|--------|--------|--------|--------|--------|
F#|--------|--------|--------|--------|--------|--------|--------|--------|--------|
C#|--------|--------|--------|--------|--------|--------|--------|--------|--------|
G#|--------|--------|--------|--------|--------|--------|--------|--------|--------|
D#|--------|--------|--------|--------|--------|--------|--------|--------|--------|


D#|--------|--------|--------|--------|--------|--------|--------|--------|--------|
A#|--------|--------|--------|--------|--------|--------|--------|--------|--------|
F#|--------|--------|--------|--------|--------|--------|--------|--------|--------|
C#|--------|--------|--------|--------|--------|--------|--------|--------|--------|
G#|--------|--------|--------|--------|--------|--------|--------|--------|--------|
D#|--------|--------|--------|--------|--------|--------|--------|--------|--------|


D#|--------|--------|--------|--------|--------|--------|--------|--------|--------|
A#|--------|--------|--------|--------|--------|--------|--------|--------|--------|
F#|--------|--------|--------|--------|--------|--------|--------|--------|--------|
C#|--------|--------|--------|--------|--------|--------|--------|--------|--------|
G#|--------|--------|--------|--------|--------|--------|--------|--------|--------|
D#|--------|--------|--------|--------|--------|--------|--------|--------|--------|


D#|--------|--------|--------|-----------------------------8---|-7------|-7-----8---8---8--------|
A#|--------|--------|--------|---------8---10--12--10--8-------|--------|-------------------7----|
F#|--------|--------|--------|---------------------------------|--------|------------------------|
C#|--------|--------|--------|-----9---------------------------|--------|------------------------|
G#|--------|--------|--------|---------------------------------|--------|------------------------|
D#|--------|--------|--------|---------------------------------|--------|------------------------|


D#|--------|---------------------------------|-8-----8---10--8---7---|-7------|-7------|
A#|-8------|-8-------8---10--12--10--8---10--|-----------------------|--------|--------|
F#|--------|---------------------------------|-----------------------|--------|--------|
C#|--------|-----9---------------------------|-----------------------|--------|--------|
G#|--------|---------------------------------|-----------------------|--------|--------|
D#|--------|---------------------------------|-----------------------|--------|--------|


D#|-7---------------------------8---|-7------|-7-----8---8---8--------|--------|---------------------------------|
A#|---------8---10--12--10--8-------|--------|-------------------7----|-8------|-8-------8---10--12--10--8---10--|
F#|---------------------------------|--------|------------------------|--------|---------------------------------|
C#|-----9---------------------------|--------|------------------------|--------|-----9---------------------------|
G#|---------------------------------|--------|------------------------|--------|---------------------------------|
D#|---------------------------------|--------|------------------------|--------|---------------------------------|


D#|-8-----8---10--8---7---|-7------|--------|--------|--------|--------|--------|--------|
A#|-----------------------|--------|--------|--------|--------|--------|--------|--------|
F#|-----------------------|--------|--------|--------|--------|--------|--------|--------|
C#|-----------------------|--------|--------|--------|--------|--------|--------|--------|
G#|-----------------------|--------|--------|--------|--------|--------|--------|--------|
D#|-----------------------|--------|--------|--------|--------|--------|--------|--------|


D#|--------|--------|-12----12-12-12--14--15--14--|-14----14----14--|-12----12-12-12--14--12--15--|
A#|--------|--------|-----------------------------|-----------------|-----------------------------|
F#|--------|--------|-----------------------------|-----------------|-----------------------------|
C#|--------|--------|-----------------------------|-----------------|-----------------------------|
G#|--------|--------|-----------------------------|-----------------|-----------------------------|
D#|--------|--------|-----------------------------|-----------------|-----------------------------|


D#|-15--15--15--14---15---15--|-12-----|-12-----|-12-----|--------|--------|--------|
A#|---------------------------|--------|--------|--------|--------|--------|--------|
F#|---------------------------|--------|--------|--------|--------|--------|--------|
C#|---------------------------|--------|--------|--------|--------|--------|--------|
G#|---------------------------|--------|--------|--------|--------|--------|--------|
D#|---------------------------|--------|--------|--------|--------|--------|--------|


D#|--------|--------|--------|--------|--------|--------|--------|--------|--------|
A#|--------|--------|--------|--------|--------|--------|--------|--------|--------|
F#|--------|--------|--------|--------|--------|--------|--------|--------|--------|
C#|--------|--------|--------|--------|--------|--------|--------|--------|--------|
G#|--------|--------|--------|--------|--------|--------|--------|--------|--------|
D#|--------|--------|--------|--------|--------|--------|--------|--------|--------|


D#|--------|--------|-----------------------------8---|-7------|-7-----8---8---8--------|
A#|--------|--------|---------8---10--12--10--8-------|--------|-------------------7----|
F#|--------|--------|---------------------------------|--------|------------------------|
C#|--------|--------|-----9---------------------------|--------|------------------------|
G#|--------|--------|---------------------------------|--------|------------------------|
D#|--------|--------|---------------------------------|--------|------------------------|


D#|--------|---------------------------------|-8-----8---10--8---7---|-7------|-7------|
A#|-8------|-8-------8---10--12--10--8---10--|-----------------------|--------|--------|
F#|--------|---------------------------------|-----------------------|--------|--------|
C#|--------|-----9---------------------------|-----------------------|--------|--------|
G#|--------|---------------------------------|-----------------------|--------|--------|
D#|--------|---------------------------------|-----------------------|--------|--------|


D#|-7---------------------------8---|-7------|-7-----8---8---8--------|--------|---------------------------------|
A#|---------8---10--12--10--8-------|--------|-------------------7----|-8------|-8-------8---10--12--10--8---10--|
F#|---------------------------------|--------|------------------------|--------|---------------------------------|
C#|-----9---------------------------|--------|------------------------|--------|-----9---------------------------|
G#|---------------------------------|--------|------------------------|--------|---------------------------------|
D#|---------------------------------|--------|------------------------|--------|---------------------------------|


D#|-8-----8---10--8---7---|-7------|-7------|-7------|--------|--------|--------|--------|
A#|-----------------------|--------|--------|--------|--------|--------|--------|--------|
F#|-----------------------|--------|--------|--------|--------|--------|--------|--------|
C#|-----------------------|--------|--------|--------|--------|--------|--------|--------|
G#|-----------------------|--------|--------|--------|--------|--------|--------|--------|
D#|-----------------------|--------|--------|--------|--------|--------|--------|--------|


D#|--------|--------|--------|--------|--------|--------|--------|
A#|--------|--------|--------|--------|--------|--------|--------|
F#|--------|--------|--------|--------|--------|--------|--------|
C#|--------|--------|--------|--------|--------|--------|--------|
G#|--------|--------|--------|--------|--------|--------|--------|
D#|--------|--------|--------|--------|--------|--------|--------|





Track 5: Harmony Guitar

D#|--------|--------|--------|--------|--------|--------|--------|--------|--------|
A#|--------|--------|--------|--------|--------|--------|--------|--------|--------|
F#|--------|--------|--------|--------|--------|--------|--------|--------|--------|
C#|--------|--------|--------|--------|--------|--------|--------|--------|--------|
G#|--------|--------|--------|--------|--------|--------|--------|--------|--------|
D#|--------|--------|--------|--------|--------|--------|--------|--------|--------|


D#|--------|--------|--------|--------|--------|--------|--------|--------|--------|
A#|--------|--------|--------|--------|--------|--------|--------|--------|--------|
F#|--------|--------|--------|--------|--------|--------|--------|--------|--------|
C#|--------|--------|--------|--------|--------|--------|--------|--------|--------|
G#|--------|--------|--------|--------|--------|--------|--------|--------|--------|
D#|--------|--------|--------|--------|--------|--------|--------|--------|--------|


D#|--------|--------|--------|--------|--------|--------|--------|--------|--------|
A#|--------|--------|--------|--------|--------|--------|--------|--------|--------|
F#|--------|--------|--------|--------|--------|--------|--------|--------|--------|
C#|--------|--------|--------|--------|--------|--------|--------|--------|--------|
G#|--------|--------|--------|--------|--------|--------|--------|--------|--------|
D#|--------|--------|--------|--------|--------|--------|--------|--------|--------|


D#|--------|--------|--------|--------|--------|--------|--------|--------|--------|
A#|--------|--------|--------|--------|--------|--------|--------|--------|--------|
F#|--------|--------|--------|--------|--------|--------|--------|--------|--------|
C#|--------|--------|--------|--------|--------|--------|--------|--------|--------|
G#|--------|--------|--------|--------|--------|--------|--------|--------|--------|
D#|--------|--------|--------|--------|--------|--------|--------|--------|--------|


D#|--------|--------|--------|--------|--------|--------|--------|--------|--------|
A#|--------|--------|--------|--------|--------|--------|--------|--------|--------|
F#|--------|--------|--------|--------|--------|--------|--------|--------|--------|
C#|--------|--------|--------|--------|--------|--------|--------|--------|--------|
G#|--------|--------|--------|--------|--------|--------|--------|--------|--------|
D#|--------|--------|--------|--------|--------|--------|--------|--------|--------|


D#|--------|--------|--------|--------|--------|--------|--------|--------|--------|
A#|--------|--------|--------|--------|--------|--------|--------|--------|--------|
F#|--------|--------|--------|--------|--------|--------|--------|--------|--------|
C#|--------|--------|--------|--------|--------|--------|--------|--------|--------|
G#|--------|--------|--------|--------|--------|--------|--------|--------|--------|
D#|--------|--------|--------|--------|--------|--------|--------|--------|--------|


D#|--------|--------|--------|---------------------------------|--------|------------------------|
A#|--------|--------|--------|-----------------------------10--|-8------|-8-----10--10--10-------|
F#|--------|--------|--------|---------9---11--12--11--9-------|--------|-------------------8----|
C#|--------|--------|--------|-----9---------------------------|--------|------------------------|
G#|--------|--------|--------|---------------------------------|--------|------------------------|
D#|--------|--------|--------|---------------------------------|--------|------------------------|


D#|--------|---------------------------------|-----------------------|--------|--------|
A#|--------|-----------------------------10--|-8-----8---10--8---7---|-7------|-8------|
F#|-9------|-9-------9---11--12--11--9-------|-----------------------|--------|--------|
C#|--------|-----9---------------------------|-----------------------|--------|--------|
G#|--------|---------------------------------|-----------------------|--------|--------|
D#|--------|---------------------------------|-----------------------|--------|--------|


D#|---------------------------------|--------|------------------------|--------|---------------------------------|
A#|-8---------------------------10--|-8------|-8-----10--10--10-------|--------|-----------------------------10--|
F#|---------9---11--12--11--9-------|--------|-------------------8----|-9------|-9-------9---11--12--11--9-------|
C#|-----9---------------------------|--------|------------------------|--------|-----9---------------------------|
G#|---------------------------------|--------|------------------------|--------|---------------------------------|
D#|---------------------------------|--------|------------------------|--------|---------------------------------|


D#|-----------------------|--------|--------|--------|--------|--------|--------|--------|
A#|-8-----8---10--8---7---|-7------|--------|--------|--------|--------|--------|--------|
F#|-----------------------|--------|--------|--------|--------|--------|--------|--------|
C#|-----------------------|--------|--------|--------|--------|--------|--------|--------|
G#|-----------------------|--------|--------|--------|--------|--------|--------|--------|
D#|-----------------------|--------|--------|--------|--------|--------|--------|--------|


D#|--------|--------|-----------------------------|-----------------|-----------------------------|
A#|--------|--------|-13----13-13-13--15--17--15--|-15----15----15--|-13----13-13-13--15--13--17--|
F#|--------|--------|-----------------------------|-----------------|-----------------------------|
C#|--------|--------|-----------------------------|-----------------|-----------------------------|
G#|--------|--------|-----------------------------|-----------------|-----------------------------|
D#|--------|--------|-----------------------------|-----------------|-----------------------------|


D#|---------------------------|--------|--------|--------|--------|--------|--------|
A#|-17--17--17--15---17---17--|-12-----|-12-----|-12-----|--------|--------|--------|
F#|---------------------------|--------|--------|--------|--------|--------|--------|
C#|---------------------------|--------|--------|--------|--------|--------|--------|
G#|---------------------------|--------|--------|--------|--------|--------|--------|
D#|---------------------------|--------|--------|--------|--------|--------|--------|


D#|--------|--------|--------|--------|--------|--------|--------|--------|--------|
A#|--------|--------|--------|--------|--------|--------|--------|--------|--------|
F#|--------|--------|--------|--------|--------|--------|--------|--------|--------|
C#|--------|--------|--------|--------|--------|--------|--------|--------|--------|
G#|--------|--------|--------|--------|--------|--------|--------|--------|--------|
D#|--------|--------|--------|--------|--------|--------|--------|--------|--------|


D#|--------|--------|---------------------------------|--------|------------------------|
A#|--------|--------|-----------------------------10--|-8------|-8-----10--10--10-------|
F#|--------|--------|---------9---11--12--11--9-------|--------|-------------------8----|
C#|--------|--------|-----9---------------------------|--------|------------------------|
G#|--------|--------|---------------------------------|--------|------------------------|
D#|--------|--------|---------------------------------|--------|------------------------|


D#|--------|---------------------------------|-----------------------|--------|--------|
A#|--------|-----------------------------10--|-8-----8---10--8---7---|-7------|-8------|
F#|-9------|-9-------9---11--12--11--9-------|-----------------------|--------|--------|
C#|--------|-----9---------------------------|-----------------------|--------|--------|
G#|--------|---------------------------------|-----------------------|--------|--------|
D#|--------|---------------------------------|-----------------------|--------|--------|


D#|---------------------------------|--------|------------------------|--------|---------------------------------|
A#|-8---------------------------10--|-8------|-8-----10--10--10-------|--------|-----------------------------10--|
F#|---------9---11--12--11--9-------|--------|-------------------8----|-9------|-9-------9---11--12--11--9-------|
C#|-----9---------------------------|--------|------------------------|--------|-----9---------------------------|
G#|---------------------------------|--------|------------------------|--------|---------------------------------|
D#|---------------------------------|--------|------------------------|--------|---------------------------------|


D#|-----------------------|--------|--------|--------|--------|--------|--------|--------|
A#|-8-----8---10--8---7---|-7------|-8------|-8------|--------|--------|--------|--------|
F#|-----------------------|--------|--------|--------|--------|--------|--------|--------|
C#|-----------------------|--------|--------|--------|--------|--------|--------|--------|
G#|-----------------------|--------|--------|--------|--------|--------|--------|--------|
D#|-----------------------|--------|--------|--------|--------|--------|--------|--------|


D#|--------|--------|--------|--------|--------|--------|--------|
A#|--------|--------|--------|--------|--------|--------|--------|
F#|--------|--------|--------|--------|--------|--------|--------|
C#|--------|--------|--------|--------|--------|--------|--------|
G#|--------|--------|--------|--------|--------|--------|--------|
D#|--------|--------|--------|--------|--------|--------|--------|





Track 6: Lead Guitar

D#|--------|--------|--------|--------|--------|--------|--------|--------|--------|
A#|--------|--------|--------|--------|--------|--------|--------|--------|--------|
F#|--------|--------|--------|--------|--------|--------|--------|--------|--------|
C#|--------|--------|--------|--------|--------|--------|--------|--------|--------|
G#|--------|--------|--------|--------|--------|--------|--------|--------|--------|
D#|--------|--------|--------|--------|--------|--------|--------|--------|--------|


D#|--------|--------|--------|--------|--------|--------|--------|--------|--------|
A#|--------|--------|--------|--------|--------|--------|--------|--------|--------|
F#|--------|--------|--------|--------|--------|--------|--------|--------|--------|
C#|--------|--------|--------|--------|--------|--------|--------|--------|--------|
G#|--------|--------|--------|--------|--------|--------|--------|--------|--------|
D#|--------|--------|--------|--------|--------|--------|--------|--------|--------|


D#|--------|--------|--------|--------|--------|--------|--------|--------|--------|
A#|--------|--------|--------|--------|--------|--------|--------|--------|--------|
F#|--------|--------|--------|--------|--------|--------|--------|--------|--------|
C#|--------|--------|--------|--------|--------|--------|--------|--------|--------|
G#|--------|--------|--------|--------|--------|--------|--------|--------|--------|
D#|--------|--------|--------|--------|--------|--------|--------|--------|--------|


D#|--------|--------|--------|--------|--------|--------|--------|--------|--------|
A#|--------|--------|--------|--------|--------|--------|--------|--------|--------|
F#|--------|--------|--------|--------|--------|--------|--------|--------|--------|
C#|--------|--------|--------|--------|--------|--------|--------|--------|--------|
G#|--------|--------|--------|--------|--------|--------|--------|--------|--------|
D#|--------|--------|--------|--------|--------|--------|--------|--------|--------|


D#|--------|--------|--------|--------|--------|--------|--------|--------|--------|
A#|--------|--------|--------|--------|--------|--------|--------|--------|--------|
F#|--------|--------|--------|--------|--------|--------|--------|--------|--------|
C#|--------|--------|--------|--------|--------|--------|--------|--------|--------|
G#|--------|--------|--------|--------|--------|--------|--------|--------|--------|
D#|--------|--------|--------|--------|--------|--------|--------|--------|--------|


D#|--------|--------|--------|--------|--------|--------|--------|--------|--------|
A#|--------|--------|--------|--------|--------|--------|--------|--------|--------|
F#|--------|--------|--------|--------|--------|--------|--------|--------|--------|
C#|--------|--------|--------|--------|--------|--------|--------|--------|--------|
G#|--------|--------|--------|--------|--------|--------|--------|--------|--------|
D#|--------|--------|--------|--------|--------|--------|--------|--------|--------|


D#|--------|--------|--------|--------|--------|--------|--------|--------|--------|
A#|--------|--------|--------|--------|--------|--------|--------|--------|--------|
F#|--------|--------|--------|--------|--------|--------|--------|--------|--------|
C#|--------|--------|--------|--------|--------|--------|--------|--------|--------|
G#|--------|--------|--------|--------|--------|--------|--------|--------|--------|
D#|--------|--------|--------|--------|--------|--------|--------|--------|--------|


D#|--------|--------|--------|--------|--------|--------|--------|--------|--------|
A#|--------|--------|--------|--------|--------|--------|--------|--------|--------|
F#|--------|--------|--------|--------|--------|--------|--------|--------|--------|
C#|--------|--------|--------|--------|--------|--------|--------|--------|--------|
G#|--------|--------|--------|--------|--------|--------|--------|--------|--------|
D#|--------|--------|--------|--------|--------|--------|--------|--------|--------|


D#|-12-8--------------8-12-8--12-8--------------8-12-8--|-13-8--12-8--10--8---7---8---12--12--|
A#|-------10--------10--------------10--------10--------|-------------------------------------|
F#|----------9----9--------------------9----9-----------|-------------------------------------|
C#|-------------10------------------------10------------|-------------------------------------|
G#|-----------------------------------------------------|-------------------------------------|
D#|-----------------------------------------------------|-------------------------------------|


D#|-7---19-0--0---10--12--13---12-13-|-17--17--13--13-15-13-12-----------|--------------------|
A#|----------------------------------|--------------------------13--17---|-17----17--18--17---|
F#|----------------------------------|-----------------------------------|--------------------|
C#|----------------------------------|-----------------------------------|--------------------|
G#|----------------------------------|-----------------------------------|--------------------|
D#|----------------------------------|-----------------------------------|--------------------|


D#|----------------------------|-------------------------12--12-13-16-13-12----|-----------------------------------------|
A#|-17---13---13-13-12---------|-------12----13-12-15-13--------------------15-|-13-12----12-13-12-13-15-13-12-----------|
F#|--------------------14-13---|-14-13----14-----------------------------------|-------14-----------------------14--13---|
C#|----------------------------|-----------------------------------------------|-----------------------------------------|
G#|----------------------------|-----------------------------------------------|-----------------------------------------|
D#|----------------------------|-----------------------------------------------|-----------------------------------------|


D#|--------|--------|--------|--------|--------|--------|--------|--------|--------|
A#|--------|--------|--------|--------|--------|--------|--------|--------|--------|
F#|--------|--------|--------|--------|--------|--------|--------|--------|--------|
C#|--------|--------|--------|--------|--------|--------|--------|--------|--------|
G#|--------|--------|--------|--------|--------|--------|--------|--------|--------|
D#|--------|--------|--------|--------|--------|--------|--------|--------|--------|


D#|--------|--------|--------|--------|--------|--------|--------|--------|--------|
A#|--------|--------|--------|--------|--------|--------|--------|--------|--------|
F#|--------|--------|--------|--------|--------|--------|--------|--------|--------|
C#|--------|--------|--------|--------|--------|--------|--------|--------|--------|
G#|--------|--------|--------|--------|--------|--------|--------|--------|--------|
D#|--------|--------|--------|--------|--------|--------|--------|--------|--------|


D#|--------|--------|--------|--------|--------|--------|--------|--------|--------|
A#|--------|--------|--------|--------|--------|--------|--------|--------|--------|
F#|--------|--------|--------|--------|--------|--------|--------|--------|--------|
C#|--------|--------|--------|--------|--------|--------|--------|--------|--------|
G#|--------|--------|--------|--------|--------|--------|--------|--------|--------|
D#|--------|--------|--------|--------|--------|--------|--------|--------|--------|


D#|--------|--------|--------|--------|--------|--------|--------|--------|--------|
A#|--------|--------|--------|--------|--------|--------|--------|--------|--------|
F#|--------|--------|--------|--------|--------|--------|--------|--------|--------|
C#|--------|--------|--------|--------|--------|--------|--------|--------|--------|
G#|--------|--------|--------|--------|--------|--------|--------|--------|--------|
D#|--------|--------|--------|--------|--------|--------|--------|--------|--------|


D#|--------|--------|--------|--------|--------|--------|--------|--------|--------|
A#|--------|--------|--------|--------|--------|--------|--------|--------|--------|
F#|--------|--------|--------|--------|--------|--------|--------|--------|--------|
C#|--------|--------|--------|--------|--------|--------|--------|--------|--------|
G#|--------|--------|--------|--------|--------|--------|--------|--------|--------|
D#|--------|--------|--------|--------|--------|--------|--------|--------|--------|


D#|--------|--------|--------|--------|
A#|--------|--------|--------|--------|
F#|--------|--------|--------|--------|
C#|--------|--------|--------|--------|
G#|--------|--------|--------|--------|
D#|--------|--------|--------|--------|





Track 7: Bass

F#|-----------------------------------|---------------------------------|-----------------------------------|
C#|-----------------------------------|---------------------------------|-----------------------------------|
G#|-----------------------------------|---------------------------------|-----------------------------------|
D#|-0---0---0---0--0--0---0---0---0---|-0---0---0---0---0---0---0---0---|-0---0---0---0--0--0---0---0---0---|


F#|---------------------------------|-----------------------------------|---------------------------------|
C#|---------------------------------|-----------------------------------|---------------------------------|
G#|---------------------------------|-----------------------------------|---------------------------------|
D#|-0---0---0---0---0---0---0---0---|-0---0---0---0--0--0---0---0---0---|-0---0---0---0---0---0---0---0---|


F#|--------------------------------|------------------------|-----------------------------------|
C#|--------------------------------|------------------------|-----------------------------------|
G#|-3----3---3--3--3---5---0---2---|-2----2---0-------------|-----------------------------------|
D#|--------------------------------|--------------3---2-----|-0---0---0---0--0--0---0---0---0---|


F#|---------------------------------|-----------------------------------|---------------------------------|
C#|---------------------------------|-----------------------------------|---------------------------------|
G#|---------------------------------|-----------------------------------|---------------------------------|
D#|-0---0---0---0---0---0---0---0---|-0---0---0---0--0--0---0---0---0---|-0---0---0---0---0---0---0---0---|


F#|-----------------------------------|---------------------------------|--------------------------------|
C#|-----------------------------------|---------------------------------|--------------------------------|
G#|-----------------------------------|---------------------------------|-3----3---3--3--3---5---0---2---|
D#|-0---0---0---0--0--0---0---0---0---|-0---0---0---0---0---0---0---0---|--------------------------------|


F#|------------------------|-----------------------------------|-----------------------------------|
C#|------------------------|-----------------------------------|-----------------------------------|
G#|-2----2---0-------------|-------------------------------5---|-5---------------------------------|
D#|--------------3---2-----|-0---0---0---0--0--0---0---0-------|-----0---0---0--0--0---0---0---0---|


F#|-----------------------------------|---------------------------|-----------------------------------|
C#|-----------------------------------|---------------------------|-----------------------------------|
G#|-----------------------------------|---------------------------|-------------------------------5---|
D#|-0---0---0---0--0--0---0---0---3---|-3---0---3---1-----1---0---|-0---0---0---0--0--0---0---0-------|


F#|-----------------------------------|-----------------------------------|---------------------------|
C#|-----------------------------------|-----------------------------------|---------------------------|
G#|-5---------------------------------|-----------------------------------|---------------------------|
D#|-----0---0---0--0--0---0---0---0---|-0---0---0---0--0--0---0---0---3---|-3---0---3---1-----1---0---|


F#|-----------------------------------|-----------------------------------|-----------------------------------|
C#|-----------------------------------|-----------------------------------|-----------------------------------|
G#|-------------------------------5---|-5---------------------------------|-----------------------------------|
D#|-0---0---0---0--0--0---0---0-------|-----0---0---0--0--0---0---0---0---|-0---0---0---0--0--0---0---0---3---|


F#|---------------------------|-----------------------------------|-----------------------------------|
C#|---------------------------|-----------------------------------|-----------------------------------|
G#|---------------------------|-------------------------------5---|-5---------------------------------|
D#|-3---0---3---1-----1---0---|-0---0---0---0--0--0---0---0-------|-----0---0---0--0--0---0---0---0---|


F#|-----------------------------------|---------------------------|-----------------------------------|
C#|-----------------------------------|---------------------------|-----------------------------------|
G#|-----------------------------------|---------------------------|-----------------------------------|
D#|-0---0---0---0--0--0---0---0---3---|-3---0---3---1-----1---0---|-0---0---0---0--0--0---0---0---0---|


F#|---------------------------------|-----------------------------------|---------------------------------|
C#|---------------------------------|-----------------------------------|---------------------------------|
G#|---------------------------------|-----------------------------------|---------------------------------|
D#|-0---0---0---0---0---0---0---0---|-0---0---0---0--0--0---0---0---0---|-0---0---0---0---0---0---0---0---|


F#|-----------------------------------|---------------------------------|--------------------------------|
C#|-----------------------------------|---------------------------------|--------------------------------|
G#|-----------------------------------|---------------------------------|-3----3---3--3--3---5---0---2---|
D#|-0---0---0---0--0--0---0---0---0---|-0---0---0---0---0---0---0---0---|--------------------------------|


F#|------------------------|-----------------------------------|-----------------------------------|
C#|------------------------|-----------------------------------|-----------------------------------|
G#|-2----2---0-------------|-------------------------------5---|-5---------------------------------|
D#|--------------3---2-----|-0---0---0---0--0--0---0---0-------|-----0---0---0--0--0---0---0---0---|


F#|-----------------------------------|---------------------------|-----------------------------------|
C#|-----------------------------------|---------------------------|-----------------------------------|
G#|-----------------------------------|---------------------------|-------------------------------5---|
D#|-0---0---0---0--0--0---0---0---3---|-3---0---3---1-----1---0---|-0---0---0---0--0--0---0---0-------|


F#|-----------------------------------|-----------------------------------|---------------------------|
C#|-----------------------------------|-----------------------------------|---------------------------|
G#|-5---------------------------------|-----------------------------------|---------------------------|
D#|-----0---0---0--0--0---0---0---0---|-0---0---0---0--0--0---0---0---3---|-3---0---3---1-----1---0---|


F#|-----------------------------------|-----------------------------------|-----------------------------------|
C#|-----------------------------------|-----------------------------------|-----------------------------------|
G#|-------------------------------5---|-5---------------------------------|-----------------------------------|
D#|-0---0---0---0--0--0---0---0-------|-----0---0---0--0--0---0---0---0---|-0---0---0---0--0--0---0---0---3---|


F#|---------------------------|-----------------------------------|-----------------------------------|
C#|---------------------------|-----------------------------------|-----------------------------------|
G#|---------------------------|-------------------------------5---|-5---------------------------------|
D#|-3---0---3---1-----1---0---|-0---0---0---0--0--0---0---0-------|-----0---0---0--0--0---0---0---0---|


F#|-----------------------------------|---------------------------|-----------------------------------|
C#|-----------------------------------|---------------------------|-----------------------------------|
G#|-----------------------------------|---------------------------|-----------------------------------|
D#|-0---0---0---0--0--0---0---0---3---|-3---0---3---1-----1---0---|-0---0---0---0--0--0---0---0---0---|


F#|---------------------------------|-----------------------------------|---------------------------------|
C#|---------------------------------|-----------------------------------|---------------------------------|
G#|---------------------------------|-----------------------------------|---------------------------------|
D#|-0---0---0---0---0---0---0---0---|-0---0---0---0--0--0---0---0---0---|-0---0---0---0---0---0---0---0---|


F#|-----------------------------------|---------------------------------|--------------------------------|
C#|-----------------------------------|---------------------------------|--------------------------------|
G#|-----------------------------------|---------------------------------|-3----3---3--3--3---5---0---2---|
D#|-0---0---0---0--0--0---0---0---0---|-0---0---0---0---0---0---0---0---|--------------------------------|


F#|------------------------|-----------------------------------|---------------------------------|
C#|------------------------|-----------------------------------|---------------------------------|
G#|-2----2---0-------------|-----------------------------------|---------------------------------|
D#|--------------3---2-----|-0---0---0---0--0--0---0---0---0---|-0---0---0---0---0---0---0---0---|


F#|-----------------------------------|---------------------------------|-----------------------------------|
C#|-----------------------------------|---------------------------------|-----------------------------------|
G#|-----------------------------------|---------------------------------|-----------------------------------|
D#|-0---0---0---0--0--0---0---0---0---|-0---0---0---0---0---0---0---0---|-0---0---0---0--0--0---0---0---0---|


F#|---------------------------------|--------------------------------|------------------------|
C#|---------------------------------|--------------------------------|------------------------|
G#|---------------------------------|-3----3---3--3--3---5---0---2---|-2----2---0-------------|
D#|-0---0---0---0---0---0---0---0---|--------------------------------|--------------3---2-----|


F#|------------------------------|---------------------------------|------------------------------|
C#|------------------------------|---------------------------------|------------------------------|
G#|------------------------------|---------------------------------|------------------------------|
D#|-0----0---0---0---0---0---0---|-0---0---0---0---0---3---3---3---|-0----0---0---0---0---0---6---|


F#|---------------------------|------------------------------|---------------------------------|
C#|---------------------------|------------------------------|---------------------------------|
G#|---------------------------|------------------------------|---------------------------------|
D#|-0---6---0---6---5----5----|-0----0---0---0---0---0---0---|-0---0---0---0---0---3---3---3---|


F#|------------------------------|---------------------------|--------------------------------|
C#|------------------------------|---------------------------|--------------------------------|
G#|------------------------------|---------------------------|-3----3---3--3--3---5---0---2---|
D#|-0----0---0---0---0---0---6---|-0---6---0---6---5----5----|--------------------------------|


F#|------------------------------|--------------------------------|------------------------|
C#|------------------------------|--------------------------------|------------------------|
G#|-2----2---2---2---2---2---2---|-3----3---3--3--3---5---0---2---|-2----2---0-------------|
D#|------------------------------|--------------------------------|--------------3---2-----|


F#|-----------------------------------|-----------------------------------|-----------------------------------|
C#|-----------------------------------|-----------------------------------|-----------------------------------|
G#|-------------------------------5---|-5---------------------------------|-----------------------------------|
D#|-0---0---0---0--0--0---0---0-------|-----0---0---0--0--0---0---0---0---|-0---0---0---0--0--0---0---0---3---|


F#|---------------------------|-----------------------------------|-----------------------------------|
C#|---------------------------|-----------------------------------|-----------------------------------|
G#|---------------------------|-------------------------------5---|-5---------------------------------|
D#|-3---0---3---1-----1---0---|-0---0---0---0--0--0---0---0-------|-----0---0---0--0--0---0---0---0---|


F#|-----------------------------------|---------------------------|-----------------------------------|
C#|-----------------------------------|---------------------------|-----------------------------------|
G#|-----------------------------------|---------------------------|-------------------------------5---|
D#|-0---0---0---0--0--0---0---0---3---|-3---0---3---1-----1---0---|-0---0---0---0--0--0---0---0-------|


F#|-----------------------------------|-----------------------------------|---------------------------|
C#|-----------------------------------|-----------------------------------|---------------------------|
G#|-5---------------------------------|-----------------------------------|---------------------------|
D#|-----0---0---0--0--0---0---0---0---|-0---0---0---0--0--0---0---0---3---|-3---0---3---1-----1---0---|


F#|-----------------------------------|-----------------------------------|-----------------------------------|
C#|-----------------------------------|-----------------------------------|-----------------------------------|
G#|-------------------------------5---|-5---------------------------------|-----------------------------------|
D#|-0---0---0---0--0--0---0---0-------|-----0---0---0--0--0---0---0---0---|-0---0---0---0--0--0---0---0---3---|


F#|---------------------------|-----------------------------------|---------------------------------|
C#|---------------------------|-----------------------------------|---------------------------------|
G#|---------------------------|-----------------------------------|---------------------------------|
D#|-3---0---3---1-----1---0---|-0---0---0---0--0--0---0---0---0---|-0---0---0---0---0---0---0---0---|


F#|-----------------------------------|---------------------------------|-----------------------------------|
C#|-----------------------------------|---------------------------------|-----------------------------------|
G#|-----------------------------------|---------------------------------|-----------------------------------|
D#|-0---0---0---0--0--0---0---0---0---|-0---0---0---0---0---0---0---0---|-0---0---0---0--0--0---0---0---0---|


F#|---------------------------------|--------------------------------|------------------------|
C#|---------------------------------|--------------------------------|------------------------|
G#|---------------------------------|-3----3---3--3--3---5---0---2---|-2----2---0-------------|
D#|-0---0---0---0---0---0---0---0---|--------------------------------|--------------3---2-----|


F#|-----------------------------------|---------------------------------|-----------------------------------|
C#|-----------------------------------|---------------------------------|-----------------------------------|
G#|-----------------------------------|---------------------------------|-----------------------------------|
D#|-0---0---0---0--0--0---0---0---0---|-0---0---0---0---0---0---0---0---|-0---0---0---0--0--0---0---0---0---|


F#|---------------------------------|-----------------------------------|---------------------------------|
C#|---------------------------------|-----------------------------------|---------------------------------|
G#|---------------------------------|-----------------------------------|---------------------------------|
D#|-0---0---0---0---0---0---0---0---|-0---0---0---0--0--0---0---0---0---|-0---0---0---0---0---0---0---0---|


F#|--------------------------------|------------------------|------------------------------|
C#|--------------------------------|------------------------|------------------------------|
G#|-3----3---3--3--3---5---0---2---|-2----2---0-------------|------------------------------|
D#|--------------------------------|--------------3---2-----|-0----0---0---0---0---0---0---|


F#|---------------------------------|---------------------------------|---------------------------------|
C#|---------------------------------|---------------------------------|---------------------------------|
G#|---------------------------------|---------------------------------|---------------------------------|
D#|-0---0---0---0---0---0---0---0---|-0---0---0---0---0---0---0---0---|-0---0---0---0---0---0---0---0---|


F#|---------------------------------|---------------------------------|---------------------------------|
C#|---------------------------------|---------------------------------|---------------------------------|
G#|---------------------------------|---------------------------------|---------------------------------|
D#|-0---0---0---0---0---0---0---0---|-0---0---0---0---0---0---0---0---|-0---0---0---0---0---0---0---0---|


F#|---------------------------------|--------------------------------|------------------------------|
C#|---------------------------------|--------------------------------|------------------------------|
G#|---------------------------------|-3----3---3--3--3---5---0---2---|-2----2---2---2---2---2---2---|
D#|-0---0---0---0---0---0---0---0---|--------------------------------|------------------------------|


F#|--------------------------------|---------------------|-------------|
C#|--------------------------------|---------------------|-------------|
G#|-3----3---3--3--3---5---0---2---|-2-----0-------------|-------------|
D#|--------------------------------|-----------3---2-----|-0-----------|