Site menu:

    

Browse: 0-9 A B C D E F G H I J K L N O P Q R S T U V W X Y Z

iced earth - black sabbath:



Title: Black Sabbath
Artist: 
Album: Tribute To The Gods
Author: Black Sabbath


Track 1: Distortion Guitar

D#|-------------|--------|-------------|--------|-------------|--------|-------------|
A#|-------------|--------|-------------|--------|-------------|--------|-------------|
F#|-------7-----|--------|-------7-----|--------|-------7-----|--------|-------7-----|
C#|-------5-----|-6------|-------5-----|-6------|-------5-----|-6------|-------5-----|
G#|-5-----------|-4------|-5-----------|-4------|-5-----------|-4------|-5-----------|
D#|-3-----------|--------|-3-----------|--------|-3-----------|--------|-3-----------|


D#|--------|-------------|--------|-------------|--------|-------------|--------|-------------|
A#|--------|-------------|--------|-------------|--------|-------------|--------|-------------|
F#|--------|-------------|--------|-------------|--------|-------------|--------|-------------|
C#|-6------|-------5-----|--------|-------5-----|--------|-------5-----|--------|-------5-----|
G#|-4------|-------------|-4------|-------------|-4------|-------------|-4------|-------------|
D#|--------|-3-----------|--------|-3-----------|--------|-3-----------|--------|-3-----------|


D#|--------|-------------|--------|-------------|--------|-------------|--------|-------------|
A#|--------|-------------|--------|-------------|--------|-------------|--------|-------------|
F#|--------|-------------|--------|-------------|--------|-------------|--------|-------------|
C#|--------|-------5-----|--------|-------5-----|--------|-------5-----|--------|-------5-----|
G#|-4------|-------------|-4------|-------------|-4------|-------------|-4------|-------------|
D#|--------|-3-----------|--------|-3-----------|--------|-3-----------|--------|-3-----------|


D#|--------|-------------|--------|-------------|--------|-------------|-------------|
A#|--------|-------------|--------|-------------|--------|-------------|-------------|
F#|--------|-------------|--------|-------------|--------|-------7-----|-------------|
C#|--------|-------5-----|--------|-------5-----|--------|-------5-----|-6-----------|
G#|-4------|-------------|-4------|-------------|-4------|-5-----------|-4-----4-----|
D#|--------|-3-----------|--------|-3-----------|--------|-3-----------|-------------|


D#|-------------|--------|-------------|-----------------|-------------|--------|-------------|
A#|-------------|--------|-------------|-----------------|-------------|--------|-------------|
F#|-------7-----|--------|-------7-----|-----------------|-------7-----|--------|-------------|
C#|-------5-----|-6------|-------5-----|-6---------------|-------5-----|-6------|-------5-----|
G#|-5-----------|-4------|-5-----------|-4-----4---------|-5-----------|-4------|-------------|
D#|-3-----------|--------|-3-----------|-------------12--|-3-----------|--------|-3-----------|


D#|--------|-------------|--------|-------------|--------|-------------|--------|-------------|
A#|--------|-------------|--------|-------------|--------|-------------|--------|-------------|
F#|--------|-------------|--------|-------------|--------|-------------|--------|-------------|
C#|--------|-------5-----|--------|-------5-----|--------|-------5-----|--------|-------5-----|
G#|-4------|-------------|-4------|-------------|-4------|-------------|-4------|-------------|
D#|--------|-3-----------|--------|-3-----------|--------|-3-----------|--------|-3-----------|


D#|--------|-------------|--------|-------------|--------|-------------|--------|-------------|
A#|--------|-------------|--------|-------------|--------|-------------|--------|-------------|
F#|--------|-------------|--------|-------------|--------|-------------|--------|-------------|
C#|--------|-------5-----|--------|-------5-----|--------|-------5-----|--------|-------5-----|
G#|-4------|-------------|-4------|-------------|-4------|-------------|-4------|-------------|
D#|--------|-3-----------|--------|-3-----------|--------|-3-----------|--------|-3-----------|


D#|--------|-------------|--------|-------------|-------------|-------------|--------|
A#|--------|-------------|--------|-------------|-------------|-------------|--------|
F#|--------|-------------|--------|-------7-----|-------------|-------7-----|--------|
C#|--------|-------5-----|--------|-------5-----|-6-----------|-------5-----|-6------|
G#|-4------|-------------|-4------|-5-----------|-4-----4-----|-5-----------|-4------|
D#|--------|-3-----------|--------|-3-----------|-------------|-3-----------|--------|


D#|-------------|-----------------|-------------|--------|--------|---------------------------------|
A#|-------------|-----------------|-------------|--------|--------|---------------------------------|
F#|-------7-----|-----------------|-------7-----|--------|--------|---------------------------------|
C#|-------5-----|-6---------------|-------5-----|-6------|--------|---------------------------------|
G#|-5-----------|-4-----4---------|-5-----------|-4------|-5------|-----------------3---5---6---5---|
D#|-3-----------|-------------12--|-3-----------|--------|-3------|-3---3---3---6-------------------|


D#|---------------------------------|---------------------------------|---------------------------------|
A#|---------------------------------|---------------------------------|---------------------------------|
F#|---------------------------------|---------------------------------|---------------------------------|
C#|---------------------------------|---------------------------------|---------------------------------|
G#|-3-------3---5-------------------|-3---5---6---5---3-------3---5---|-----------------3---5---6---5---|
D#|-----6-----------3---3---3---6---|---------------------6-----------|-3---3---3---6-------------------|


D#|---------------------------------|---------------------------------|---------------------------------|
A#|---------------------------------|---------------------------------|---------------------------------|
F#|---------------------------------|---------------------------------|---------------------------------|
C#|---------------------------------|---------------------------------|---------------------------------|
G#|-3-------3---5-------------------|-3---5---6---5---3-------3---5---|-----------------3---5---6---5---|
D#|-----6-----------3---3---3---6---|---------------------6-----------|-3---3---3---6-------------------|


D#|---------------------------------|---------------------------------|---------------------------------|
A#|---------------------------------|---------------------------------|---------------------------------|
F#|---------------------------------|---------------------------------|---------------------------------|
C#|---------------------------------|---------------------------------|---------------------------------|
G#|-3-------3---5-------------------|-3---5---6---5---3-------3---5---|-----------------3---5---6---5---|
D#|-----6-----------3---3---3---6---|---------------------6-----------|-3---3---3---6-------------------|


D#|---------------------------------|---------------------------------|---------------------------------|
A#|---------------------------------|---------------------------------|---------------------------------|
F#|---------------------------------|---------------------------------|---------------------------------|
C#|---------------------------------|---------------------------------|---------------------------------|
G#|-3-------3---5-------------------|-3---5---6---5---3-------3---5---|-----------------3---5---6---5---|
D#|-----6-----------3---3---3---6---|---------------------6-----------|-3---3---3---6-------------------|


D#|---------------------------------|---------------------------------|---------------------------------|
A#|---------------------------------|---------------------------------|---------------------------------|
F#|---------------------------------|---------------------------------|---------------------------------|
C#|---------------------------------|---------------------------------|---------------------------------|
G#|-3-------3---5-------------------|-3---5---6---5---3-------3---5---|-----------------3---5---6---5---|
D#|-----6-----------3---3---3---6---|---------------------6-----------|-3---3---3---6-------------------|


D#|---------------------------------|---------------------------------|---------------------------------|
A#|---------------------------------|---------------------------------|---------------------------------|
F#|---------------------------------|---------------------------------|---------------------------------|
C#|---------------------------------|---------------------------------|---------------------------------|
G#|-3-------3---5-------------------|-3---5---6---5---3-------3---5---|-----------------3---5---6---5---|
D#|-----6-----------3---3---3---6---|---------------------6-----------|-3---3---3---6-------------------|


D#|---------------------------------|---------------------------------|---------------------------------|
A#|---------------------------------|---------------------------------|---------------------------------|
F#|---------------------------------|---------------------------------|---------------------------------|
C#|---------------------------------|---------------------------------|---------------------------------|
G#|-3-------3---5-------------------|-3---5---6---5---3-------3---5---|-----------------3---5---6---5---|
D#|-----6-----------3---3---3---6---|---------------------6-----------|-3---3---3---6-------------------|


D#|---------------------------------|---------------------------------|---------------------------------|
A#|---------------------------------|---------------------------------|---------------------------------|
F#|---------------------------------|---------------------------------|---------------------------------|
C#|---------------------------------|---------------------------------|---------------------------------|
G#|-3-------3---5-------------------|-3---5---6---5---3-------3---5---|-----------------3---5---6---5---|
D#|-----6-----------3---3---3---6---|---------------------6-----------|-3---3---3---6-------------------|


D#|---------------------------------|---------------------------------|---------------------------------|
A#|---------------------------------|---------------------------------|---------------------------------|
F#|---------------------------------|---------------------------------|---------------------------------|
C#|---------------------------------|---------------------------------|---------------------------------|
G#|-3-------3---5-------------------|-3---5---6---5---3-------3---5---|-----------------3---5---6---5---|
D#|-----6-----------3---3---3---6---|---------------------6-----------|-3---3---3---6-------------------|


D#|---------------------------------|---------------------------------|--------|-------------|
A#|---------------------------------|---------------------------------|--------|-------------|
F#|---------------------------------|---------------------------------|--------|-------2-----|
C#|---------------------------------|---------------------------------|-5------|-------3-----|
G#|-3-------3---5-------------------|-3---5---6---5---3-------3---5---|-5------|-------3-----|
D#|-----6-----------3---3---3---6---|---------------------6-----------|-3------|-------1-----|


D#|--------|--------|-------------|--------|--------|-------------|--------|--------|
A#|--------|--------|-------------|--------|--------|-------------|--------|--------|
F#|--------|--------|-------------|--------|--------|-------2-----|--------|--------|
C#|--------|-9------|-------8-----|--------|-5------|-------3-----|--------|-9------|
G#|--------|-7------|-------6-----|--------|-5------|-------3-----|--------|-7------|
D#|--------|-7------|-------6-----|--------|-3------|-------1-----|--------|-7------|


D#|-------------|--------|-----------------------------|---------------------------|
A#|-------------|--------|-----------------------------|---------------------------|
F#|-------------|--------|-----------------------------|---------------------------|
C#|-------8-----|--------|-12--------------------------|-----------------10--------|
G#|-------6-----|--------|-10----10--10-10-10--10--10--|-10--10--10--0---8-----8---|
D#|-------6-----|--------|-----------------------------|---------------------------|


D#|-----------------------------------|-----------------------------|---------------------------|
A#|-----------------------------------|-----------------------------|---------------------------|
F#|-----------------------------------|-----------------------------|---------------------------|
C#|-----------------------------------|-9---------------------------|-----------------8---------|
G#|-8--8--8---8---8---8---8---8---0---|-7-----7---7--7--7---7---7---|-7---7---7---0---6-----6---|
D#|-----------------------------------|-----------------------------|---------------------------|


D#|-----------------------------------|-----------------------------|---------------------------|
A#|-----------------------------------|-----------------------------|---------------------------|
F#|-----------------------------------|-----------------------------|---------------------------|
C#|-----------------------------------|-12--------------------------|-----------------10--------|
G#|-6--6--6---6---6---6---6---6---0---|-10----10--10-10-10--10--10--|-10--10--10--0---8-----8---|
D#|-----------------------------------|-----------------------------|---------------------------|


D#|-----------------------------------|-----------------------------|---------------------------|
A#|-----------------------------------|-----------------------------|---------------------------|
F#|-----------------------------------|-----------------------------|---------------------------|
C#|-----------------------------------|-9---------------------------|-----------------8---------|
G#|-8--8--8---8---8---8---8---8---0---|-7-----7---7--7--7---7---7---|-7---7---7---0---6-----6---|
D#|-----------------------------------|-----------------------------|---------------------------|


D#|-------------------------------------|-----------------------------|---------------------------|
A#|-------------------------------------|-----------------------------|---------------------------|
F#|-------------------------------------|-----------------------------|---------------------------|
C#|-------------------------------------|-9---------------------------|-----------------7---------|
G#|-6--6--6---6---6---6---6---6--6--0---|-10----10--10-10-10--10--10--|-10--10--10--0---8-----8---|
D#|-------------------------------------|-----------------------------|---------------------------|


D#|-----------------------------------|-----------------------------|---------------------------|
A#|-----------------------------------|-----------------------------|---------------------------|
F#|-----------------------------------|-----------------------------|---------------------------|
C#|-----------------------------------|-5---------------------------|-----------------5---------|
G#|-8--8--8---8---8---8---8---8---0---|-7-----7---7--7--7---7---7---|-7---7---7---7---6-----6---|
D#|-----------------------------------|-----------------------------|---------------------------|


D#|-----------------------------------|-----------------------------|---------------------------|
A#|-----------------------------------|-----------------------------|---------------------------|
F#|-----------------------------------|-----------------------------|---------------------------|
C#|-----------------------------------|-9---------------------------|-----------------7---------|
G#|-6--6--6---6---6---6---6---6---0---|-10----10--10-10-10--10--10--|-10--10--10--0---8-----8---|
D#|-----------------------------------|-----------------------------|---------------------------|


D#|-----------------------------------|-----------------------------|---------------------------|
A#|-----------------------------------|-----------------------------|---------------------------|
F#|-----------------------------------|-----------------------------|---------------------------|
C#|-----------------------------------|-5---------------------------|-----------------5---------|
G#|-8--8--8---8---8---8---8---8---0---|-7-----7---7--7--7---7---7---|-7---7---7---7---6-----6---|
D#|-----------------------------------|-----------------------------|---------------------------|


D#|-------------------------------------|--------|-------------|--------|--------|
A#|-------------------------------------|--------|-------------|--------|--------|
F#|-------------------------------------|--------|-------2-----|--------|--------|
C#|-------------------------------------|-5------|-------3-----|--------|-5------|
G#|-6--6--6---6---6---6---6---6--6--0---|-5------|-------3-----|--------|-5------|
D#|-------------------------------------|-3------|-------1-----|--------|-3------|


D#|-------------|--------|--------|-------------|--------|------------------------------|
A#|-------------|--------|--------|-------------|--------|------------------------------|
F#|-------2-----|--------|--------|-------2-----|--------|------------------------------|
C#|-------3-----|--------|-5------|-------3-----|--------|-5--------5---5---5---5-------|
G#|-------3-----|--------|-5------|-------3-----|--------|-5--------5---5---5---5-------|
D#|-------1-----|--------|-3------|-------1-----|--------|-3--------3---3---3---3-------|


D#|------------------------------|------------------------------|---------------------|
A#|------------------------------|------------------------------|---------------------|
F#|-----------------2--------2---|-2---2---2--------2---2---2---|---------------------|
C#|-----5---5---5---3--------3---|-3---3---3--------3---3---3---|-5-------------------|
G#|-----5---5---5---3--------3---|-3---3---3--------3---3---3---|-5-------------------|
D#|-----3---3---3---1--------1---|-1---1---1--------1---1---1---|-3-------------------|


D#|-----------------------|-------------|
A#|-----------------------|-------------|
F#|-----------------------|-------------|
C#|-------5---3---3---5---|-------------|
G#|-------5---3---3---5---|-------------|
D#|-------3---1---1---3---|-------------|





Track 2: Clean Guitar

D#|--------|--------|--------|--------|--------|--------|--------|--------|--------|
A#|--------|--------|--------|--------|--------|--------|--------|--------|--------|
F#|--------|--------|--------|--------|--------|--------|--------|--------|--------|
C#|--------|--------|--------|--------|--------|--------|--------|--------|--------|
G#|--------|--------|--------|--------|--------|--------|--------|--------|--------|
D#|--------|--------|--------|--------|--------|--------|--------|--------|--------|


D#|--------|--------|--------|--------|--------|--------|--------|--------|--------|
A#|--------|--------|--------|--------|--------|--------|--------|--------|--------|
F#|--------|--------|--------|--------|--------|--------|--------|--------|--------|
C#|--------|--------|--------|--------|--------|--------|--------|--------|--------|
G#|--------|--------|--------|--------|--------|--------|--------|--------|--------|
D#|--------|--------|--------|--------|--------|--------|--------|--------|--------|


D#|--------|--------|--------|--------|--------|--------|--------|--------|--------|
A#|--------|--------|--------|--------|--------|--------|--------|--------|--------|
F#|--------|--------|--------|--------|--------|--------|--------|--------|--------|
C#|--------|--------|--------|--------|--------|--------|--------|--------|--------|
G#|--------|--------|--------|--------|--------|--------|--------|--------|--------|
D#|--------|--------|--------|--------|--------|--------|--------|--------|--------|


D#|--------|--------|--------|--------|--------|--------|--------|--------|--------|
A#|--------|--------|--------|--------|--------|--------|--------|--------|--------|
F#|--------|--------|--------|--------|--------|--------|--------|--------|--------|
C#|--------|--------|--------|--------|--------|--------|--------|--------|--------|
G#|--------|--------|--------|--------|--------|--------|--------|--------|--------|
D#|--------|--------|--------|--------|--------|--------|--------|--------|--------|


D#|--------|--------|--------|--------|--------|--------|-----------------------|-----------------|
A#|--------|--------|--------|--------|--------|--------|-------------------3---|-3---------------|
F#|--------|--------|--------|--------|--------|--------|-----------2---3-------|-----3-----3-----|
C#|--------|--------|--------|--------|--------|--------|-----------------------|-----------------|
G#|--------|--------|--------|--------|--------|--------|-----------------------|-----------------|
D#|--------|--------|--------|--------|--------|--------|-----------------------|-----------------|


D#|--------|--------|-----------------------|-----------------|--------|--------|-----------------------|
A#|--------|--------|-------------------3---|-3---------------|--------|--------|-------------------3---|
F#|--------|--------|-----------2---3-------|-----3-----3-----|--------|--------|-----------2---3-------|
C#|--------|--------|-----------------------|-----------------|--------|--------|-----------------------|
G#|--------|--------|-----------------------|-----------------|--------|--------|-----------------------|
D#|--------|--------|-----------------------|-----------------|--------|--------|-----------------------|


D#|------3----3-----|--------|--------|---------------------|---------------------------------|
A#|-----------------|--------|--------|---------------------|---------------------------------|
F#|-3---------------|--------|--------|-----------2---------|-2-------2---3---2-------2---3---|
C#|-----------------|--------|--------|-----3----------3----|-----3---------------3-----------|
G#|-----------------|--------|--------|---------------------|---------------------------------|
D#|-----------------|--------|--------|---------------------|---------------------------------|


D#|--------|--------|--------|--------|--------|--------|--------|--------|--------|
A#|--------|--------|--------|--------|--------|--------|--------|--------|--------|
F#|--------|--------|--------|--------|--------|--------|--------|--------|--------|
C#|--------|--------|--------|--------|--------|--------|--------|--------|--------|
G#|--------|--------|--------|--------|--------|--------|--------|--------|--------|
D#|--------|--------|--------|--------|--------|--------|--------|--------|--------|


D#|--------|--------|--------|--------|--------|--------|--------|--------|--------|
A#|--------|--------|--------|--------|--------|--------|--------|--------|--------|
F#|--------|--------|--------|--------|--------|--------|--------|--------|--------|
C#|--------|--------|--------|--------|--------|--------|--------|--------|--------|
G#|--------|--------|--------|--------|--------|--------|--------|--------|--------|
D#|--------|--------|--------|--------|--------|--------|--------|--------|--------|


D#|--------|--------|--------|--------|--------|--------|--------|--------|--------|
A#|--------|--------|--------|--------|--------|--------|--------|--------|--------|
F#|--------|--------|--------|--------|--------|--------|--------|--------|--------|
C#|--------|--------|--------|--------|--------|--------|--------|--------|--------|
G#|--------|--------|--------|--------|--------|--------|--------|--------|--------|
D#|--------|--------|--------|--------|--------|--------|--------|--------|--------|


D#|--------|--------|--------|--------|--------|--------|--------|--------|--------|
A#|--------|--------|--------|--------|--------|--------|--------|--------|--------|
F#|--------|--------|--------|--------|--------|--------|--------|--------|--------|
C#|--------|--------|--------|--------|--------|--------|--------|--------|--------|
G#|--------|--------|--------|--------|--------|--------|--------|--------|--------|
D#|--------|--------|--------|--------|--------|--------|--------|--------|--------|


D#|--------|--------|--------|--------|--------|--------|--------|--------|--------|
A#|--------|--------|--------|--------|--------|--------|--------|--------|--------|
F#|--------|--------|--------|--------|--------|--------|--------|--------|--------|
C#|--------|--------|--------|--------|--------|--------|--------|--------|--------|
G#|--------|--------|--------|--------|--------|--------|--------|--------|--------|
D#|--------|--------|--------|--------|--------|--------|--------|--------|--------|


D#|--------|--------|--------|--------|--------|--------|--------|--------|--------|
A#|--------|--------|--------|--------|--------|--------|--------|--------|--------|
F#|--------|--------|--------|--------|--------|--------|--------|--------|--------|
C#|--------|--------|--------|--------|--------|--------|--------|--------|--------|
G#|--------|--------|--------|--------|--------|--------|--------|--------|--------|
D#|--------|--------|--------|--------|--------|--------|--------|--------|--------|


D#|--------|--------|--------|--------|--------|--------|--------|--------|--------|
A#|--------|--------|--------|--------|--------|--------|--------|--------|--------|
F#|--------|--------|--------|--------|--------|--------|--------|--------|--------|
C#|--------|--------|--------|--------|--------|--------|--------|--------|--------|
G#|--------|--------|--------|--------|--------|--------|--------|--------|--------|
D#|--------|--------|--------|--------|--------|--------|--------|--------|--------|


D#|--------|--------|--------|--------|--------|--------|--------|--------|--------|
A#|--------|--------|--------|--------|--------|--------|--------|--------|--------|
F#|--------|--------|--------|--------|--------|--------|--------|--------|--------|
C#|--------|--------|--------|--------|--------|--------|--------|--------|--------|
G#|--------|--------|--------|--------|--------|--------|--------|--------|--------|
D#|--------|--------|--------|--------|--------|--------|--------|--------|--------|


D#|--------|--------|--------|--------|--------|--------|--------|--------|--------|
A#|--------|--------|--------|--------|--------|--------|--------|--------|--------|
F#|--------|--------|--------|--------|--------|--------|--------|--------|--------|
C#|--------|--------|--------|--------|--------|--------|--------|--------|--------|
G#|--------|--------|--------|--------|--------|--------|--------|--------|--------|
D#|--------|--------|--------|--------|--------|--------|--------|--------|--------|


D#|--------|--------|--------|--------|--------|--------|--------|--------|--------|
A#|--------|--------|--------|--------|--------|--------|--------|--------|--------|
F#|--------|--------|--------|--------|--------|--------|--------|--------|--------|
C#|--------|--------|--------|--------|--------|--------|--------|--------|--------|
G#|--------|--------|--------|--------|--------|--------|--------|--------|--------|
D#|--------|--------|--------|--------|--------|--------|--------|--------|--------|





Track 3: Lead Guitar

D#|--------|--------|--------|--------|--------|--------|--------|--------|--------|
A#|--------|--------|--------|--------|--------|--------|--------|--------|--------|
F#|--------|--------|--------|--------|--------|--------|--------|--------|--------|
C#|--------|--------|--------|--------|--------|--------|--------|--------|--------|
G#|--------|--------|--------|--------|--------|--------|--------|--------|--------|
D#|--------|--------|--------|--------|--------|--------|--------|--------|--------|


D#|--------|--------|--------|--------|--------|--------|--------|--------|--------|
A#|--------|--------|--------|--------|--------|--------|--------|--------|--------|
F#|--------|--------|--------|--------|--------|--------|--------|--------|--------|
C#|--------|--------|--------|--------|--------|--------|--------|--------|--------|
G#|--------|--------|--------|--------|--------|--------|--------|--------|--------|
D#|--------|--------|--------|--------|--------|--------|--------|--------|--------|


D#|--------|--------|--------|--------|--------|--------|--------|--------|--------|
A#|--------|--------|--------|--------|--------|--------|--------|--------|--------|
F#|--------|--------|--------|--------|--------|--------|--------|--------|--------|
C#|--------|--------|--------|--------|--------|--------|--------|--------|--------|
G#|--------|--------|--------|--------|--------|--------|--------|--------|--------|
D#|--------|--------|--------|--------|--------|--------|--------|--------|--------|


D#|--------|--------|--------|--------|--------|--------|--------|--------|--------|
A#|--------|--------|--------|--------|--------|--------|--------|--------|--------|
F#|--------|--------|--------|--------|--------|--------|--------|--------|--------|
C#|--------|--------|--------|--------|--------|--------|--------|--------|--------|
G#|--------|--------|--------|--------|--------|--------|--------|--------|--------|
D#|--------|--------|--------|--------|--------|--------|--------|--------|--------|


D#|--------|--------|--------|--------|--------|--------|--------|--------|--------|
A#|--------|--------|--------|--------|--------|--------|--------|--------|--------|
F#|--------|--------|--------|--------|--------|--------|--------|--------|--------|
C#|--------|--------|--------|--------|--------|--------|--------|--------|--------|
G#|--------|--------|--------|--------|--------|--------|--------|--------|--------|
D#|--------|--------|--------|--------|--------|--------|--------|--------|--------|


D#|--------|--------|--------|--------|--------|--------|--------|--------|--------|
A#|--------|--------|--------|--------|--------|--------|--------|--------|--------|
F#|--------|--------|--------|--------|--------|--------|--------|--------|--------|
C#|--------|--------|--------|--------|--------|--------|--------|--------|--------|
G#|--------|--------|--------|--------|--------|--------|--------|--------|--------|
D#|--------|--------|--------|--------|--------|--------|--------|--------|--------|


D#|--------|--------|--------|--------|--------|--------|--------|--------|--------|
A#|--------|--------|--------|--------|--------|--------|--------|--------|--------|
F#|--------|--------|--------|--------|--------|--------|--------|--------|--------|
C#|--------|--------|--------|--------|--------|--------|--------|--------|--------|
G#|--------|--------|--------|--------|--------|--------|--------|--------|--------|
D#|--------|--------|--------|--------|--------|--------|--------|--------|--------|


D#|--------|--------|---------------------------------|---------------------------------|
A#|--------|--------|---------------------------------|---------------------------------|
F#|--------|--------|-----------------5---7---8---7---|-5-------5---7-------------------|
C#|--------|--------|-5---5---5---8-------------------|-----8-----------5---5---5---8---|
G#|--------|--------|---------------------------------|---------------------------------|
D#|--------|--------|---------------------------------|---------------------------------|


D#|---------------------------------|---------------------------------|---------------------------------|
A#|---------------------------------|---------------------------------|---------------------------------|
F#|-5---7---8---7---5-------5---7---|-----------------5---7---8---7---|-5-------5---7-------------------|
C#|---------------------8-----------|-5---5---5---8-------------------|-----8-----------5---5---5---8---|
G#|---------------------------------|---------------------------------|---------------------------------|
D#|---------------------------------|---------------------------------|---------------------------------|


D#|---------------------------------|---------------------------------|---------------------------------|
A#|---------------------------------|---------------------------------|---------------------------------|
F#|-5---7---8---7---5-------5---7---|-----------------5---7---8---7---|-5-------5---7-------------------|
C#|---------------------8-----------|-5---5---5---8-------------------|-----8-----------5---5---5---8---|
G#|---------------------------------|---------------------------------|---------------------------------|
D#|---------------------------------|---------------------------------|---------------------------------|


D#|---------------------------------|---------------------------------|---------------------------------|
A#|---------------------------------|---------------------------------|---------------------------------|
F#|-5---7---8---7---5-------5---7---|-----------------5---7---8---7---|-5-------5---7-------------------|
C#|---------------------8-----------|-5---5---5---8-------------------|-----8-----------5---5---5---8---|
G#|---------------------------------|---------------------------------|---------------------------------|
D#|---------------------------------|---------------------------------|---------------------------------|


D#|---------------------------------|---------------------------------|---------------------------------|
A#|---------------------------------|---------------------------------|---------------------------------|
F#|-5---7---8---7---5-------5---7---|-----------------5---7---8---7---|-5-------5---7-------------------|
C#|---------------------8-----------|-5---5---5---8-------------------|-----8-----------5---5---5---8---|
G#|---------------------------------|---------------------------------|---------------------------------|
D#|---------------------------------|---------------------------------|---------------------------------|


D#|---------------------------------|---------------------------------|---------------------------------|
A#|---------------------------------|---------------------------------|---------------------------------|
F#|-5---7---8---7---5-------5---7---|-----------------5---7---8---7---|-5-------5---7-------------------|
C#|---------------------8-----------|-5---5---5---8-------------------|-----8-----------5---5---5---8---|
G#|---------------------------------|---------------------------------|---------------------------------|
D#|---------------------------------|---------------------------------|---------------------------------|


D#|---------------------------------|---------------------------------|---------------------------------|
A#|---------------------------------|---------------------------------|---------------------------------|
F#|-5---7---8---7---5-------5---7---|-----------------5---7---8---7---|-5-------5---7-------------------|
C#|---------------------8-----------|-5---5---5---8-------------------|-----8-----------5---5---5---8---|
G#|---------------------------------|---------------------------------|---------------------------------|
D#|---------------------------------|---------------------------------|---------------------------------|


D#|---------------------------------|---------------------------------|---------------------------------|
A#|---------------------------------|---------------------------------|---------------------------------|
F#|-5---7---8---7---5-------5---7---|-----------------5---7---8---7---|-5-------5---7-------------------|
C#|---------------------8-----------|-5---5---5---8-------------------|-----8-----------5---5---5---8---|
G#|---------------------------------|---------------------------------|---------------------------------|
D#|---------------------------------|---------------------------------|---------------------------------|


D#|---------------------------------|---------------------------------|---------------------------------|
A#|---------------------------------|---------------------------------|---------------------------------|
F#|-5---7---8---7---5-------5---7---|-----------------5---7---8---7---|-5-------5---7-------------------|
C#|---------------------8-----------|-5---5---5---8-------------------|-----8-----------5---5---5---8---|
G#|---------------------------------|---------------------------------|---------------------------------|
D#|---------------------------------|---------------------------------|---------------------------------|


D#|---------------------------------|---------------------------------|---------------------------------|
A#|---------------------------------|---------------------------------|---------------------------------|
F#|-5---7---8---7---5-------5---7---|-----------------5---7---8---7---|-5-------5---7-------------------|
C#|---------------------8-----------|-5---5---5---8-------------------|-----8-----------5---5---5---8---|
G#|---------------------------------|---------------------------------|---------------------------------|
D#|---------------------------------|---------------------------------|---------------------------------|


D#|---------------------------------|--------|--------|--------|--------|--------|
A#|---------------------------------|--------|--------|--------|--------|--------|
F#|-5---7---8---7---5-------5---7---|--------|--------|--------|--------|--------|
C#|---------------------8-----------|--------|--------|--------|--------|--------|
G#|---------------------------------|--------|--------|--------|--------|--------|
D#|---------------------------------|--------|--------|--------|--------|--------|


D#|--------|--------|-------------|---------------------|-------------|---------------------|
A#|--------|--------|-------------|---------------------|-------------|---------------------|
F#|--------|--------|-------------|---------------------|-3------3----|-----5-----5-----5---|
C#|--------|-5------|-------3-----|------3----3---5-----|-------------|---------------------|
G#|--------|--------|-------------|---------------------|-------------|---------------------|
D#|--------|--------|-------------|---------------------|-------------|---------------------|


D#|---------------------------|------------------|------------------------|---------------------------|
A#|---------------------------|-3-----6-----8----|-----10----10---8---10--|-----10--10--10--8---8-----|
F#|-5---5---5-------5---5-----|------------------|------------------------|---------------------------|
C#|---------------------------|------------------|------------------------|---------------------------|
G#|---------------------------|------------------|------------------------|---------------------------|
D#|---------------------------|------------------|------------------------|---------------------------|


D#|-15----15----18--15--|-----15----18---17---|-15---17---18---17--18--|-18--15------17--15------20--15--|
A#|---------------------|---------------------|------------------------|---------15----------15----------|
F#|---------------------|---------------------|------------------------|---------------------------------|
C#|---------------------|---------------------|------------------------|---------------------------------|
G#|---------------------|---------------------|------------------------|---------------------------------|
D#|---------------------|---------------------|------------------------|---------------------------------|


D#|-----18--15------17--15------20--|-15------18--15------17--15------|---------------------------------|
A#|-15----------15----------15------|-----15----------15----------15--|---------15----------15----------|
F#|---------------------------------|---------------------------------|-17--17------17--17------17--17--|
C#|---------------------------------|---------------------------------|---------------------------------|
G#|---------------------------------|---------------------------------|---------------------------------|
D#|---------------------------------|---------------------------------|---------------------------------|


D#|------------------------------|------------------------|-------------|---------------------|
A#|-15----------15---------------|------------------------|-------------|---------------------|
F#|-----17--17------17--17---17--|-17--15--17--17---17----|-12-----12---|-----12----10----10--|
C#|------------------------------|------------------------|-------------|---------------------|
G#|------------------------------|------------------------|-------------|---------------------|
D#|------------------------------|------------------------|-------------|---------------------|


D#|---------------------------|-------------|---------------------|----------------|
A#|---------------------------|-------------|---------------------|----------------|
F#|-10--12--14----14--12--10--|-12-----12---|-----12----12----12--|-12--10--8------|
C#|---------------------------|-------------|---------------------|----------------|
G#|---------------------------|-------------|---------------------|----------------|
D#|---------------------------|-------------|---------------------|----------------|


D#|-------------|---------------------|---------------------------|-------------|---------------------|
A#|-------------|---------------------|---------------------------|-------------|---------------------|
F#|-12-----12---|-----12----10----10--|-10--12--14----14--12--10--|-12-----12---|-----12----12----12--|
C#|-------------|---------------------|---------------------------|-------------|---------------------|
G#|-------------|---------------------|---------------------------|-------------|---------------------|
D#|-------------|---------------------|---------------------------|-------------|---------------------|


D#|----------------|--------|--------|--------|--------|--------|--------|--------|
A#|----------------|--------|--------|--------|--------|--------|--------|--------|
F#|-12--10--8------|--------|--------|--------|--------|--------|--------|--------|
C#|----------------|--------|--------|--------|--------|--------|--------|--------|
G#|----------------|--------|--------|--------|--------|--------|--------|--------|
D#|----------------|--------|--------|--------|--------|--------|--------|--------|


D#|--------|--------|--------|--------|--------|--------|--------|--------|
A#|--------|--------|--------|--------|--------|--------|--------|--------|
F#|--------|--------|--------|--------|--------|--------|--------|--------|
C#|--------|--------|--------|--------|--------|--------|--------|--------|
G#|--------|--------|--------|--------|--------|--------|--------|--------|
D#|--------|--------|--------|--------|--------|--------|--------|--------|





Track 4: Harmony Guitar

D#|--------|--------|--------|--------|--------|--------|--------|--------|--------|
A#|--------|--------|--------|--------|--------|--------|--------|--------|--------|
F#|--------|--------|--------|--------|--------|--------|--------|--------|--------|
C#|--------|--------|--------|--------|--------|--------|--------|--------|--------|
G#|--------|--------|--------|--------|--------|--------|--------|--------|--------|
D#|--------|--------|--------|--------|--------|--------|--------|--------|--------|


D#|--------|--------|--------|--------|--------|--------|--------|--------|--------|
A#|--------|--------|--------|--------|--------|--------|--------|--------|--------|
F#|--------|--------|--------|--------|--------|--------|--------|--------|--------|
C#|--------|--------|--------|--------|--------|--------|--------|--------|--------|
G#|--------|--------|--------|--------|--------|--------|--------|--------|--------|
D#|--------|--------|--------|--------|--------|--------|--------|--------|--------|


D#|--------|--------|--------|--------|--------|--------|--------|--------|--------|
A#|--------|--------|--------|--------|--------|--------|--------|--------|--------|
F#|--------|--------|--------|--------|--------|--------|--------|--------|--------|
C#|--------|--------|--------|--------|--------|--------|--------|--------|--------|
G#|--------|--------|--------|--------|--------|--------|--------|--------|--------|
D#|--------|--------|--------|--------|--------|--------|--------|--------|--------|


D#|--------|--------|--------|--------|--------|--------|--------|--------|--------|
A#|--------|--------|--------|--------|--------|--------|--------|--------|--------|
F#|--------|--------|--------|--------|--------|--------|--------|--------|--------|
C#|--------|--------|--------|--------|--------|--------|--------|--------|--------|
G#|--------|--------|--------|--------|--------|--------|--------|--------|--------|
D#|--------|--------|--------|--------|--------|--------|--------|--------|--------|


D#|--------|--------|--------|--------|--------|--------|--------|--------|--------|
A#|--------|--------|--------|--------|--------|--------|--------|--------|--------|
F#|--------|--------|--------|--------|--------|--------|--------|--------|--------|
C#|--------|--------|--------|--------|--------|--------|--------|--------|--------|
G#|--------|--------|--------|--------|--------|--------|--------|--------|--------|
D#|--------|--------|--------|--------|--------|--------|--------|--------|--------|


D#|--------|--------|--------|--------|--------|--------|--------|--------|--------|
A#|--------|--------|--------|--------|--------|--------|--------|--------|--------|
F#|--------|--------|--------|--------|--------|--------|--------|--------|--------|
C#|--------|--------|--------|--------|--------|--------|--------|--------|--------|
G#|--------|--------|--------|--------|--------|--------|--------|--------|--------|
D#|--------|--------|--------|--------|--------|--------|--------|--------|--------|


D#|--------|--------|--------|--------|--------|--------|--------|--------|--------|
A#|--------|--------|--------|--------|--------|--------|--------|--------|--------|
F#|--------|--------|--------|--------|--------|--------|--------|--------|--------|
C#|--------|--------|--------|--------|--------|--------|--------|--------|--------|
G#|--------|--------|--------|--------|--------|--------|--------|--------|--------|
D#|--------|--------|--------|--------|--------|--------|--------|--------|--------|


D#|--------|--------|--------|--------|--------|--------|--------|--------|--------|
A#|--------|--------|--------|--------|--------|--------|--------|--------|--------|
F#|--------|--------|--------|--------|--------|--------|--------|--------|--------|
C#|--------|--------|--------|--------|--------|--------|--------|--------|--------|
G#|--------|--------|--------|--------|--------|--------|--------|--------|--------|
D#|--------|--------|--------|--------|--------|--------|--------|--------|--------|


D#|--------|--------|--------|--------|--------|--------|--------|--------|--------|
A#|--------|--------|--------|--------|--------|--------|--------|--------|--------|
F#|--------|--------|--------|--------|--------|--------|--------|--------|--------|
C#|--------|--------|--------|--------|--------|--------|--------|--------|--------|
G#|--------|--------|--------|--------|--------|--------|--------|--------|--------|
D#|--------|--------|--------|--------|--------|--------|--------|--------|--------|


D#|--------|--------|--------|--------|--------|--------|--------|--------|--------|
A#|--------|--------|--------|--------|--------|--------|--------|--------|--------|
F#|--------|--------|--------|--------|--------|--------|--------|--------|--------|
C#|--------|--------|--------|--------|--------|--------|--------|--------|--------|
G#|--------|--------|--------|--------|--------|--------|--------|--------|--------|
D#|--------|--------|--------|--------|--------|--------|--------|--------|--------|


D#|--------|--------|--------|--------|--------|--------|--------|--------|--------|
A#|--------|--------|--------|--------|--------|--------|--------|--------|--------|
F#|--------|--------|--------|--------|--------|--------|--------|--------|--------|
C#|--------|--------|--------|--------|--------|--------|--------|--------|--------|
G#|--------|--------|--------|--------|--------|--------|--------|--------|--------|
D#|--------|--------|--------|--------|--------|--------|--------|--------|--------|


D#|--------|--------|--------|--------|--------|--------|--------|--------|--------|
A#|--------|--------|--------|--------|--------|--------|--------|--------|--------|
F#|--------|--------|--------|--------|--------|--------|--------|--------|--------|
C#|--------|--------|--------|--------|--------|--------|--------|--------|--------|
G#|--------|--------|--------|--------|--------|--------|--------|--------|--------|
D#|--------|--------|--------|--------|--------|--------|--------|--------|--------|


D#|--------|--------|--------|--------|--------|--------|--------|--------|--------|
A#|--------|--------|--------|--------|--------|--------|--------|--------|--------|
F#|--------|--------|--------|--------|--------|--------|--------|--------|--------|
C#|--------|--------|--------|--------|--------|--------|--------|--------|--------|
G#|--------|--------|--------|--------|--------|--------|--------|--------|--------|
D#|--------|--------|--------|--------|--------|--------|--------|--------|--------|


D#|--------|--------|-------------|---------------------|---------------------------|
A#|--------|--------|-12-----12---|-----12----10----10--|-10--12--13----13--12--10--|
F#|--------|--------|-------------|---------------------|---------------------------|
C#|--------|--------|-------------|---------------------|---------------------------|
G#|--------|--------|-------------|---------------------|---------------------------|
D#|--------|--------|-------------|---------------------|---------------------------|


D#|-------------|---------------------|----------------|-------------|---------------------|
A#|-12-----12---|-----12----11----11--|-11--10--8------|-12-----12---|-----12----10----10--|
F#|-------------|---------------------|----------------|-------------|---------------------|
C#|-------------|---------------------|----------------|-------------|---------------------|
G#|-------------|---------------------|----------------|-------------|---------------------|
D#|-------------|---------------------|----------------|-------------|---------------------|


D#|---------------------------|-------------|---------------------|----------------|
A#|-10--12--13----13--12--10--|-12-----12---|-----12----11----11--|-11--10--8------|
F#|---------------------------|-------------|---------------------|----------------|
C#|---------------------------|-------------|---------------------|----------------|
G#|---------------------------|-------------|---------------------|----------------|
D#|---------------------------|-------------|---------------------|----------------|


D#|--------|--------|--------|--------|--------|--------|--------|--------|--------|
A#|--------|--------|--------|--------|--------|--------|--------|--------|--------|
F#|--------|--------|--------|--------|--------|--------|--------|--------|--------|
C#|--------|--------|--------|--------|--------|--------|--------|--------|--------|
G#|--------|--------|--------|--------|--------|--------|--------|--------|--------|
D#|--------|--------|--------|--------|--------|--------|--------|--------|--------|


D#|--------|--------|--------|--------|--------|--------|
A#|--------|--------|--------|--------|--------|--------|
F#|--------|--------|--------|--------|--------|--------|
C#|--------|--------|--------|--------|--------|--------|
G#|--------|--------|--------|--------|--------|--------|
D#|--------|--------|--------|--------|--------|--------|





Track 5: Untitled

G|--------|--------|--------|--------|--------|--------|--------|--------|--------|
D|--------|--------|--------|--------|--------|--------|--------|--------|--------|
A|--------|--------|--------|--------|--------|--------|--------|--------|--------|
E|--------|--------|--------|--------|--------|--------|--------|--------|--------|


G|--------|--------|--------|--------|--------|--------|--------|--------|--------|
D|--------|--------|--------|--------|--------|--------|--------|--------|--------|
A|--------|--------|--------|--------|--------|--------|--------|--------|--------|
E|--------|--------|--------|--------|--------|--------|--------|--------|--------|


G|--------|--------|--------|--------|--------|--------|--------|--------|--------|
D|--------|--------|--------|--------|--------|--------|--------|--------|--------|
A|--------|--------|--------|--------|--------|--------|--------|--------|--------|
E|--------|--------|--------|--------|--------|--------|--------|--------|--------|


G|--------|--------|--------|--------|--------|--------|--------|--------|--------|
D|--------|--------|--------|--------|--------|--------|--------|--------|--------|
A|--------|--------|--------|--------|--------|--------|--------|--------|--------|
E|--------|--------|--------|--------|--------|--------|--------|--------|--------|


G|--------|--------|--------|--------|--------|--------|--------|--------|--------|
D|--------|--------|--------|--------|--------|--------|--------|--------|--------|
A|--------|--------|--------|--------|--------|--------|--------|--------|--------|
E|--------|--------|--------|--------|--------|--------|--------|--------|--------|


G|--------|--------|--------|--------|--------|--------|--------|--------|--------|
D|--------|--------|--------|--------|--------|--------|--------|--------|--------|
A|--------|--------|--------|--------|--------|--------|--------|--------|--------|
E|--------|--------|--------|--------|--------|--------|--------|--------|--------|


G|--------|--------|--------|--------|--------|--------|--------|--------|--------|
D|--------|--------|--------|--------|--------|--------|--------|--------|--------|
A|--------|--------|--------|--------|--------|--------|--------|--------|--------|
E|--------|--------|--------|--------|--------|--------|--------|--------|--------|


G|--------|--------|--------|--------|--------|--------|--------|--------|--------|
D|--------|--------|--------|--------|--------|--------|--------|--------|--------|
A|--------|--------|--------|--------|--------|--------|--------|--------|--------|
E|--------|--------|--------|--------|--------|--------|--------|--------|--------|


G|--------|--------|--------|--------|--------|--------|--------|--------|--------|
D|--------|--------|--------|--------|--------|--------|--------|--------|--------|
A|--------|--------|--------|--------|--------|--------|--------|--------|--------|
E|--------|--------|--------|--------|--------|--------|--------|--------|--------|


G|--------|--------|--------|--------|--------|--------|--------|--------|--------|
D|--------|--------|--------|--------|--------|--------|--------|--------|--------|
A|--------|--------|--------|--------|--------|--------|--------|--------|--------|
E|--------|--------|--------|--------|--------|--------|--------|--------|--------|


G|--------|--------|--------|--------|--------|--------|--------|--------|--------|
D|--------|--------|--------|--------|--------|--------|--------|--------|--------|
A|--------|--------|--------|--------|--------|--------|--------|--------|--------|
E|--------|--------|--------|--------|--------|--------|--------|--------|--------|


G|--------|--------|--------|--------|--------|--------|--------|--------|--------|
D|--------|--------|--------|--------|--------|--------|--------|--------|--------|
A|--------|--------|--------|--------|--------|--------|--------|--------|--------|
E|--------|--------|--------|--------|--------|--------|--------|--------|--------|


G|--------|--------|--------|--------|--------|--------|--------|--------|--------|
D|--------|--------|--------|--------|--------|--------|--------|--------|--------|
A|--------|--------|--------|--------|--------|--------|--------|--------|--------|
E|--------|--------|--------|--------|--------|--------|--------|--------|--------|


G|--------|--------|--------|--------|--------|--------|--------|--------|--------|
D|--------|--------|--------|--------|--------|--------|--------|--------|--------|
A|--------|--------|--------|--------|--------|--------|--------|--------|--------|
E|--------|--------|--------|--------|--------|--------|--------|--------|--------|


G|--------|--------|--------|--------|--------|--------|--------|--------|--------|
D|--------|--------|--------|--------|--------|--------|--------|--------|--------|
A|--------|--------|--------|--------|--------|--------|--------|--------|--------|
E|--------|--------|--------|--------|--------|--------|--------|--------|--------|


G|--------|--------|--------|--------|--------|--------|--------|--------|--------|
D|--------|--------|--------|--------|--------|--------|--------|--------|--------|
A|--------|--------|--------|--------|--------|--------|--------|--------|--------|
E|--------|--------|--------|--------|--------|--------|--------|--------|--------|


G|--------|--------|
D|--------|--------|
A|--------|--------|
E|--------|--------|