Site menu:

    

Browse: 0-9 A B C D E F G H I J K L N O P Q R S T U V W X Y Z

hypocrisy - osculum obscenum:



 
 /---------------------------------------------------------------------------
 / The following is the author's own interpretation of the song, to be used -
 / for studying or private use only                                         -
 /---------------------------------------------------------------------------
 
 downloaded from Displacer's Death Tab
 http://www.dsrmusic.com/metaltab

  
 transcribed by: Gernot Eller (AUT)  July'97

 HYPOCRISY: OSCULUM OBSCENUM (version 1.0)

  Tune down to A (31/2steps down)!
  x...palm mute
  *...this note is a ten, not a one and a zero

 	[repeat this riff four times]
	
	  RIFF1
 	||----------------|----------------||
	||----------------|----------------||
 	||----------------|--------*-------||
 	||----9---8-------|----9---10------||
	||2---7---6---8765|2---7---8---9-7-||
 	||0-----------6543|0-----------7-5-||
	              xxxx				

	[play riff2 four times]

	  RIFF2
	||----------------|----------------|----------------|----------------||
	||----------------|----------------|----------------|----------------||
	||----------------|----------------|----------------|----------------||
	||----------------|----------------|----------------|8---7-----------||
	||2-2-2-2-2-2-2-2-|2-2-2-2-5-2-3---|2-2-2-2-2-2-2-2-|6---5---8---7---||
	||0-0-0-0-0-0-0-0-|0-0-0-0-3-0-1---|0-0-0-0-0-0-0-0-|--------6---5---||

	[repeat riff1 twice]
	
	[play riff3 + fill1;
	 play riff3 + fill3;
	 play riff3 + fill1;
	 play riff3 + fill2;
	 play riff3 + fill1;
	 play riff3 + fill2;]

	  RIFF3
	||---------------------------------|---------------------------------|
	||---------------------------------|---------------------------------|
	||---------------------------------|---------------------------------|
	||---------------------------------|---------------------------------|
	||----------------5--(5)---5--(5)--|----------------3--(3)---3--(3)--|
	||0-0-0-0-0-0-0-0-3--(3)---3--(3)--|0-0-0-0-0-0-0-0-1--(1)---1--(1)--|
	
	 |---------------------------------||
	 |---------------------------------||
	 |---------------------------------||
	 |---------------------------------||
	 |----------------5--(5)---5--(5)--||
	 |0-0-0-0-0-0-0-0-3--(3)---3--(3)--||

				
	  FILL1					 FILL2
	 |--------------------------------|	|--------------------------------|	
	 |--------------------------------|	|--------------------------------|
	 |--------------------------------|	|--------------------------------|
	 |--------------------------------|	|8\------7-----------------------|
	 |7-------7-------7-------7-------|	|6\------5-------8\------7-------|
	 |5-------5-------5-------5-------|	|----------------6\------5-------|

	  FILL3
	 |--------------------------------|
	 |--------------------------------|
	 |--------------------------------|
	 |--------------------------------|
	 |--------------------------------|
	 |--------------------------------|

	[riff4 is played twice;
	 at the second time maybe every note is played one step higher]	

	  RIFF4
	||--------------------------------------------|
	||--------------------------------------------|
	||--------------------------------------------|
	||----------------*-*-*-*-----*-*-*-*-*-*-*-*-|
	||77777777777799991010101099991010101010101010|
	||--------------------------------------------|

	 |--------------------------------|
	 |--------------------------------|
	 |--------------------------------|
	 |--------------------*-*-*-*-*-*-|
	 |77777777*-*-*-*-*-*-101010101010|
	 |--------101010101010------------|

	 |--------------------------------------------|
	 |--------------------------------------------|
	 |--------------------------------------------|
	 |----------------*-*-*-*-----*-*-*-*-*-*-*-*-|
	 |77777777777799991010101099991010101010101010|
	 |--------------------------------------------|

	 |--------------------------||
	 |--------------------------||
	 |--------------------------||
	 |--------------------------||
	 |77777777*-*-*-*-*-*-------||
	 |--------101010101010777777||

	[play riff5 six times in a furious speed;
	 the second time both guitars play]


	  RIFF5
	||---------------------------------------|	guitar1
	||---------------------------------------|
	||---------------*-*-*-*-*-*-*-*---------|
	||--------9999999101010101010101077777777|
	||77777777-------------------------------|
	||---------------------------------------|
	|	
	|	|------------------------------------------------||
	|	|------------------------------------------------||
	|	|----------------*-*-*-*-*-*-*-*-----------------||
	|	|--------999999991010101010101010*-*-*-*-*-*-*-*-||
	|	|77777777------------------------1010101010101010||
	|	|------------------------------------------------||
	|
	||---------------------------------------|	guitar2
	||---------------------------------------|
	||---------------------------------------|
	||---------------------------------------|
	||2--------------------------------------|
	||0--------------------------------------|

		|--------------------------------||
		|--------------------------------||
		|--------------------------------||
		|--------------------------------||
		|2-------2-------2-------2-------||
		|0-------0-------0-------0-------||

	[play riff3 + fill2 twice]

	[repeat riff5 twice]

	[this riff6 was too hard for me;
	 perhaps I'll try another time; but play it 12 times]

		  RIFF6
		||------------------------------||
		||------------------------------||
		||------------------------------||
		||------------------------------||
		||2-2-2-2-2-2(2)8\9/6--5--7--9--||
		||0-0-0-0-0-0(0)6\7/6--3--5--7--||
		  x x x x x x(x)

	[repeat riff4 twice during the extreme solo|

	[play riff5: g1;
	 play riff5: g1 + g2; {but g1 stops at the half};
	 play riff5: g1;
	 play riff5: g1]

	[the last riff is played four times,
	 but I don't know how to play it-help!?]
	
 ____________________________________________________________
 A good way to process this file is to insert it
 in Word and choose the typeface "MS LineDraw".

 If you have found one -of probably thousand- mistakes
 or if you know other Hypocrisy-tabs or lyrics, feel free
 to mail me or ask me for the latest version.
 
 Special thanx for their support to Eugen P. and Leo K. + the
 members of the band they're playing in!