Site menu:

    

Browse: 0-9 A B C D E F G H I J K L N O P Q R S T U V W X Y Z

hypocrisy - lead by satanism:



/---------------------------------------------------------------------------
/ The following is the author's own interpretation of the song, to be used -
/ for studying or private use only, removal of any part of this ten line   -
/ header is illegal!!!  Removal of the transcribers name or anything       -
/ relevant to the transcriber is also illegal, as so is the removal of the -
/ place inwhich the tab was downloaded. Publishing as well as printing of  -
/ the tab is illegal without permission of the transcriber and copyright   -
/ owner of the song. Failure to apply to these laws result will in legal   -
/ action from the appropriate parties.                                     -
/---------------------------------------------------------------------------

downloaded from Displacer's Tablature Site at
        http://www.dsrmusic.com/metaltab
join the death/black tab emailing list by filling out the free
subscription form at http://www.dsrmusic.com/metaltab

                            HYPOCRISY - LEAD BY SATANISM
                         From the Album - PENETRAILIA (DIGI-PAC)
                         Copyright - NUCLEAR BLAST RECORDS 1990
                                 Version 1.0 Nov 6, 2002
                                

Transcribed by: James Williams (Inverted)

For Questions, Comments, Newest Version, or Corrections contact
Inverted: at Inverted_one@hotmail.com

Check Out Death8699.com or Metaltabs.com for More Transcriptions:
http://www.Death8699.com http://www.Metaltabs.com

.  - palm mute           /  - slide up to
\  - slide down to       ~  - vibrato
h  - hammer on           b  - bend
p  - pull off            Suffixes for bend ^
ph - pinched harmonic     f - full bend    h - half bend
*  - see comment          r - release      t - tap bend
X  - Stuccatto            ~ - vibrato bend q - quarter bend
,  - slight palm mute    () - ghost note, sustained note
"  - Tromolo note        <> - Trill

Tuning: "C"F"A#"D#"G"C"


Riff 1-A                                 Gtr I
|---------------------------------------------|
|---------------------------------------------|
|-------4---------------------4---------------|
|----------3--2~---0--2----------3--4----3----|
|--2---------------------2----------2----1----|
|--0---------------------0--------------------|

                                        Gtr II
|---------------------------------------------|
|---------------------------------------------|
|---------------------------------------------|
|-----------------------------------4----3----|
|--2------------------3--2----------2----1----|
|--0------------------1--0--------------------|

                                       Gtr III
|-------7---------------------7---------------|
|----------6--5~---3--5----------6------------|
|---------------------------------------------|
|-----------------------------------4----3----|
|--2---------------------2----------2----1----|
|--0---------------------0--------------------|


Riff 1-B                              Gtr I&II
|---------------------------------------------|
|---------------------------------------------|
|---------------------------------------------|
|-----------------------------------4----3----|
|--2------------------3--2----------2----1----|
|--0------------------1--0--------------------|


Solo 1
|-------------------------------------------------------
|-------------------------------------------------------
|---------------------------9-7----7--------------------
|-------9--10--9--7--9--10------10---10-9-10-9-7-9-7----
|--2-------------------------------------------------10-
|--0----------------------------------------------------
                                               . . .  .

----------------------------------------t19p17p15p14p12-
--------------------------------------------------------
-------------------------------9~-----------------------
-7----------------9--10--9--7---------------------------
---10-9-7----2------------------------------------------
-------------0------------------------------------------
 .  . . .

-t19p17p15p14p12-t19p17p15p14p12--19"--17"--15"---------|
-------------------------------------------------17"----|
--------------------------------------------------------|
--------------------------------------------------------|
--------------------------------------------------------|
--------------------------------------------------------|


Riff 2
|----------------------------------------------------------------|
|----------------------------------------------------------------|
|----------------------------------------------------------------|
|--------------------------------------------------4------3------|
|--2-2-2-2-2-2-3---2-2-2-2-2-2-3---2-2-2-2-2-2-3---2------1------|
|--0-0-0-0-0-0-1---0-0-0-0-0-0-1---0-0-0-0-0-0-1-----------------|
   . . . . . .     . . . . . .     . . . . . .

Riff 3
|------------------------------------------------------|
|------------------------------------------------------|
|------------------------------------------------------|
|----------------5-------------------------------------|
|--3--------6----3----2-2-2-2-2-2-2-2-2-2-2-2-2-2-2-2--|
|--1--------4---------0-0-0-0-0-0-0-0-0-0-0-0-0-0-0-0--|
                      . . . . . . . . . . . . . . . .

Fill 1
|---------------------|
|---------------------|
|---------------------|
|----------------5----|
|--3--------6----3----|
|--1--------4---------|


Riff 4
|-------------------------------------------------------------------|
|-------------------------------------------------------------------|
|-------------------------------------------------------------------|
|----------------3----------3-2-------------------3----------3-2----|
|----------0-0-2----------------------------0-0-2------------1-0-3--|
|--0-0-000----------0-0-000-----5~--0-0-000----------0-0-000-----1--|
   . . ... . . .    . . ... .       . . ... . . .    . . ...

Riff 5
|-------------------------------------------------------------|
|-------------------------------------------------------------|
|-------------------------------------------------------------|
|---5----4--------3----2--------5--------4--------3--------2--|
|---5----4--------3----2--------5--------4--------3--------2--|
|---3----2--------1----0--------3--------2--------1--------0--|


Fill 2
|--------------------------------------------------|
|--------------------------------------------------|
|--------------------------------------------------|
|--------------------------------------------------|
|--7-7-7-7-7-7-7-7-7-7-7-7-7-7-7-2x----2x----2x----|
|--0-0-0-0-0-0-0-0-0-0-0-0-0-0-0-0x----0x----0x----|
   . . . . . . . . . . . . . . .


Check out my other tabs by: Deicide, Obituary, Hypocrisy, 
Grave, Catastrophic, Six Feet Under, Incantation, Death and 
Cannibal Corpse.