Site menu:

    

Browse: 0-9 A B C D E F G H I J K L N O P Q R S T U V W X Y Z

hypocrisy - eraser:



Title: Eraser
Artist: 
Album: The Arrival
Author: Hypocrisy


Track 1: Clean Electric Guitar

E|---------------------------------|---------------------------------|---------------------------------|
B|---------------------------------|---------------------------------|---------------------------------|
G|-------------4---------------4---|-------------4---------------4---|-------------4---------------4---|
D|---------4---------------4-------|---------4---------------4-------|---------4---------------4-------|
A|-----5---------------5-----------|-----5---------------4-----------|-----5---------------5-----------|
E|-7---------------7---------------|-7---------------6---------------|-7---------------7---------------|
B|---------------------------------|---------------------------------|---------------------------------|


E|---------------------------------|---------------------------------|---------------------------------|
B|---------------------------------|---------------------------------|---------------------------------|
G|-------------4---------------4---|-------------4---------------4---|-------------4---------------4---|
D|---------4---------------4-------|---------4---------------4-------|---------4---------------4-------|
A|-----5---------------4-----------|-----5---------------5-----------|-----5---------------4-----------|
E|-7---------------6---------------|-7---------------7---------------|-7---------------6---------------|
B|---------------------------------|---------------------------------|---------------------------------|


E|---------------------------------|-----------------------|--------|--------|--------|
B|---------------------------------|-----------------------|--------|--------|--------|
G|-------------4---------------4---|-------------4---------|--------|--------|--------|
D|---------4---------------4-------|---------4-------------|--------|--------|--------|
A|-----5---------------5-----------|-----5-----------------|--------|--------|--------|
E|-7---------------7---------------|-7---------------------|--------|--------|--------|
B|---------------------------------|-----------------------|--------|--------|--------|


E|--------|--------|--------|--------|--------|--------|--------|--------|--------|
B|--------|--------|--------|--------|--------|--------|--------|--------|--------|
G|--------|--------|--------|--------|--------|--------|--------|--------|--------|
D|--------|--------|--------|--------|--------|--------|--------|--------|--------|
A|--------|--------|--------|--------|--------|--------|--------|--------|--------|
E|--------|--------|--------|--------|--------|--------|--------|--------|--------|
B|--------|--------|--------|--------|--------|--------|--------|--------|--------|


E|--------|--------|--------|--------|--------|--------|--------|--------|--------|
B|--------|--------|--------|--------|--------|--------|--------|--------|--------|
G|--------|--------|--------|--------|--------|--------|--------|--------|--------|
D|--------|--------|--------|--------|--------|--------|--------|--------|--------|
A|--------|--------|--------|--------|--------|--------|--------|--------|--------|
E|--------|--------|--------|--------|--------|--------|--------|--------|--------|
B|--------|--------|--------|--------|--------|--------|--------|--------|--------|


E|--------|--------|--------|--------|--------|--------|--------|--------|--------|
B|--------|--------|--------|--------|--------|--------|--------|--------|--------|
G|--------|--------|--------|--------|--------|--------|--------|--------|--------|
D|--------|--------|--------|--------|--------|--------|--------|--------|--------|
A|--------|--------|--------|--------|--------|--------|--------|--------|--------|
E|--------|--------|--------|--------|--------|--------|--------|--------|--------|
B|--------|--------|--------|--------|--------|--------|--------|--------|--------|


E|--------|--------|--------|--------|--------|--------|--------|--------|--------|
B|--------|--------|--------|--------|--------|--------|--------|--------|--------|
G|--------|--------|--------|--------|--------|--------|--------|--------|--------|
D|--------|--------|--------|--------|--------|--------|--------|--------|--------|
A|--------|--------|--------|--------|--------|--------|--------|--------|--------|
E|--------|--------|--------|--------|--------|--------|--------|--------|--------|
B|--------|--------|--------|--------|--------|--------|--------|--------|--------|


E|--------|--------|--------|--------|--------|--------|--------|--------|--------|
B|--------|--------|--------|--------|--------|--------|--------|--------|--------|
G|--------|--------|--------|--------|--------|--------|--------|--------|--------|
D|--------|--------|--------|--------|--------|--------|--------|--------|--------|
A|--------|--------|--------|--------|--------|--------|--------|--------|--------|
E|--------|--------|--------|--------|--------|--------|--------|--------|--------|
B|--------|--------|--------|--------|--------|--------|--------|--------|--------|


E|--------|--------|--------|--------|--------|--------|--------|--------|--------|
B|--------|--------|--------|--------|--------|--------|--------|--------|--------|
G|--------|--------|--------|--------|--------|--------|--------|--------|--------|
D|--------|--------|--------|--------|--------|--------|--------|--------|--------|
A|--------|--------|--------|--------|--------|--------|--------|--------|--------|
E|--------|--------|--------|--------|--------|--------|--------|--------|--------|
B|--------|--------|--------|--------|--------|--------|--------|--------|--------|


E|--------|--------|--------|--------|--------|--------|--------|--------|--------|
B|--------|--------|--------|--------|--------|--------|--------|--------|--------|
G|--------|--------|--------|--------|--------|--------|--------|--------|--------|
D|--------|--------|--------|--------|--------|--------|--------|--------|--------|
A|--------|--------|--------|--------|--------|--------|--------|--------|--------|
E|--------|--------|--------|--------|--------|--------|--------|--------|--------|
B|--------|--------|--------|--------|--------|--------|--------|--------|--------|


E|--------|--------|--------|--------|--------|--------|--------|--------|--------|
B|--------|--------|--------|--------|--------|--------|--------|--------|--------|
G|--------|--------|--------|--------|--------|--------|--------|--------|--------|
D|--------|--------|--------|--------|--------|--------|--------|--------|--------|
A|--------|--------|--------|--------|--------|--------|--------|--------|--------|
E|--------|--------|--------|--------|--------|--------|--------|--------|--------|
B|--------|--------|--------|--------|--------|--------|--------|--------|--------|


E|--------|--------|--------|--------|--------|--------|--------|--------|--------|
B|--------|--------|--------|--------|--------|--------|--------|--------|--------|
G|--------|--------|--------|--------|--------|--------|--------|--------|--------|
D|--------|--------|--------|--------|--------|--------|--------|--------|--------|
A|--------|--------|--------|--------|--------|--------|--------|--------|--------|
E|--------|--------|--------|--------|--------|--------|--------|--------|--------|
B|--------|--------|--------|--------|--------|--------|--------|--------|--------|


E|--------|--------|--------|--------|--------|--------|--------|--------|--------|
B|--------|--------|--------|--------|--------|--------|--------|--------|--------|
G|--------|--------|--------|--------|--------|--------|--------|--------|--------|
D|--------|--------|--------|--------|--------|--------|--------|--------|--------|
A|--------|--------|--------|--------|--------|--------|--------|--------|--------|
E|--------|--------|--------|--------|--------|--------|--------|--------|--------|
B|--------|--------|--------|--------|--------|--------|--------|--------|--------|


E|--------|--------|--------|--------|--------|--------|--------|--------|--------|
B|--------|--------|--------|--------|--------|--------|--------|--------|--------|
G|--------|--------|--------|--------|--------|--------|--------|--------|--------|
D|--------|--------|--------|--------|--------|--------|--------|--------|--------|
A|--------|--------|--------|--------|--------|--------|--------|--------|--------|
E|--------|--------|--------|--------|--------|--------|--------|--------|--------|
B|--------|--------|--------|--------|--------|--------|--------|--------|--------|


E|--------|
B|--------|
G|--------|
D|--------|
A|--------|
E|--------|
B|--------|





Track 2: Distorted Electric Guitar

E|--------|--------|--------|--------|--------|--------|--------|---------------------------|
B|--------|--------|--------|--------|--------|--------|--------|---------------------------|
G|--------|--------|--------|--------|--------|--------|--------|---------------------------|
D|--------|--------|--------|--------|--------|--------|--------|-------5--5------4--4------|
A|--------|--------|--------|--------|--------|--------|--------|-------5--5------4--4------|
E|--------|--------|--------|--------|--------|--------|--------|-------3--3------2--2------|
B|--------|--------|--------|--------|--------|--------|--------|---------------------------|


E|--------|--------|--------|--------|--------|--------|--------|---------------------------|
B|--------|--------|--------|--------|--------|--------|--------|---------------------------|
G|--------|--------|--------|--------|--------|--------|--------|---------------------------|
D|--------|--------|--------|--------|--------|--------|--------|-------5--5------4--4------|
A|-2------|-2------|-2------|-2------|-2------|-2------|-2------|-2-----5--5------4--4------|
E|-2------|-2------|-2------|-2------|-2------|-2------|-2------|-2-----3--3------2--2------|
B|-0------|-0------|-0------|-0------|-0------|-0------|-0------|-0-------------------------|


E|--------|-----------------|--------|-----------------|--------|-----------------|
B|--------|-----------------|--------|-----------------|--------|-----------------|
G|--------|-----------------|--------|-----------------|--------|-----------------|
D|--------|-------5----5----|--------|-------8----4----|--------|-------5----5----|
A|-2------|-2-----5----5----|-2------|-2-----8----4----|-2------|-2-----5----5----|
E|-2------|-2-----3----3----|-2------|-2-----6----2----|-2------|-2-----3----3----|
B|-0------|-0---------------|-0------|-0---------------|-0------|-0---------------|


E|--------|-----------------|--------|-----------------|--------|-----------------|
B|--------|-----------------|--------|-----------------|--------|-----------------|
G|--------|-----------------|--------|-----------------|--------|-----------------|
D|--------|-------5----4----|--------|-------5----5----|--------|-------8----4----|
A|-2------|-2-----5----4----|-2------|-2-----5----5----|-2------|-2-----8----4----|
E|-2------|-2-----3----2----|-2------|-2-----3----3----|-2------|-2-----6----2----|
B|-0------|-0---------------|-0------|-0---------------|-0------|-0---------------|


E|--------|-----------------|--------|-----------------|---------------------------------|
B|--------|-----------------|--------|-----------------|---------------------------------|
G|--------|-----------------|--------|-----------------|---------------------------------|
D|--------|-------5----5----|--------|-------5----4----|-3--3--3----3--3--3----3--3--3---|
A|-2------|-2-----5----5----|-2------|-2-----5----4----|-5--5--5----5--5--5----5--5--5---|
E|-2------|-2-----3----3----|-2------|-2-----3----2----|-6--6--6----6--6--6----6--6--6---|
B|-0------|-0---------------|-0------|-0---------------|---------------------------------|


E|---------------------------------|---------------------------------|-----------------------------------|
B|---------------------------------|---------------------------------|-----------------------------------|
G|---------------------------------|---------------------------------|-----------------------------------|
D|-7--7--7----7--7--7----7--7--7---|-9--9--9----9--9--9--------------|-----------------------2--2--2--2--|
A|-9--9--9----9--9--9----9--9--9---|-10-10-10---10-10-10---4--4--4---|-5--5--5----5--5--5----4--4--4--4--|
E|-10-10-10---10-10-10---10-10-10--|-12-12-12---12-12-12---5--5--5---|-7--7--7----7--7--7----5--5--5--5--|
B|---------------------------------|-----------------------7--7--7---|-8--8--8----8--8--8----------------|


E|---------------------------------|---------------------------------|---------------------------------|
B|---------------------------------|---------------------------------|---------------------------------|
G|---------------------------------|---------------------------------|---------------------------------|
D|-3--3--3----3--3--3----3--3--3---|-7--7--7----7--7--7----7--7--7---|-9--9--9----9--9--9--------------|
A|-5--5--5----5--5--5----5--5--5---|-9--9--9----9--9--9----9--9--9---|-10-10-10---10-10-10---4--4--4---|
E|-6--6--6----6--6--6----6--6--6---|-10-10-10---10-10-10---10-10-10--|-12-12-12---12-12-12---5--5--5---|
B|---------------------------------|---------------------------------|-----------------------7--7--7---|


E|-----------------------------------|-------------|-------------|-------------|-------------|
B|-----------------------------------|-------------|-------------|-------------|-------------|
G|-----------------------------------|-------------|-------------|-------------|-------------|
D|-----------------------2--2--2--2--|-------------|-6-----5-----|-2-----------|-------6-----|
A|-5--5--5----5--5--5----4--4--4--4--|-------2-----|-6-----5-----|-2-----2-----|-5-----6-----|
E|-7--7--7----7--7--7----5--5--5--5--|-------2-----|-4-----3-----|-0-----2-----|-5-----4-----|
B|-8--8--8----8--8--8----------------|-------0-----|-------------|-------0-----|-3-----------|


E|-------------|-------------|-------------|-------------|-------------|-----------------|
B|-------------|-------------|-------------|-------------|-------------|-----------------|
G|-------------|-------------|-------------|-------------|-------------|-----------------|
D|-5-----------|-6-----5-----|-2-----------|-------6-----|-5-----------|------4----------|
A|-5-----2-----|-6-----5-----|-2-----2-----|-5-----6-----|-5-----------|------4----2-----|
E|-3-----2-----|-4-----3-----|-0-----2-----|-5-----4-----|-3-----------|------2----2-----|
B|-------0-----|-------------|-------0-----|-3-----------|-------------|-----------0-----|


E|-----------------|-------------|-----------------|-------------|-----------------|
B|-----------------|-------------|-----------------|-------------|-----------------|
G|-----------------|-------------|-----------------|-------------|-----------------|
D|-5----5----------|-------------|-5----4----------|-------------|-5----5----------|
A|-5----5----2-----|-------2-----|-5----4----2-----|-------2-----|-5----5----2-----|
E|-3----3----2-----|-------2-----|-3----2----2-----|-------2-----|-3----3----2-----|
B|-----------0-----|-------0-----|-----------0-----|-------0-----|-----------0-----|


E|-------------|-----------------|-------------|-----------------|-------------|----------------------------|
B|-------------|-----------------|-------------|-----------------|-------------|----------------------------|
G|-------------|-----------------|-------------|-----------------|-------------|----------------------------|
D|-------------|-8----4----------|-------------|-5----5----------|-------------|-5----4----3--3--3----3--3--|
A|-------2-----|-8----4----2-----|-------2-----|-5----5----2-----|-------2-----|-5----4----5--5--5----5--5--|
E|-------2-----|-6----2----2-----|-------2-----|-3----3----2-----|-------2-----|-3----2----6--6--6----6--6--|
B|-------0-----|-----------0-----|-------0-----|-----------0-----|-------0-----|----------------------------|


E|---------------------------------|---------------------------------|---------------------------------|
B|---------------------------------|---------------------------------|---------------------------------|
G|---------------------------------|---------------------------------|---------------------------------|
D|-3----3--3--3---7--7--7----7--7--|-7----7--7--7---9--9--9----9--9--|-9-------------------------------|
A|-5----5--5--5---9--9--9----9--9--|-9----9--9--9---10-10-10---10-10-|-10---4--4--4---5--5--5----5--5--|
E|-6----6--6--6---10-10-10---10-10-|-10---10-10-10--12-12-12---12-12-|-12---5--5--5---7--7--7----7--7--|
B|---------------------------------|---------------------------------|------7--7--7---8--8--8----8--8--|


E|-----------------------------------|---------------------------------|---------------------------------|
B|-----------------------------------|---------------------------------|---------------------------------|
G|-----------------------------------|---------------------------------|---------------------------------|
D|------2--2--2--2--3--3--3----3--3--|-3----3--3--3---7--7--7----7--7--|-7----7--7--7---9--9--9----9--9--|
A|-5----4--4--4--4--5--5--5----5--5--|-5----5--5--5---9--9--9----9--9--|-9----9--9--9---10-10-10---10-10-|
E|-7----5--5--5--5--6--6--6----6--6--|-6----6--6--6---10-10-10---10-10-|-10---10-10-10--12-12-12---12-12-|
B|-8---------------------------------|---------------------------------|---------------------------------|


E|---------------------------------|------------------------|-------------|-------------|
B|---------------------------------|------------------------|-------------|-------------|
G|---------------------------------|------------------------|-------------|-------------|
D|-9-------------------------------|------2--2--2--2--------|-------6-----|-5-----2-----|
A|-10---4--4--4---5--5--5----5--5--|-5----4--4--4--4--------|-2-----6-----|-5-----2-----|
E|-12---5--5--5---7--7--7----7--7--|-7----5--5--5--5--------|-2-----4-----|-3-----0-----|
B|------7--7--7---8--8--8----8--8--|-8----------------------|-0-----------|-------------|


E|-------------|-------------|-------------|-------------|-------------|-------------|
B|-------------|-------------|-------------|-------------|-------------|-------------|
G|-------------|-------------|-------------|-------------|-------------|-------------|
D|-------------|-6-----5-----|-------6-----|-5-----2-----|-------------|-6-----5-----|
A|-2-----5-----|-6-----5-----|-2-----6-----|-5-----2-----|-2-----5-----|-6-----5-----|
E|-2-----5-----|-4-----3-----|-2-----4-----|-3-----0-----|-2-----5-----|-4-----3-----|
B|-0-----3-----|-------------|-0-----------|-------------|-0-----3-----|-------------|


E|-----------------------------------------|-----------------------------------------|
B|-----------------------------------------|-----------------------------------------|
G|-----------------------------------------|-----------------------------------------|
D|-5--5--5--5----5--5--5--5----5--5--5--5--|-9--9--9--9----9--9--9--9----7--7--7--7--|
A|-5--5--5--5----5--5--5--5----5--5--5--5--|-9--9--9--9----9--9--9--9----7--7--7--7--|
E|-3--3--3--3----3--3--3--3----3--3--3--3--|-7--7--7--7----7--7--7--7----5--5--5--5--|
B|-----------------------------------------|-----------------------------------------|


E|-----------------------------------------|-------------------------------------|
B|-----------------------------------------|-------------------------------------|
G|-----------------------------------------|-------------------------------------|
D|-5--5--5--5----5--5--5--5----5--5--5--5--|-9--9--9--9----9--9--9--9------------|
A|-5--5--5--5----5--5--5--5----5--5--5--5--|-9--9--9--9----9--9--9--9----5---5---|
E|-3--3--3--3----3--3--3--3----3--3--3--3--|-7--7--7--7----7--7--7--7----5---5---|
B|-----------------------------------------|-----------------------------3---3---|


E|-----------------------------------------|-----------------------------------------|
B|-----------------------------------------|-----------------------------------------|
G|-----------------------------------------|-----------------------------------------|
D|-5--5--5--5----5--5--5--5----5--5--5--5--|-9--9--9--9----9--9--9--9----9--9--9--9--|
A|-5--5--5--5----5--5--5--5----5--5--5--5--|-9--9--9--9----9--9--9--9----9--9--9--9--|
E|-3--3--3--3----3--3--3--3----3--3--3--3--|-7--7--7--7----7--7--7--7----7--7--7--7--|
B|-----------------------------------------|-----------------------------------------|


E|-----------------------------------------|-----------------------------------------|
B|-----------------------------------------|-----------------------------------------|
G|-----------------------------------------|-----------------------------------------|
D|-2--2--2--2----2--2--2--2----4--4--4--4--|-5--5--5--5----5--5--5--5----7--7--7--7--|
A|-2--2--2--2----2--2--2--2----4--4--4--4--|-5--5--5--5----5--5--5--5----7--7--7--7--|
E|-0--0--0--0----0--0--0--0----2--2--2--2--|-3--3--3--3----3--3--3--3----5--5--5--5--|
B|-----------------------------------------|-----------------------------------------|


E|--------|-----------------|--------|-----------------|--------|-----------------|
B|--------|-----------------|--------|-----------------|--------|-----------------|
G|--------|-----------------|--------|-----------------|--------|-----------------|
D|--------|-------5----5----|--------|-------8----4----|--------|-------5----5----|
A|-2------|-2-----5----5----|-2------|-2-----8----4----|-2------|-2-----5----5----|
E|-2------|-2-----3----3----|-2------|-2-----6----2----|-2------|-2-----3----3----|
B|-0------|-0---------------|-0------|-0---------------|-0------|-0---------------|


E|--------|-------------|-------------|-------------|-------------|-------------|-------------|
B|--------|-------------|-------------|-------------|-------------|-------------|-------------|
G|--------|-------------|-------------|-------------|-------------|-------------|-------------|
D|--------|-------------|-------6-----|-5-----2-----|-------------|-6-----5-----|-------6-----|
A|-2------|-2-----2-----|-2-----6-----|-5-----2-----|-2-----5-----|-6-----5-----|-2-----6-----|
E|-2------|-2-----2-----|-2-----4-----|-3-----0-----|-2-----5-----|-4-----3-----|-2-----4-----|
B|-0------|-0-----0-----|-0-----------|-------------|-0-----3-----|-------------|-0-----------|


E|-------------|-------------|-------------|-------------|-------------|-------------|
B|-------------|-------------|-------------|-------------|-------------|-------------|
G|-------------|-------------|-------------|-------------|-------------|-------------|
D|-5-----2-----|-------------|-6-----5-----|-------6-----|-5-----2-----|-------------|
A|-5-----2-----|-2-----5-----|-6-----5-----|-2-----6-----|-5-----2-----|-2-----5-----|
E|-3-----0-----|-2-----5-----|-4-----3-----|-2-----4-----|-3-----0-----|-2-----5-----|
B|-------------|-0-----3-----|-------------|-0-----------|-------------|-0-----3-----|


E|-------------|-------------|-------------|-------------|-------------|-------------------------------------|
B|-------------|-------------|-------------|-------------|-------------|-------------------------------------|
G|-------------|-------------|-------------|-------------|-------------|-------------------------------------|
D|-6-----5-----|-------6-----|-5-----2-----|-------------|-6-----5-----|-------------------------------------|
A|-6-----5-----|-2-----6-----|-5-----2-----|-2-----5-----|-6-----5-----|-2--2--2--2----2--2--2--2----2--2----|
E|-4-----3-----|-2-----4-----|-3-----0-----|-2-----5-----|-4-----3-----|-2--2--2--2----2--2--2--2----2--2----|
B|-------------|-0-----------|-------------|-0-----3-----|-------------|-0--0--0--0----0--0--0--0----0--0----|


E|--------|
B|--------|
G|--------|
D|--------|
A|--------|
E|--------|
B|--------|





Track 3: Untitled

E|--------|--------|--------|--------|--------|--------|--------|--------|-----------------------|
B|--------|--------|--------|--------|--------|--------|--------|--------|-----------------------|
G|--------|--------|--------|--------|--------|--------|--------|--------|---------4---7---7-----|
D|--------|--------|--------|--------|--------|--------|--------|--------|-----4-----------------|
A|--------|--------|--------|--------|--------|--------|--------|--------|-5---------------------|
E|--------|--------|--------|--------|--------|--------|--------|--------|-----------------------|
B|--------|--------|--------|--------|--------|--------|--------|--------|-----------------------|


E|------------------------------|-----------------------|------------------------------|
B|------------------------------|-----------------------|------------------------------|
G|---------4---7---6---7---3----|---------4---7---7-----|---------4---7---6---7---2----|
D|-----4------------------------|-----4-----------------|-----4------------------------|
A|-5----------------------------|-5---------------------|-5----------------------------|
E|------------------------------|-----------------------|------------------------------|
B|------------------------------|-----------------------|------------------------------|


E|-----------------------|------------------------------|-----------------------|-------------------------------------|
B|-----------------------|------------------------------|-----------------------|-------------------------------------|
G|---------4---7---7-----|---------4---7---6---7---3----|---------4---7---7-----|---------4---7-----------------------|
D|-----4-----------------|-----4------------------------|-----4-----------------|-----4-----------5--5------4--4------|
A|-5---------------------|-5----------------------------|-5---------------------|-5---------------5--5------4--4------|
E|-----------------------|------------------------------|-----------------------|-----------------3--3------2--2------|
B|-----------------------|------------------------------|-----------------------|-------------------------------------|


E|-----------------------|------------------------------|-----------------------|------------------------------|
B|-----------------------|------------------------------|-----------------------|------------------------------|
G|---------4---7---7-----|---------4---7---6---7---3----|---------4---7---7-----|---------4---7---6---7---2----|
D|-----4-----------------|-----4------------------------|-----4-----------------|-----4------------------------|
A|-5---------------------|-5----------------------------|-5---------------------|-5----------------------------|
E|-----------------------|------------------------------|-----------------------|------------------------------|
B|-----------------------|------------------------------|-----------------------|------------------------------|


E|-----------------------|------------------------------|-----------------------|---------------------------------|
B|-----------------------|------------------------------|-----------------------|---------------------------------|
G|---------4---7---7-----|---------4---7---6---7---3----|---------4---7---7-----|---------4---7---9---7---6---4---|
D|-----4-----------------|-----4------------------------|-----4-----------------|-----4---------------------------|
A|-5---------------------|-5----------------------------|-5---------------------|-5-------------------------------|
E|-----------------------|------------------------------|-----------------------|---------------------------------|
B|-----------------------|------------------------------|-----------------------|---------------------------------|


E|--------|--------|--------|--------|--------|--------|--------|--------|---------------------------------|
B|--------|--------|--------|--------|--------|--------|--------|--------|---------------------------------|
G|--------|--------|--------|--------|--------|--------|--------|--------|---------------------------------|
D|--------|--------|--------|--------|--------|--------|--------|--------|---------------------------------|
A|--------|--------|--------|--------|--------|--------|--------|--------|-1--1--1----1--1--1----1--1--1---|
E|--------|--------|--------|--------|--------|--------|--------|--------|-1--1--1----1--1--1----1--1--1---|
B|--------|--------|--------|--------|--------|--------|--------|--------|---------------------------------|


E|---------------------------------|---------------------------------|-----------------------------------|
B|---------------------------------|---------------------------------|-----------------------------------|
G|---------------------------------|---------------------------------|-----------------------------------|
D|---------------------------------|---------------------------------|-----------------------------------|
A|-5--5--5----5--5--5----5--5--5---|-7--7--7----7--7--7----9--9--9---|-10-10-10---10-10-10---12-12-12-12-|
E|-5--5--5----5--5--5----5--5--5---|-7--7--7----7--7--7----9--9--9---|-10-10-10---10-10-10---12-12-12-12-|
B|-3--3--3----3--3--3----3--3--3---|-5--5--5----5--5--5----7--7--7---|-8--8--8----8--8--8----10-10-10-10-|


E|---------------------------------|---------------------------------|---------------------------------|
B|---------------------------------|---------------------------------|---------------------------------|
G|---------------------------------|---------------------------------|---------------------------------|
D|---------------------------------|---------------------------------|---------------------------------|
A|-1--1--1----1--1--1----1--1--1---|-5--5--5----5--5--5----5--5--5---|-7--7--7----7--7--7----9--9--9---|
E|-1--1--1----1--1--1----1--1--1---|-5--5--5----5--5--5----5--5--5---|-7--7--7----7--7--7----9--9--9---|
B|---------------------------------|-3--3--3----3--3--3----3--3--3---|-5--5--5----5--5--5----7--7--7---|


E|-----------------------------------|-------10-0--0--9--0--0--7--0--|-5--0--0--7--0--0--9--0--10-0--0--9--0--0--7--0--|
B|-----------------------------------|-------------------------------|-------------------------------------------------|
G|-----------------------------------|-------------------------------|-------------------------------------------------|
D|-----------------------------------|-------------------------------|-------------------------------------------------|
A|-10-10-10---10-10-10---12-12-12-12-|-------------------------------|-------------------------------------------------|
E|-10-10-10---10-10-10---12-12-12-12-|-------------------------------|-------------------------------------------------|
B|-8--8--8----8--8--8----10-10-10-10-|-------------------------------|-------------------------------------------------|


E|-5--0--0--3--0--0--2--0--10-0--0--9--0--0--7--0--|-5--0--0--7--0--0--9--0--4--0--0--5--0--0--7--0--|
B|-------------------------------------------------|-------------------------------------------------|
G|-------------------------------------------------|-------------------------------------------------|
D|-------------------------------------------------|-------------------------------------------------|
A|-------------------------------------------------|-------------------------------------------------|
E|-------------------------------------------------|-------------------------------------------------|
B|-------------------------------------------------|-------------------------------------------------|


E|-5--0--0--3--0--0--2--0--10-0--0--9--0--0--7--0--|-5--0--0--7--0--0--9--0--10-0--0--9--0--0--7--0--|
B|-------------------------------------------------|-------------------------------------------------|
G|-------------------------------------------------|-------------------------------------------------|
D|-------------------------------------------------|-------------------------------------------------|
A|-------------------------------------------------|-------------------------------------------------|
E|-------------------------------------------------|-------------------------------------------------|
B|-------------------------------------------------|-------------------------------------------------|


E|-5--0--0--3--0--0--2--0--10-0--0--9--0--0--7--0--|-5--0--0--7--0--0--9--0--4--0--0--5--0--0--7--0--|
B|-------------------------------------------------|-------------------------------------------------|
G|-------------------------------------------------|-------------------------------------------------|
D|-------------------------------------------------|-------------------------------------------------|
A|-------------------------------------------------|-------------------------------------------------|
E|-------------------------------------------------|-------------------------------------------------|
B|-------------------------------------------------|-------------------------------------------------|


E|-5--0--0--3--0--0--2--0------------------|-----------------------|------------------------------|
B|-----------------------------------------|-----------------------|------------------------------|
G|---------------------------------4---7---|-7-------------4---7---|-6---7---3------------4---7---|
D|-----------------------------4-----------|-----------4-----------|------------------4-----------|
A|-------------------------5---------------|-------5---------------|--------------5---------------|
E|-----------------------------------------|-----------------------|------------------------------|
B|-----------------------------------------|-----------------------|------------------------------|


E|-----------------------|-----------------------|--------|--------|--------|--------|
B|-----------------------|-----------------------|--------|--------|--------|--------|
G|-7-------------4---7---|-9---7---6---7---------|--------|--------|--------|--------|
D|-----------4-----------|-----------------------|--------|--------|--------|--------|
A|-------5---------------|-----------------------|--------|--------|--------|--------|
E|-----------------------|-----------------------|--------|--------|--------|--------|
B|-----------------------|-----------------------|--------|--------|--------|--------|


E|--------|--------|--------|------------------------|---------------------------------|
B|--------|--------|--------|------------------------|---------------------------------|
G|--------|--------|--------|------------------------|---------------------------------|
D|--------|--------|--------|------------------------|---------------------------------|
A|--------|--------|--------|-------1--1--1----1--1--|-1----1--1--1---5--5--5----5--5--|
E|--------|--------|--------|-------1--1--1----1--1--|-1----1--1--1---5--5--5----5--5--|
B|--------|--------|--------|------------------------|----------------3--3--3----3--3--|


E|---------------------------------|---------------------------------|-----------------------------------|
B|---------------------------------|---------------------------------|-----------------------------------|
G|---------------------------------|---------------------------------|-----------------------------------|
D|---------------------------------|---------------------------------|-----------------------------------|
A|-5----5--5--5---7--7--7----7--7--|-7----9--9--9---10-10-10---10-10-|-10---12-12-12-12-1--1--1----1--1--|
E|-5----5--5--5---7--7--7----7--7--|-7----9--9--9---10-10-10---10-10-|-10---12-12-12-12-1--1--1----1--1--|
B|-3----3--3--3---5--5--5----5--5--|-5----7--7--7---8--8--8----8--8--|-8----10-10-10-10------------------|


E|---------------------------------|---------------------------------|---------------------------------|
B|---------------------------------|---------------------------------|---------------------------------|
G|---------------------------------|---------------------------------|---------------------------------|
D|---------------------------------|---------------------------------|---------------------------------|
A|-1----1--1--1---5--5--5----5--5--|-5----5--5--5---7--7--7----7--7--|-7----9--9--9---10-10-10---10-10-|
E|-1----1--1--1---5--5--5----5--5--|-5----5--5--5---7--7--7----7--7--|-7----9--9--9---10-10-10---10-10-|
B|----------------3--3--3----3--3--|-3----3--3--3---5--5--5----5--5--|-5----7--7--7---8--8--8----8--8--|


E|------------------------|-10-0--0--9--0--0--7--0--5--0--0--7--0--0--9--0--|-10-0--0--9--0--0--7--0--5--0--0--3--0--0--2--0--|
B|------------------------|-------------------------------------------------|-------------------------------------------------|
G|------------------------|-------------------------------------------------|-------------------------------------------------|
D|------------------------|-------------------------------------------------|-------------------------------------------------|
A|-10---12-12-12-12-------|-------------------------------------------------|-------------------------------------------------|
E|-10---12-12-12-12-------|-------------------------------------------------|-------------------------------------------------|
B|-8----10-10-10-10-------|-------------------------------------------------|-------------------------------------------------|


E|-10-0--0--9--0--0--7--0--5--0--0--7--0--0--9--0--|-4--0--0--5--0--0--7--0--5--0--0--3--0--0--2--0--|
B|-------------------------------------------------|-------------------------------------------------|
G|-------------------------------------------------|-------------------------------------------------|
D|-------------------------------------------------|-------------------------------------------------|
A|-------------------------------------------------|-------------------------------------------------|
E|-------------------------------------------------|-------------------------------------------------|
B|-------------------------------------------------|-------------------------------------------------|


E|-10-0--0--9--0--0--7--0--5--0--0--7--0--0--9--0--|-10-0--0--9--0--0--7--0--5--0--0--3--0--0--2--0--|
B|-------------------------------------------------|-------------------------------------------------|
G|-------------------------------------------------|-------------------------------------------------|
D|-------------------------------------------------|-------------------------------------------------|
A|-------------------------------------------------|-------------------------------------------------|
E|-------------------------------------------------|-------------------------------------------------|
B|-------------------------------------------------|-------------------------------------------------|


E|-10-0--0--9--0--0--7--0--5--0--0--7--0--0--9--0--|-4--0--0--5--0--0--7--0--5--0--0--3--0--0--2--0--|
B|-------------------------------------------------|-------------------------------------------------|
G|-------------------------------------------------|-------------------------------------------------|
D|-------------------------------------------------|-------------------------------------------------|
A|-------------------------------------------------|-------------------------------------------------|
E|-------------------------------------------------|-------------------------------------------------|
B|-------------------------------------------------|-------------------------------------------------|


E|-----------------------------------------|-------------------------------------------------|
B|----------12------------12---12-10-------|-------------------------------------------------|
G|-7--9--11------7--9--11------------12-11-|----14-12-14----14-12-14----14-12-14----14-12-14-|
D|-----------------------------------------|-12----------12----------12----------12----------|
A|-----------------------------------------|-------------------------------------------------|
E|-----------------------------------------|-------------------------------------------------|
B|-----------------------------------------|-------------------------------------------------|


E|-------------------------------------------------|------------------------------------------------------------|
B|-------------------------------------------------|------------------------------------------------------------|
G|-------------------------------------------------|-16-16-16-16-16-16-14-14-14-14-14-14-12-12-12-12-12-12-11---|
D|----16-14-16----16-14-16----16-14-16----16-14-16-|------------------------------------------------------------|
A|-14----------14----------14----------14----------|------------------------------------------------------------|
E|-------------------------------------------------|------------------------------------------------------------|
B|-------------------------------------------------|------------------------------------------------------------|


E|-------------------------------|-------------------------------|---------------------|
B|-------------------------------|-------------------------------|---------------------|
G|-------------------16-14-12-11-|-----14---12---14--12-14-12-11-|-----11---9----11----|
D|-----16---14---16--------------|-12----------------------------|-9-------------------|
A|-14----------------------------|-------------------------------|---------------------|
E|-------------------------------|-------------------------------|---------------------|
B|-------------------------------|-------------------------------|---------------------|


E|---------------------|-----------------------|------------------------------|-----------------------|
B|---------------------|-----------------------|------------------------------|-----------------------|
G|-----11---11---11----|---------4---7---7-----|---------4---7---6---7---3----|---------4---7---7-----|
D|-9-------------------|-----4-----------------|-----4------------------------|-----4-----------------|
A|---------------------|-5---------------------|-5----------------------------|-5---------------------|
E|---------------------|-----------------------|------------------------------|-----------------------|
B|---------------------|-----------------------|------------------------------|-----------------------|


E|------------------------------|-----------------------|------------------------------|
B|------------------------------|-----------------------|------------------------------|
G|---------4---7---6---7---2----|---------4---7---7-----|---------4---7---6---7---3----|
D|-----4------------------------|-----4-----------------|-----4------------------------|
A|-5----------------------------|-5---------------------|-5----------------------------|
E|------------------------------|-----------------------|------------------------------|
B|------------------------------|-----------------------|------------------------------|


E|-----------------------|-----------------------|-10-0--0--9--0--0--7--0--5--0--0--7--0--0--9--0--|
B|-----------------------|-----------------------|-------------------------------------------------|
G|---------4---7---7-----|---------4---7---------|-------------------------------------------------|
D|-----4-----------------|-----4-----------------|-------------------------------------------------|
A|-5---------------------|-5---------------2-----|-------------------------------------------------|
E|-----------------------|-----------------2-----|-------------------------------------------------|
B|-----------------------|-----------------0-----|-------------------------------------------------|


E|-10-0--0--9--0--0--7--0--5--0--0--3--0--0--2--0--|-10-0--0--9--0--0--7--0--5--0--0--7--0--0--9--0--|
B|-------------------------------------------------|-------------------------------------------------|
G|-------------------------------------------------|-------------------------------------------------|
D|-------------------------------------------------|-------------------------------------------------|
A|-------------------------------------------------|-------------------------------------------------|
E|-------------------------------------------------|-------------------------------------------------|
B|-------------------------------------------------|-------------------------------------------------|


E|-4--0--0--5--0--0--7--0--5--0--0--3--0--0--2--0--|-10-0--0--9--0--0--7--0--5--0--0--7--0--0--9--0--|
B|-------------------------------------------------|-------------------------------------------------|
G|-------------------------------------------------|-------------------------------------------------|
D|-------------------------------------------------|-------------------------------------------------|
A|-------------------------------------------------|-------------------------------------------------|
E|-------------------------------------------------|-------------------------------------------------|
B|-------------------------------------------------|-------------------------------------------------|


E|-10-0--0--9--0--0--7--0--5--0--0--3--0--0--2--0--|-10-0--0--9--0--0--7--0--5--0--0--7--0--0--9--0--|
B|-------------------------------------------------|-------------------------------------------------|
G|-------------------------------------------------|-------------------------------------------------|
D|-------------------------------------------------|-------------------------------------------------|
A|-------------------------------------------------|-------------------------------------------------|
E|-------------------------------------------------|-------------------------------------------------|
B|-------------------------------------------------|-------------------------------------------------|


E|-4--0--0--5--0--0--7--0--5--0--0--3--0--0--2--0--|-10-0--0--9--0--0--7--0--5--0--0--7--0--0--9--0--|
B|-------------------------------------------------|-------------------------------------------------|
G|-------------------------------------------------|-------------------------------------------------|
D|-------------------------------------------------|-------------------------------------------------|
A|-------------------------------------------------|-------------------------------------------------|
E|-------------------------------------------------|-------------------------------------------------|
B|-------------------------------------------------|-------------------------------------------------|


E|-10-0--0--9--0--0--7--0--5--0--0--3--0--0--2--0--|-10-0--0--9--0--0--7--0--5--0--0--7--0--0--9--0--|
B|-------------------------------------------------|-------------------------------------------------|
G|-------------------------------------------------|-------------------------------------------------|
D|-------------------------------------------------|-------------------------------------------------|
A|-------------------------------------------------|-------------------------------------------------|
E|-------------------------------------------------|-------------------------------------------------|
B|-------------------------------------------------|-------------------------------------------------|


E|-4--0--0--5--0--0--7--0--5--0--0--3--0--0--2--0--|-10-0--0--9--0--0--7--0--5--0--0--7--0--0--9--0--|
B|-------------------------------------------------|-------------------------------------------------|
G|-------------------------------------------------|-------------------------------------------------|
D|-------------------------------------------------|-------------------------------------------------|
A|-------------------------------------------------|-------------------------------------------------|
E|-------------------------------------------------|-------------------------------------------------|
B|-------------------------------------------------|-------------------------------------------------|


E|-10-0--0--9--0--0--7--0--5--0--0--3--0--0--2--0--|-10-0--0--9--0--0--7--0--5--0--0--7--0--0--9--0--|
B|-------------------------------------------------|-------------------------------------------------|
G|-------------------------------------------------|-------------------------------------------------|
D|-------------------------------------------------|-------------------------------------------------|
A|-------------------------------------------------|-------------------------------------------------|
E|-------------------------------------------------|-------------------------------------------------|
B|-------------------------------------------------|-------------------------------------------------|


E|-4--0--0--5--0--0--7--0--5--0--0--3--0--0--2--0--|-7--7--7--7----7--7--7--7----7--7----|
B|-------------------------------------------------|-7--7--7--7----7--7--7--7----7--7----|
G|-------------------------------------------------|-7--7--7--7----7--7--7--7----7--7----|
D|-------------------------------------------------|-9--9--9--9----9--9--9--9----9--9----|
A|-------------------------------------------------|-------------------------------------|
E|-------------------------------------------------|-------------------------------------|
B|-------------------------------------------------|-------------------------------------|


E|--------|
B|--------|
G|--------|
D|--------|
A|--------|
E|--------|
B|--------|





Track 4: Untitled

E|--------|--------|--------|--------|--------|--------|--------|--------|-----------------------|
B|--------|--------|--------|--------|--------|--------|--------|--------|-----------------------|
G|--------|--------|--------|--------|--------|--------|--------|--------|-------------4---4-----|
D|--------|--------|--------|--------|--------|--------|--------|--------|---------4-------------|
A|--------|--------|--------|--------|--------|--------|--------|--------|-2---5-----------------|
E|--------|--------|--------|--------|--------|--------|--------|--------|-----------------------|
B|--------|--------|--------|--------|--------|--------|--------|--------|-----------------------|


E|------------------------------|-----------------------|------------------------------|
B|------------------------------|-----------------------|------------------------------|
G|-------------4---3---4--------|-------------4---4-----|-------------4---3---4--------|
D|---------4---------------5----|---------4-------------|---------4---------------4----|
A|-2---5------------------------|-2---5-----------------|-2---5------------------------|
E|------------------------------|-----------------------|------------------------------|
B|------------------------------|-----------------------|------------------------------|


E|-----------------------|------------------------------|-----------------------|-------------------------------------|
B|-----------------------|------------------------------|-----------------------|-------------------------------------|
G|-------------4---4-----|-------------4---3---4--------|-------------4---4-----|-------------4-----------------------|
D|---------4-------------|---------4---------------5----|---------4-------------|---------4-------5--5------4--4------|
A|-2---5-----------------|-2---5------------------------|-2---5-----------------|-2---5-----------5--5------4--4------|
E|-----------------------|------------------------------|-----------------------|-----------------3--3------2--2------|
B|-----------------------|------------------------------|-----------------------|-------------------------------------|


E|-----------------------|------------------------------|-----------------------|------------------------------|
B|-----------------------|------------------------------|-----------------------|------------------------------|
G|-------------4---4-----|-------------4---3---4--------|-------------4---4-----|-------------4---3---4--------|
D|---------4-------------|---------4---------------5----|---------4-------------|---------4---------------4----|
A|-2---5-----------------|-2---5------------------------|-2---5-----------------|-2---5------------------------|
E|-----------------------|------------------------------|-----------------------|------------------------------|
B|-----------------------|------------------------------|-----------------------|------------------------------|


E|-----------------------|------------------------------|-----------------------|---------------------------------|
B|-----------------------|------------------------------|-----------------------|---------------------------------|
G|-------------4---4-----|-------------4---3---4--------|-------------4---4-----|-------------4---6---4---3-------|
D|---------4-------------|---------4---------------5----|---------4-------------|---------4-------------------4---|
A|-2---5-----------------|-2---5------------------------|-2---5-----------------|-2---5---------------------------|
E|-----------------------|------------------------------|-----------------------|---------------------------------|
B|-----------------------|------------------------------|-----------------------|---------------------------------|


E|--------|--------|--------|--------|--------|--------|--------|--------|--------|
B|--------|--------|--------|--------|--------|--------|--------|--------|--------|
G|--------|--------|--------|--------|--------|--------|--------|--------|--------|
D|--------|--------|--------|--------|--------|--------|--------|--------|--------|
A|--------|--------|--------|--------|--------|--------|--------|--------|--------|
E|--------|--------|--------|--------|--------|--------|--------|--------|--------|
B|--------|--------|--------|--------|--------|--------|--------|--------|--------|


E|--------|--------|--------|--------|--------|--------|--------|-------------------------------|
B|--------|--------|--------|--------|--------|--------|--------|-------12-0--0--10-0--0--8--0--|
G|--------|--------|--------|--------|--------|--------|--------|-------------------------------|
D|--------|--------|--------|--------|--------|--------|--------|-------------------------------|
A|--------|--------|--------|--------|--------|--------|--------|-------------------------------|
E|--------|--------|--------|--------|--------|--------|--------|-------------------------------|
B|--------|--------|--------|--------|--------|--------|--------|-------------------------------|


E|-------------------------------------------------|-------------------------------------------------|
B|-7--0--0--8--0--0--10-0--12-0--0--10-0--0--8--0--|-7--0--0--5--0--0--3--0--12-0--0--10-0--0--8--0--|
G|-------------------------------------------------|-------------------------------------------------|
D|-------------------------------------------------|-------------------------------------------------|
A|-------------------------------------------------|-------------------------------------------------|
E|-------------------------------------------------|-------------------------------------------------|
B|-------------------------------------------------|-------------------------------------------------|


E|-------------------------------------------------|-------------------------------------------------|
B|-7--0--0--8--0--0--10-0--5--0--0--7--0--0--9--0--|-7--0--0--5--0--0--3--0--12-0--0--10-0--0--8--0--|
G|-------------------------------------------------|-------------------------------------------------|
D|-------------------------------------------------|-------------------------------------------------|
A|-------------------------------------------------|-------------------------------------------------|
E|-------------------------------------------------|-------------------------------------------------|
B|-------------------------------------------------|-------------------------------------------------|


E|-------------------------------------------------|-------------------------------------------------|
B|-7--0--0--8--0--0--10-0--12-0--0--10-0--0--8--0--|-7--0--0--5--0--0--3--0--12-0--0--10-0--0--8--0--|
G|-------------------------------------------------|-------------------------------------------------|
D|-------------------------------------------------|-------------------------------------------------|
A|-------------------------------------------------|-------------------------------------------------|
E|-------------------------------------------------|-------------------------------------------------|
B|-------------------------------------------------|-------------------------------------------------|


E|-------------------------------------------------|-----------------------------------------|
B|-7--0--0--8--0--0--10-0--5--0--0--7--0--0--9--0--|-7--0--0--5--0--0--3--0------------------|
G|-------------------------------------------------|-------------------------------------4---|
D|-------------------------------------------------|---------------------------------4-------|
A|-------------------------------------------------|-------------------------2---5-----------|
E|-------------------------------------------------|-----------------------------------------|
B|-------------------------------------------------|-----------------------------------------|


E|-----------------------|------------------------------|-----------------------|-----------------------|
B|-----------------------|------------------------------|-----------------------|-----------------------|
G|-4-----------------4---|-3---4--------------------4---|-4-----------------4---|-6---4---3---4---------|
D|---------------4-------|---------5------------4-------|---------------4-------|-----------------------|
A|-------2---5-----------|--------------2---5-----------|-------2---5-----------|-----------------------|
E|-----------------------|------------------------------|-----------------------|-----------------------|
B|-----------------------|------------------------------|-----------------------|-----------------------|


E|--------|--------|--------|--------|--------|--------|--------|--------|--------|
B|--------|--------|--------|--------|--------|--------|--------|--------|--------|
G|--------|--------|--------|--------|--------|--------|--------|--------|--------|
D|--------|--------|--------|--------|--------|--------|--------|--------|--------|
A|--------|--------|--------|--------|--------|--------|--------|--------|--------|
E|--------|--------|--------|--------|--------|--------|--------|--------|--------|
B|--------|--------|--------|--------|--------|--------|--------|--------|--------|


E|--------|--------|--------|--------|--------|--------|--------|-------------------------------------------------|
B|--------|--------|--------|--------|--------|--------|--------|-12-0--0--10-0--0--8--0--7--0--0--8--0--0--10-0--|
G|--------|--------|--------|--------|--------|--------|--------|-------------------------------------------------|
D|--------|--------|--------|--------|--------|--------|--------|-------------------------------------------------|
A|--------|--------|--------|--------|--------|--------|--------|-------------------------------------------------|
E|--------|--------|--------|--------|--------|--------|--------|-------------------------------------------------|
B|--------|--------|--------|--------|--------|--------|--------|-------------------------------------------------|


E|-------------------------------------------------|-------------------------------------------------|
B|-12-0--0--10-0--0--8--0--7--0--0--5--0--0--3--0--|-12-0--0--10-0--0--8--0--7--0--0--8--0--0--10-0--|
G|-------------------------------------------------|-------------------------------------------------|
D|-------------------------------------------------|-------------------------------------------------|
A|-------------------------------------------------|-------------------------------------------------|
E|-------------------------------------------------|-------------------------------------------------|
B|-------------------------------------------------|-------------------------------------------------|


E|-------------------------------------------------|-------------------------------------------------|
B|-5--0--0--7--0--0--9--0--7--0--0--5--0--0--3--0--|-12-0--0--10-0--0--8--0--7--0--0--8--0--0--10-0--|
G|-------------------------------------------------|-------------------------------------------------|
D|-------------------------------------------------|-------------------------------------------------|
A|-------------------------------------------------|-------------------------------------------------|
E|-------------------------------------------------|-------------------------------------------------|
B|-------------------------------------------------|-------------------------------------------------|


E|-------------------------------------------------|-------------------------------------------------|
B|-12-0--0--10-0--0--8--0--7--0--0--5--0--0--3--0--|-12-0--0--10-0--0--8--0--7--0--0--8--0--0--10-0--|
G|-------------------------------------------------|-------------------------------------------------|
D|-------------------------------------------------|-------------------------------------------------|
A|-------------------------------------------------|-------------------------------------------------|
E|-------------------------------------------------|-------------------------------------------------|
B|-------------------------------------------------|-------------------------------------------------|


E|-------------------------------------------------|-----------------------------------------|
B|-5--0--0--7--0--0--9--0--7--0--0--5--0--0--3--0--|-----------------------------------------|
G|-------------------------------------------------|----------12------------12---12-11-------|
D|-------------------------------------------------|-9--11-12------9--11-12------------14-12-|
A|-------------------------------------------------|-----------------------------------------|
E|-------------------------------------------------|-----------------------------------------|
B|-------------------------------------------------|-----------------------------------------|


E|-------------------------------------------------|-------------------------------------------------|
B|-------------------------------------------------|-------------------------------------------------|
G|----11-9--11----11-9--11----11-9--11----11-9--11-|-------------------------------------------------|
D|-9-----------9-----------9-----------9-----------|----12-11-12----12-11-12----12-11-12----12-11-12-|
A|-------------------------------------------------|-10----------10----------10----------10----------|
E|-------------------------------------------------|-------------------------------------------------|
B|-------------------------------------------------|-------------------------------------------------|


E|------------------------------------------------------------|-------------------------------|
B|------------------------------------------------------------|-------------------------------|
G|------------------------------------------------------------|-------------------11-9--7--6--|
D|-16-16-16-16-16-16-14-14-14-14-14-14-12-12-12-12-12-12-11---|-----12---11---12--------------|
A|------------------------------------------------------------|-10----------------------------|
E|------------------------------------------------------------|-------------------------------|
B|------------------------------------------------------------|-------------------------------|


E|-------------------------------|---------------------|---------------------|-----------------------|
B|-------------------------------|---------------------|---------------------|-----------------------|
G|-----11---9----11--9--11-9--7--|---------------------|---------------------|-------------4---4-----|
D|-9-----------------------------|-----12---11---12----|-----12---12---12----|---------4-------------|
A|-------------------------------|-10------------------|-10------------------|-2---5-----------------|
E|-------------------------------|---------------------|---------------------|-----------------------|
B|-------------------------------|---------------------|---------------------|-----------------------|


E|------------------------------|-----------------------|------------------------------|
B|------------------------------|-----------------------|------------------------------|
G|-------------4---3---4--------|-------------4---4-----|-------------4---3---4--------|
D|---------4---------------5----|---------4-------------|---------4---------------4----|
A|-2---5------------------------|-2---5-----------------|-2---5------------------------|
E|------------------------------|-----------------------|------------------------------|
B|------------------------------|-----------------------|------------------------------|


E|-----------------------|------------------------------|-----------------------|-----------------------|
B|-----------------------|------------------------------|-----------------------|-----------------------|
G|-------------4---4-----|-------------4---3---4--------|-------------4---4-----|-------------4---------|
D|---------4-------------|---------4---------------5----|---------4-------------|---------4-------------|
A|-2---5-----------------|-2---5------------------------|-2---5-----------------|-2---5-----------2-----|
E|-----------------------|------------------------------|-----------------------|-----------------2-----|
B|-----------------------|------------------------------|-----------------------|-----------------0-----|


E|-------------------------------------------------|-------------------------------------------------|
B|-12-0--0--10-0--0--8--0--7--0--0--8--0--0--10-0--|-12-0--0--10-0--0--8--0--7--0--0--5--0--0--3--0--|
G|-------------------------------------------------|-------------------------------------------------|
D|-------------------------------------------------|-------------------------------------------------|
A|-------------------------------------------------|-------------------------------------------------|
E|-------------------------------------------------|-------------------------------------------------|
B|-------------------------------------------------|-------------------------------------------------|


E|-------------------------------------------------|-------------------------------------------------|
B|-12-0--0--10-0--0--8--0--7--0--0--8--0--0--10-0--|-5--0--0--7--0--0--9--0--7--0--0--5--0--0--3--0--|
G|-------------------------------------------------|-------------------------------------------------|
D|-------------------------------------------------|-------------------------------------------------|
A|-------------------------------------------------|-------------------------------------------------|
E|-------------------------------------------------|-------------------------------------------------|
B|-------------------------------------------------|-------------------------------------------------|


E|-------------------------------------------------|-------------------------------------------------|
B|-12-0--0--10-0--0--8--0--7--0--0--8--0--0--10-0--|-12-0--0--10-0--0--8--0--7--0--0--5--0--0--3--0--|
G|-------------------------------------------------|-------------------------------------------------|
D|-------------------------------------------------|-------------------------------------------------|
A|-------------------------------------------------|-------------------------------------------------|
E|-------------------------------------------------|-------------------------------------------------|
B|-------------------------------------------------|-------------------------------------------------|


E|-------------------------------------------------|-------------------------------------------------|
B|-12-0--0--10-0--0--8--0--7--0--0--8--0--0--10-0--|-5--0--0--7--0--0--9--0--7--0--0--5--0--0--3--0--|
G|-------------------------------------------------|-------------------------------------------------|
D|-------------------------------------------------|-------------------------------------------------|
A|-------------------------------------------------|-------------------------------------------------|
E|-------------------------------------------------|-------------------------------------------------|
B|-------------------------------------------------|-------------------------------------------------|


E|-------------------------------------------------|-------------------------------------------------|
B|-12-0--0--10-0--0--8--0--7--0--0--8--0--0--10-0--|-12-0--0--10-0--0--8--0--7--0--0--5--0--0--3--0--|
G|-------------------------------------------------|-------------------------------------------------|
D|-------------------------------------------------|-------------------------------------------------|
A|-------------------------------------------------|-------------------------------------------------|
E|-------------------------------------------------|-------------------------------------------------|
B|-------------------------------------------------|-------------------------------------------------|


E|-------------------------------------------------|-------------------------------------------------|
B|-12-0--0--10-0--0--8--0--7--0--0--8--0--0--10-0--|-5--0--0--7--0--0--9--0--7--0--0--5--0--0--3--0--|
G|-------------------------------------------------|-------------------------------------------------|
D|-------------------------------------------------|-------------------------------------------------|
A|-------------------------------------------------|-------------------------------------------------|
E|-------------------------------------------------|-------------------------------------------------|
B|-------------------------------------------------|-------------------------------------------------|


E|-------------------------------------------------|-------------------------------------------------|
B|-12-0--0--10-0--0--8--0--7--0--0--8--0--0--10-0--|-12-0--0--10-0--0--8--0--7--0--0--5--0--0--3--0--|
G|-------------------------------------------------|-------------------------------------------------|
D|-------------------------------------------------|-------------------------------------------------|
A|-------------------------------------------------|-------------------------------------------------|
E|-------------------------------------------------|-------------------------------------------------|
B|-------------------------------------------------|-------------------------------------------------|


E|-------------------------------------------------|-------------------------------------------------|
B|-12-0--0--10-0--0--8--0--7--0--0--8--0--0--10-0--|-5--0--0--7--0--0--9--0--7--0--0--5--0--0--3--0--|
G|-------------------------------------------------|-------------------------------------------------|
D|-------------------------------------------------|-------------------------------------------------|
A|-------------------------------------------------|-------------------------------------------------|
E|-------------------------------------------------|-------------------------------------------------|
B|-------------------------------------------------|-------------------------------------------------|


E|-------------------------------------|--------|
B|-------------------------------------|--------|
G|-------------------------------------|--------|
D|-9--9--9--9----9--9--9--9----9--9----|--------|
A|-9--9--9--9----9--9--9--9----9--9----|--------|
E|-7--7--7--7----7--7--7--7----7--7----|--------|
B|-------------------------------------|--------|





Track 5: Untitled

G|---------4---7---7-----|---------4---7---6---7---3----|---------4---7---7-----|---------4---7---6---7---2----|
D|-----4-----------------|-----4------------------------|-----4-----------------|-----4------------------------|
A|-2---------------------|-2----------------------------|-2---------------------|-2----------------------------|
E|-----------------------|------------------------------|-----------------------|------------------------------|
B|-----------------------|------------------------------|-----------------------|------------------------------|


G|---------4---7---7-----|---------4---7---6---7---3----|---------4---7---7-----|---------4---7-----------------------|
D|-----4-----------------|-----4------------------------|-----4-----------------|-----4-------------------------------|
A|-2---------------------|-2----------------------------|-2---------------------|-2-----------------------------------|
E|-----------------------|------------------------------|-----------------------|-----------------3--3------2--2------|
B|-----------------------|------------------------------|-----------------------|-------------------------------------|


G|--------|--------|--------|--------|--------|--------|--------|---------------------------|
D|--------|--------|--------|--------|--------|--------|--------|---------------------------|
A|--------|--------|--------|--------|--------|--------|--------|---------------------------|
E|--------|--------|--------|--------|--------|--------|--------|-------3--3------2--2------|
B|-0------|-0------|-0------|-0------|-0------|-0------|-0------|-0-------------------------|


G|---------------------------------|---------------------------------|---------------------------------|
D|---------------------------------|---------------------------------|---------------------------------|
A|---------------------------------|---------------------------------|---------------------------------|
E|---------------------------------|-----------------3---3---3---3---|---------------------------------|
B|-0---0---0---0---0---0---0---0---|-0---0---0---0-------------------|-0---0---0---0---0---0---0---0---|


G|---------------------------|---------------------------------|---------------------------------|
D|---------------------------|---------------------------------|---------------------------------|
A|---------------------------|---------------------------------|---------------------------------|
E|-----------------6----2----|---------------------------------|-----------------3---3---3---3---|
B|-0---0---0---0-------------|-0---0---0---0---0---0---0---0---|-0---0---0---0-------------------|


G|---------------------------------|---------------------------|---------------------------------|
D|---------------------------------|---------------------------|---------------------------------|
A|---------------------------------|---------------------------|---------------------------------|
E|---------------------------------|-----------------3----2----|---------------------------------|
B|-0---0---0---0---0---0---0---0---|-0---0---0---0-------------|-0---0---0---0---0---0---0---0---|


G|---------------------------------|---------------------------------|---------------------------|
D|---------------------------------|---------------------------------|---------------------------|
A|---------------------------------|---------------------------------|---------------------------|
E|-----------------3---3---3---3---|---------------------------------|-----------------6----2----|
B|-0---0---0---0-------------------|-0---0---0---0---0---0---0---0---|-0---0---0---0-------------|


G|---------------------------------|---------------------------------|---------------------------------|
D|---------------------------------|---------------------------------|---------------------------------|
A|---------------------------------|---------------------------------|---------------------------------|
E|---------------------------------|-----------------3---3---3---3---|---------------------------------|
B|-0---0---0---0---0---0---0---0---|-0---0---0---0-------------------|-0---0---0---0---0---0---0---0---|


G|---------------------------|---------------------------------|---------------------------------|
D|---------------------------|---------------------------------|---------------------------------|
A|---------------------------|-1--1--1----1--1--1----1--1--1---|-5--5--5----5--5--5----5--5--5---|
E|-----------------3----2----|---------------------------------|---------------------------------|
B|-0---0---0---0-------------|---------------------------------|---------------------------------|


G|---------------------------------|---------------------------------|---------------------------------|
D|---------------------------------|---------------------------------|---------------------------------|
A|-7--7--7----7--7--7----9--9--9---|---------------------------------|-1--1--1----1--1--1----1--1--1---|
E|---------------------------------|-3--3--3----3--3--3----5--5--5---|---------------------------------|
B|---------------------------------|---------------------------------|---------------------------------|


G|---------------------------------|---------------------------------|---------------------------------|
D|---------------------------------|---------------------------------|---------------------------------|
A|-5--5--5----5--5--5----5--5--5---|-7--7--7----7--7--7----9--9--9---|---------------------------------|
E|---------------------------------|---------------------------------|-3--3--3----3--3--3----5--5--5---|
B|---------------------------------|---------------------------------|---------------------------------|


G|-----------------------|---------------------------------|---------------------------------|
D|-----------------------|---------------------------------|---------------------------------|
A|-----------------------|---------------------------------|---------------------------------|
E|-----------------------|-4---4---4---4---3---3---3---3---|-0---0---0---0-------------------|
B|-------0---0---0---0---|---------------------------------|-----------------0---0---0---0---|


G|---------------------------------|---------------------------------|---------------------------------|
D|---------------------------------|---------------------------------|---------------------------------|
A|---------------------------------|---------------------------------|---------------------------------|
E|-----------------4---4---4---4---|-3---3---3---3-------------------|-4---4---4---4---3---3---3---3---|
B|-3---3---3---3-------------------|-----------------0---0---0---0---|---------------------------------|


G|---------------------------------|---------------------------------|-----------------------|
D|---------------------------------|---------------------------------|-----------------------|
A|---------------------------------|---------------------------------|-----------------------|
E|-0---0---0---0-------------------|-----------------4---4---4---4---|-3---3---3---3---------|
B|-----------------0---0---0---0---|-3---3---3---3-------------------|-----------------------|


G|---------------------------|---------------------------------|---------------------------------|
D|---------------------------|---------------------------------|---------------------------------|
A|---------------------------|---------------------------------|---------------------------------|
E|------2--------------------|-3---3---3---3-------------------|---------------------------------|
B|-----------0---0---0---0---|-----------------0---0---0---0---|-0---0---0---0---0---0---0---0---|


G|---------------------------|---------------------------------|---------------------------------|
D|---------------------------|---------------------------------|---------------------------------|
A|---------------------------|---------------------------------|---------------------------------|
E|-3----2--------------------|---------------------------------|-3---3---3---3-------------------|
B|-----------0---0---0---0---|-0---0---0---0---0---0---0---0---|-----------------0---0---0---0---|


G|---------------------------------|---------------------------|---------------------------------|
D|---------------------------------|---------------------------|---------------------------------|
A|---------------------------------|---------------------------|---------------------------------|
E|---------------------------------|-6----2--------------------|---------------------------------|
B|-0---0---0---0---0---0---0---0---|-----------0---0---0---0---|-0---0---0---0---0---0---0---0---|


G|---------------------------------|---------------------------------|----------------------------|
D|---------------------------------|---------------------------------|----------------------------|
A|---------------------------------|---------------------------------|-----------1--1--1----1--1--|
E|-3---3---3---3-------------------|---------------------------------|-3----2---------------------|
B|-----------------0---0---0---0---|-0---0---0---0---0---0---0---0---|----------------------------|


G|---------------------------------|---------------------------------|---------------------------------|
D|---------------------------------|---------------------------------|---------------------------------|
A|-1----1--1--1---5--5--5----5--5--|-5----5--5--5---7--7--7----7--7--|-7----9--9--9--------------------|
E|---------------------------------|---------------------------------|----------------3--3--3----3--3--|
B|---------------------------------|---------------------------------|---------------------------------|


G|---------------------------------|---------------------------------|---------------------------------|
D|---------------------------------|---------------------------------|---------------------------------|
A|----------------1--1--1----1--1--|-1----1--1--1---5--5--5----5--5--|-5----5--5--5---7--7--7----7--7--|
E|-3----5--5--5--------------------|---------------------------------|---------------------------------|
B|---------------------------------|---------------------------------|---------------------------------|


G|---------------------------------|----------------------|---------------------------------|
D|---------------------------------|----------------------|---------------------------------|
A|-7----9--9--9--------------------|----------------------|---------------------------------|
E|----------------3--3--3----3--3--|-3----5--5--5---------|-----------------4---4---4---4---|
B|---------------------------------|----------------------|-0---0---0---0-------------------|


G|---------------------------------|---------------------------------|---------------------------------|
D|---------------------------------|---------------------------------|---------------------------------|
A|---------------------------------|---------------------------------|---------------------------------|
E|-3---3---3---3---0---0---0---0---|---------------------------------|-4---4---4---4---3---3---3---3---|
B|---------------------------------|-0---0---0---0---3---3---3---3---|---------------------------------|


G|---------------------------------|---------------------------------|---------------------------------|
D|---------------------------------|---------------------------------|---------------------------------|
A|---------------------------------|---------------------------------|---------------------------------|
E|-----------------4---4---4---4---|-3---3---3---3---0---0---0---0---|---------------------------------|
B|-0---0---0---0-------------------|---------------------------------|-0---0---0---0---3---3---3---3---|


G|---------------------------------|-----------------------------------------|-----------------------------------------|
D|---------------------------------|-----------------------------------------|-----------------------------------------|
A|---------------------------------|-----------------------------------------|-----------------------------------------|
E|-4---4---4---4---3---3---3---3---|-3--3--3--3----3--3--3--3----3--3--3--3--|-7--7--7--7----7--7--7--7----5--5--5--5--|
B|---------------------------------|-----------------------------------------|-----------------------------------------|


G|-----------------------------------------|-------------------------------------|
D|-----------------------------------------|-------------------------------------|
A|-----------------------------------------|-------------------------------------|
E|-3--3--3--3----3--3--3--3----3--3--3--3--|-7--7--7--7----7--7--7--7------------|
B|-----------------------------------------|-----------------------------3---3---|


G|-----------------------------------------|-----------------------------------------|
D|-----------------------------------------|-----------------------------------------|
A|-----------------------------------------|-----------------------------------------|
E|-3--3--3--3----3--3--3--3----3--3--3--3--|-7--7--7--7----7--7--7--7----7--7--7--7--|
B|-----------------------------------------|-----------------------------------------|


G|-------------------------------------|-----------------------------------------|
D|-------------------------------------|-----------------------------------------|
A|-------------------------------------|-----------------------------------------|
E|-0--0--0--0----0--0--0--0----2---2---|-3--3--3--3----3--3--3--3----5--5--5--5--|
B|-------------------------------------|-----------------------------------------|


G|--------|-----------------|--------|-----------------|--------|-----------------|
D|--------|-----------------|--------|-----------------|--------|-----------------|
A|--------|-----------------|--------|-----------------|--------|-----------------|
E|--------|-------3----3----|--------|-------6----2----|--------|-------3----3----|
B|-0------|-0---------------|-0------|-0---------------|-0------|-0---------------|


G|--------|-------------|---------------------------------|---------------------------------|
D|--------|-------------|---------------------------------|---------------------------------|
A|--------|-------------|---------------------------------|---------------------------------|
E|--------|-------------|-----------------4---4---4---4---|-3---3---3---3---0---0---0---0---|
B|-0------|-0-----0-----|-0---0---0---0-------------------|---------------------------------|


G|---------------------------------|---------------------------------|---------------------------------|
D|---------------------------------|---------------------------------|---------------------------------|
A|---------------------------------|---------------------------------|---------------------------------|
E|---------------------------------|-4---4---4---4---3---3---3---3---|-----------------4---4---4---4---|
B|-0---0---0---0---3---3---3---3---|---------------------------------|-0---0---0---0-------------------|


G|---------------------------------|---------------------------------|---------------------------------|
D|---------------------------------|---------------------------------|---------------------------------|
A|---------------------------------|---------------------------------|---------------------------------|
E|-3---3---3---3---0---0---0---0---|---------------------------------|-4---4---4---4---3---3---3---3---|
B|---------------------------------|-0---0---0---0---3---3---3---3---|---------------------------------|


G|---------------------------------|---------------------------------|---------------------------------|
D|---------------------------------|---------------------------------|---------------------------------|
A|---------------------------------|---------------------------------|---------------------------------|
E|-----------------4---4---4---4---|-3---3---3---3---0---0---0---0---|---------------------------------|
B|-0---0---0---0-------------------|---------------------------------|-0---0---0---0---3---3---3---3---|


G|---------------------------------|---------------------------------|---------------------------------|
D|---------------------------------|---------------------------------|---------------------------------|
A|---------------------------------|---------------------------------|---------------------------------|
E|-4---4---4---4---3---3---3---3---|-----------------4---4---4---4---|-3---3---3---3---0---0---0---0---|
B|---------------------------------|-0---0---0---0-------------------|---------------------------------|


G|---------------------------------|---------------------------------|-------------------------------------|
D|---------------------------------|---------------------------------|-------------------------------------|
A|---------------------------------|---------------------------------|-------------------------------------|
E|---------------------------------|-4---4---4---4---3---3---3---3---|-7--7--7--7----7--7--7--7----7--7----|
B|-0---0---0---0---3---3---3---3---|---------------------------------|-------------------------------------|


G|--------|
D|--------|
A|--------|
E|--------|
B|--------|