Site menu:

    

Browse: 0-9 A B C D E F G H I J K L N O P Q R S T U V W X Y Z

hypocrisy - apocalypse:



/---------------------------------------------------------------------------
/ The following is the author's own interpretation of the song, to be used -
/ for studying or private use only, removal of any part of this ten line   -
/ header is illegal!!!  Removal of the transcribers name or anything       -
/ relevant to the transcriber is also illegal, as so is the removal of the -
/ place inwhich the tab was downloaded. Publishing as well as printing of  -
/ the tab is illegal without permission of the transcriber and copyright   -
/ owner of the song. Failure to apply to these laws result will in legal   -
/ action from the appropriate parties.                                     -
/---------------------------------------------------------------------------
downloaded from the Catacombs of Displacer's Death Tab Site at
        http://www.dsrmusic.com/metaltab
join the death/black tab emailing list by filling out the free
subscription form at http://www.dsrmusic.com/metaltab/join.htm

                             HYPOCRISY
                            
                            APOCALYPSE 

the first track off "the fourth dimension":
  
INTRO when the choir keyboard effect starts:
-----

e----------|----------|----------|----------|---------|----------|
b----------|----------|----------|----------|---------|----------|
g----------|----------|----------|----------|---------|----------|
d----------|----------|----------|----------|---------|----------|
a-2--------|-4----4---|-2--------|-4----4---|-2-------|-3----3---|
e-0--------|-2----2---|-0--------|-2----2---|-0-------|-1----1---|

e----------|----------|----------|
b----------|----------|----------|
g----------|----------|----------|
d----------|----------|----------|
a-2--------|-4----4---|-2---2----|
e-0--------|-2----2---|-0---0----|
                      /--pm------/
riff1:
------

e----------|----------|----------|
b----------|----------|----------|
g----------|----------|----------|
d-7--9h10--|-10-7---9-|-5-7--4-5-|
a----------|----------|----------|
e----------|----------|----------|
"have mercy its the ending of your life"

riff2:the clean bass tone 
-----

e----------|----------|----------|----------|
b----------|----------|----------|----------|
g----------|----------|----------|----------|
d----------|----------|----------|----------|
a---2------|-3--2h3---|---2------|----------|
e-0--2h3p2-|----------|-0--2h3p2-|-5--2h3---|



the verse: 
----------

e----------|----------|----------|----------|----------|
b----------|----------|----------|----------|----------|
g----------|----------|----------|----------|----------|
d----------|----------|----------|----------|----------|
a-2--------|-5--4-5-4-|-2--------|-5--4-5-4-|--3-------|
e-0--------|-3--2-3-2-|-0--------|-3--2-3-2-|--1-------|
"since i was a child i saw my own way the skies were black!!
im so sick of you preaching me about heaven all this bullshit about paradise"

the hyms of the monks thing:
-----------------------------
e----------|----------|----------|----------|
b----------|----------|----------|----------|
g----------|----------|----------|----------|
d---2------|3--2h3----|---2------|----------|
a-0--2h3p2-|----------|-0--2h3p2-|-5--2h3---|
e----------|----------|----------|----------|
i think the hyms are "freedom is hell" & "your freedom is here"

the second verse:
----------------

e----------|----------|----------|----------|
b----------|----------|----------|----------|
g----------|----------|----------|----------|
d----------|----------|----------|----------|
a-5--------|-4------5-|--3-------|----2-----|
e-3--------|-2------3-|--1-------|----0-----|

"the christians must be stopped from spreding all the lies the only way togather
them ohhhhh with the sound of the bells!!!"

the solo(i know there are some mistakes but you can figure them out your self its
an easy solo but i did'nt give it much time"

e----------|----------|-^8-------|----------|----------|----------|
b---7--9-10|-9---7--6-|----------|----------|----------|----------|
g----------|----------|----------|----------|----------|----------|
d----------|----------|----------|--7--9-10-|-9---7----|----------|
a----------|----------|----------|----------|----------|-10--9-7--|
e----------|----------|----------|----------|----------|----------|
                                  /---pm--------------------------/
e----------|----------|----------|----------|----------|----------|
b----------|----------|----------|----------|----------|----------|
g----------|----------|----------|----------|----------|----------|
d----------|-/7-9-11--|-7-9-10---|-^12----12|-10-9-----|-9h10p9---|
a----------|----------|----------|----------|----------|----------|
e-10-9-----|----------|----------|----------|----------|----------|
-pm--------/

thats every thing in the song have fun !
tabbed by "Abdel latif"
any comments,corrections,or if you want more tabs for HYPOCRISY just email me

or gutted17@HOTMAIL.COM