Site menu:

    

Browse: 0-9 A B C D E F G H I J K L N O P Q R S T U V W X Y Z

hole - malibu:



Title: Malibu
Artist: 
Album: Celebrity Skin
Author: Courtney Love, Eric Erlandson, Billy Corgan


Track 1: Acoustic (center)

E|------2----2---2---2---2---|-2---2---2---2----2---2---2--2--|-0----0----0---0---0---0---|
B|------3----3---3---3---3---|-3---3---3---3----3---3---3--3--|-3----3----3---3---3---2---|
G|------0----0---0---0---2---|-2---2---2---2----2---2---2--2--|-4----4----4---4---4---2---|
D|------2----2---2---2---0---|-0---0---0---0----0---0---0--0--|-4----4----4---4---4---2---|
A|------2----2---2---2-------|--------------------------------|-2----2----2---2---2---0---|
E|------0----0---0---0-------|--------------------------------|---------------------------|


E|-0---0---0---0----0---0-------|------2----2---2---2---2---|-2---2---2---2----2---2---2--2--|
B|-2---2---2---2----2---2---0---|------3----3---3---3---3---|-3---3---3---3----3---3---3--3--|
G|-2---2---2---2----2---2---2---|------0----0---0---0---2---|-2---2---2---2----2---2---2--2--|
D|-2---2---2---2----2---2---2---|------2----2---2---2---0---|-0---0---0---0----0---0---0--0--|
A|-0---0---0---0----0---0-------|------2----2---2---2-------|--------------------------------|
E|------------------------------|------0----0---0---0-------|--------------------------------|


E|-0----0----0---0---0---0---|-0---0---0---0----0---0-------|------2----2---2---2---2---|
B|-3----3----3---3---3---2---|-2---2---2---2----2---2---0---|------3----3---3---3---3---|
G|-4----4----4---4---4---2---|-2---2---2---2----2---2---2---|------0----0---0---0---2---|
D|-4----4----4---4---4---2---|-2---2---2---2----2---2---2---|------2----2---2---2---0---|
A|-2----2----2---2---2---0---|-0---0---0---0----0---0-------|------2----2---2---2-------|
E|---------------------------|------------------------------|------0----0---0---0-------|


E|-2---2---2---2----2---2---2--2--|-0----0----0---0---0---0---|-0---0---0---0----0---0-------|
B|-3---3---3---3----3---3---3--3--|-3----3----3---3---3---2---|-2---2---2---2----2---2---0---|
G|-2---2---2---2----2---2---2--2--|-4----4----4---4---4---2---|-2---2---2---2----2---2---2---|
D|-0---0---0---0----0---0---0--0--|-4----4----4---4---4---2---|-2---2---2---2----2---2---2---|
A|--------------------------------|-2----2----2---2---2---0---|-0---0---0---0----0---0-------|
E|--------------------------------|---------------------------|------------------------------|


E|------2----2---2---2---2---|-2---2---2---2----2---2---2--2--|-0----0----0---0---0---0---|
B|------3----3---3---3---3---|-3---3---3---3----3---3---3--3--|-3----3----3---3---3---2---|
G|------0----0---0---0---2---|-2---2---2---2----2---2---2--2--|-4----4----4---4---4---2---|
D|------2----2---2---2---0---|-0---0---0---0----0---0---0--0--|-4----4----4---4---4---2---|
A|------2----2---2---2-------|--------------------------------|-2----2----2---2---2---0---|
E|------0----0---0---0-------|--------------------------------|---------------------------|


E|-0---0---0---0----0---0-------|------2----2---2---2---2---|-2---2---2---2----2---2---2--2--|
B|-2---2---2---2----2---2---0---|------3----3---3---3---3---|-3---3---3---3----3---3---3--3--|
G|-2---2---2---2----2---2---2---|------0----0---0---0---2---|-2---2---2---2----2---2---2--2--|
D|-2---2---2---2----2---2---2---|------2----2---2---2---0---|-0---0---0---0----0---0---0--0--|
A|-0---0---0---0----0---0-------|------2----2---2---2-------|--------------------------------|
E|------------------------------|------0----0---0---0-------|--------------------------------|


E|-0----0----0---0---0---0---|-0---0---0---0----0---0-------|------2----2---2---2---2---|
B|-3----3----3---3---3---2---|-2---2---2---2----2---2---0---|------3----3---3---3---3---|
G|-4----4----4---4---4---2---|-2---2---2---2----2---2---2---|------0----0---0---0---2---|
D|-4----4----4---4---4---2---|-2---2---2---2----2---2---2---|------2----2---2---2---0---|
A|-2----2----2---2---2---0---|-0---0---0---0----0---0-------|------2----2---2---2-------|
E|---------------------------|------------------------------|------0----0---0---0-------|


E|-2---2---2---2---2----2---2--2--|-0----0----0---0---0---0---|-0---0---0---0----0---0-------|
B|-3---3---3---3---3----3---3--3--|-3----3----3---3---3---2---|-2---2---2---2----2---2---0---|
G|-2---2---2---2---2----2---2--2--|-4----4----4---4---4---2---|-2---2---2---2----2---2---2---|
D|-0---0---0---0---0----0---0--0--|-4----4----4---4---4---2---|-2---2---2---2----2---2---2---|
A|--------------------------------|-2----2----2---2---2---0---|-0---0---0---0----0---0-------|
E|--------------------------------|---------------------------|------------------------------|


E|---------------------------|-----0---0---0----0---0---------|-0----0----0---0---0---0---|
B|------3----3---3-----------|-----0---0---0----0---0---------|-3----3----3---3---3---2---|
G|-0----0----0---0-----------|-----0---0---0----0---0---------|-2----2----2---2---2---2---|
D|-0----0----0---0-----------|-----2---2---2----2---2---2--2--|-0----0----0---0---0---2---|
A|-----------------------2---|-2---2---2---2----2---2---2--2--|-----------------------0---|
E|-3----3----3---3---2---0---|-0---0---0---0----0---0---0--0--|---------------------------|


E|-0---0---0---0----0--------|---------------------------|-----0---0---0----0---0---------|
B|-2---2---2---2----2--------|------3----3---3-----------|-----0---0---0----0---0---------|
G|-2---2---2---2----2--------|-0----0----0---0-----------|-----0---0---0----0---0---------|
D|-2---2---2---2----2--------|-0----0----0---0-----------|-----2---2---2----2---2---2--2--|
A|-0---0---0---0----0--------|-----------------------2---|-2---2---2---2----2---2---2--2--|
E|---------------------------|-3----3----3---3---2---0---|-0---0---0---0----0---0---0--0--|


E|-0----0----0---0---0---0---|-0---0---0---0----0---0---0--0--|------2----2---2---2---2---|
B|-3----3----3---3---3---2---|-2---2---2---2----2---2---2--2--|------3----3---3---3---3---|
G|-2----2----2---2---2---2---|-2---2---2---2----2---2---2--2--|------0----0---0---0---2---|
D|-0----0----0---0---0---2---|-2---2---2---2----2---2---2--2--|------2----2---2---2---0---|
A|-----------------------0---|-0---0---0---0----0---0---0--0--|------2----2---2---2-------|
E|---------------------------|--------------------------------|------0----0---0---0-------|


E|-2---2---2---2---2----2---2--2--|-0----0----0---0---0---0---|-0---0---0---0----0---0-------|
B|-3---3---3---3---3----3---3--3--|-3----3----3---3---3---2---|-2---2---2---2----2---2---0---|
G|-2---2---2---2---2----2---2--2--|-4----4----4---4---4---2---|-2---2---2---2----2---2---2---|
D|-0---0---0---0---0----0---0--0--|-4----4----4---4---4---2---|-2---2---2---2----2---2---2---|
A|--------------------------------|-2----2----2---2---2---0---|-0---0---0---0----0---0-------|
E|--------------------------------|---------------------------|------------------------------|


E|------2----2---2---2---2---|-2---2---2---2---2----2---2--2--|-0----0----0---0---0---0---|
B|------3----3---3---3---3---|-3---3---3---3---3----3---3--3--|-3----3----3---3---3---2---|
G|------0----0---0---0---2---|-2---2---2---2---2----2---2--2--|-4----4----4---4---4---2---|
D|------2----2---2---2---0---|-0---0---0---0---0----0---0--0--|-4----4----4---4---4---2---|
A|------2----2---2---2-------|--------------------------------|-2----2----2---2---2---0---|
E|------0----0---0---0-------|--------------------------------|---------------------------|


E|-0---0---0---0----0---0-------|------2----2----2---2---|-2---2---2---2---2----2---2--2--|
B|-2---2---2---2----2---2---0---|------3----3----3---3---|-3---3---3---3---3----3---3--3--|
G|-2---2---2---2----2---2---2---|------0----0----0---2---|-2---2---2---2---2----2---2--2--|
D|-2---2---2---2----2---2---2---|------2----2----2---0---|-0---0---0---0---0----0---0--0--|
A|-0---0---0---0----0---0-------|------2----2----2-------|--------------------------------|
E|------------------------------|------0----0----0-------|--------------------------------|


E|-0----0----0---0---0---0---|-0---0---0---0----0---0-------|------2----2---2---2---2---|
B|-3----3----3---3---3---2---|-2---2---2---2----2---2---0---|------3----3---3---3---3---|
G|-4----4----4---4---4---2---|-2---2---2---2----2---2---2---|------0----0---0---0---2---|
D|-4----4----4---4---4---2---|-2---2---2---2----2---2---2---|------2----2---2---2---0---|
A|-2----2----2---2---2---0---|-0---0---0---0----0---0-------|------2----2---2---2-------|
E|---------------------------|------------------------------|------0----0---0---0-------|


E|-2---2---2---2---2----2---2--2--|-0----0----0----0---0---|-0---0---0---0----0---0-------|
B|-3---3---3---3---3----3---3--3--|-3----3----3----3---2---|-2---2---2---2----2---2---0---|
G|-2---2---2---2---2----2---2--2--|-4----4----4----4---2---|-2---2---2---2----2---2---2---|
D|-0---0---0---0---0----0---0--0--|-4----4----4----4---2---|-2---2---2---2----2---2---2---|
A|--------------------------------|-2----2----2----2---0---|-0---0---0---0----0---0-------|
E|--------------------------------|------------------------|------------------------------|


E|---------------------------|-----0---0---0----0---0---------|-0----0----0---0---0---0---|
B|------3----3---3-----------|-----0---0---0----0---0---------|-3----3----3---3---3---2---|
G|-0----0----0---0-----------|-----0---0---0----0---0---------|-2----2----2---2---2---2---|
D|-0----0----0---0-----------|-----2---2---2----2---2---2--2--|-0----0----0---0---0---2---|
A|-----------------------2---|-2---2---2---2----2---2---2--2--|-----------------------0---|
E|-3----3----3---3---2---0---|-0---0---0---0----0---0---0--0--|---------------------------|


E|-0---0---0---0----0--------|---------------------------|-----0---0---0----0---0---------|
B|-2---2---2---2----2--------|------3----3---3-----------|-----0---0---0----0---0---------|
G|-2---2---2---2----2--------|-0----0----0---0-----------|-----0---0---0----0---0---------|
D|-2---2---2---2----2--------|-0----0----0---0-----------|-----2---2---2----2---2---2--2--|
A|-0---0---0---0----0--------|-----------------------2---|-2---2---2---2----2---2---2--2--|
E|---------------------------|-3----3----3---3---2---0---|-0---0---0---0----0---0---0--0--|


E|-0----0----0---0---0---0---|-0---0---0---0----0--------|---------------------------|
B|-3----3----3---3---3---2---|-2---2---2---2----2--------|------3----3---3-----------|
G|-2----2----2---2---2---2---|-2---2---2---2----2--------|-0----0----0---0-----------|
D|-0----0----0---0---0---2---|-2---2---2---2----2--------|-0----0----0---0-----------|
A|-----------------------0---|-0---0---0---0----0--------|-----------------------2---|
E|---------------------------|---------------------------|-3----3----3---3---2---0---|


E|-----0---0---0----0---0---------|-0----0----0---0---0---0---|-0---0---0---0----0--------|
B|-----0---0---0----0---0---------|-3----3----3---3---3---2---|-2---2---2---2----2--------|
G|-----0---0---0----0---0---------|-2----2----2---2---2---2---|-2---2---2---2----2--------|
D|-----2---2---2----2---2---2--2--|-0----0----0---0---0---2---|-2---2---2---2----2--------|
A|-2---2---2---2----2---2---2--2--|-----------------------0---|-0---0---0---0----0--------|
E|-0---0---0---0----0---0---0--0--|---------------------------|---------------------------|


E|---------------------------|-----0---0---0----0---0---------|-0----0----0---0---0---0---|
B|------3----3---3-----------|-----0---0---0----0---0---------|-3----3----3---3---3---2---|
G|-0----0----0---0-----------|-----0---0---0----0---0---------|-2----2----2---2---2---2---|
D|-0----0----0---0-----------|-----2---2---2----2---2---2--2--|-0----0----0---0---0---2---|
A|-----------------------2---|-2---2---2---2----2---2---2--2--|-----------------------0---|
E|-3----3----3---3---2---0---|-0---0---0---0----0---0---0--0--|---------------------------|


E|-0---0---0---0----0-----------|-----------------------0---|-0----0----0---0---0---0--0--|
B|-2---2---2---2----2-----------|------1----1---1---1---3---|-3----3----3---3---3---3--3--|
G|-2---2---2---2----2-----------|------0----0---0---0---2---|-2----2----2---2---2---2--2--|
D|-2---2---2---2----2-----------|------2----2---2---2---0---|-0----0----0---0---0---0--0--|
A|-0---0---0---0----0-----------|------3----3---3---3-------|-----------------------------|
E|----------------------0---2---|-3----3----3---3---3---2---|-2----2----2---2---2---2--2--|


E|-0----0--------------------|------------------------|-----------------------0---|
B|-2----2----2---2---2---3---|-3---2----0----2---0----|------1----1---1---1---3---|
G|-2----2----2---2---2---2---|-2---2----2----2---2----|------0----0---0---0---2---|
D|-2----2----2---2---2---2---|-2---2----2----2---2----|------2----2---2---2---0---|
A|-0----0----0---0---0---0---|-0---0----0----0---0----|------3----3---3---3-------|
E|---------------------------|------------------------|-3----3----3---3---3---2---|


E|-0----0----0---0---0---0--0--|-0----0--------------------|------------------------|
B|-3----3----3---3---3---3--3--|-2----2----2---2---2---3---|-3---2----0----2---0----|
G|-2----2----2---2---2---2--2--|-2----2----2---2---2---2---|-2---2----2----2---2----|
D|-0----0----0---0---0---0--0--|-2----2----2---2---2---2---|-2---2----2----2---2----|
A|-----------------------------|-0----0----0---0---0---0---|-0---0----0----0---0----|
E|-2----2----2---2---2---2--2--|---------------------------|------------------------|


E|-----------------------0---|-0----0----0---0---0---0--0--|-0----0--------------------|
B|------1----1---1---1---3---|-3----3----3---3---3---3--3--|-2----2----2---2---2---3---|
G|------0----0---0---0---2---|-2----2----2---2---2---2--2--|-2----2----2---2---2---2---|
D|------2----2---2---2---0---|-0----0----0---0---0---0--0--|-2----2----2---2---2---2---|
A|------3----3---3---3-------|-----------------------------|-0----0----0---0---0---0---|
E|-3----3----3---3---3---2---|-2----2----2---2---2---2--2--|---------------------------|


E|------------------------|-----------------------0---|-0----0----0---0---0---0--0--|
B|-3---2----0----2---0----|------1----1---1---1---3---|-3----3----3---3---3---3--3--|
G|-2---2----2----2---2----|------0----0---0---0---2---|-2----2----2---2---2---2--2--|
D|-2---2----2----2---2----|------2----2---2---2---0---|-0----0----0---0---0---0--0--|
A|-0---0----0----0---0----|------3----3---3---3-------|-----------------------------|
E|------------------------|-3----3----3---3---3---2---|-2----2----2---2---2---2--2--|


E|-0----0--------------------|------------------------|-----------------------0---|
B|-2----2----2---2---2---3---|-3---2----0----2---0----|------1----1---1---1---3---|
G|-2----2----2---2---2---2---|-2---2----2----2---2----|------0----0---0---0---2---|
D|-2----2----2---2---2---2---|-2---2----2----2---2----|------2----2---2---2---0---|
A|-0----0----0---0---0---0---|-0---0----0----0---0----|------3----3---3---3-------|
E|---------------------------|------------------------|-3----3----3---3---3---2---|


E|-0----0----0---0---0---0--0--|-0----0--------------------|------------------------|
B|-3----3----3---3---3---3--3--|-2----2----2---2---2---3---|-3---2----0----2---0----|
G|-2----2----2---2---2---2--2--|-2----2----2---2---2---2---|-2---2----2----2---2----|
D|-0----0----0---0---0---0--0--|-2----2----2---2---2---2---|-2---2----2----2---2----|
A|-----------------------------|-0----0----0---0---0---0---|-0---0----0----0---0----|
E|-2----2----2---2---2---2--2--|---------------------------|------------------------|


E|-----------------------0---|-0----0----0---0---0---0--0--|-0----0--------------------|
B|------1----1---1---1---3---|-3----3----3---3---3---3--3--|-2----2----2---2---2-------|
G|------0----0---0---0---2---|-2----2----2---2---2---2--2--|-2----2----2---2---2-------|
D|------2----2---2---2---0---|-0----0----0---0---0---0--0--|-2----2----2---2---2---2---|
A|------3----3---3---3-------|-----------------------------|-0----0----0---0---0---2---|
E|-3----3----3---3---3---2---|-2----2----2---2---2---2--2--|-----------------------0---|


E|---------------------------------|---------------------------|-----0---0---0----0---0---------|
B|---------------------------------|------3----3---3-----------|-----0---0---0----0---0---------|
G|---------------------------------|-0----0----0---0-----------|-----0---0---0----0---0---------|
D|-2---2---2---2---2---2---2-------|-0----0----0---0-----------|-----2---2---2----2---2---2--2--|
A|-2---2---2---2---2---2---2-------|-----------------------2---|-2---2---2---2----2---2---2--2--|
E|-0---0---0---0---0---0---0---2---|-3----3----3---3---2---0---|-0---0---0---0----0---0---0--0--|


E|-0----0----0---0---0---0---|-0---0---0---0----0--------|---------------------------|
B|-3----3----3---3---3---2---|-2---2---2---2----2--------|------3----3---3-----------|
G|-2----2----2---2---2---2---|-2---2---2---2----2--------|-0----0----0---0-----------|
D|-0----0----0---0---0---2---|-2---2---2---2----2--------|-0----0----0---0-----------|
A|-----------------------0---|-0---0---0---0----0--------|-----------------------2---|
E|---------------------------|---------------------------|-3----3----3---3---2---0---|


E|-----0---0---0----0---0---------|-0----0----0---0---0---0---|-0---0---0---0----0--------|
B|-----0---0---0----0---0---------|-3----3----3---3---3---2---|-2---2---2---2----2--------|
G|-----0---0---0----0---0---------|-2----2----2---2---2---2---|-2---2---2---2----2--------|
D|-----2---2---2----2---2---2--2--|-0----0----0---0---0---2---|-2---2---2---2----2--------|
A|-2---2---2---2----2---2---2--2--|-----------------------0---|-0---0---0---0----0--------|
E|-0---0---0---0----0---0---0--0--|---------------------------|---------------------------|


E|-0-----------|--------|--------|--------|--------|--------|--------|--------|--------|
B|-3-----------|--------|--------|--------|--------|--------|--------|--------|--------|
G|-2-----------|--------|--------|--------|--------|--------|--------|--------|--------|
D|-0-----------|--------|--------|--------|--------|--------|--------|--------|--------|
A|-------------|--------|--------|--------|--------|--------|--------|--------|--------|
E|-------------|--------|--------|--------|--------|--------|--------|--------|--------|


E|--------|--------|--------|--------|--------|--------|--------|--------|--------|
B|--------|--------|--------|--------|--------|--------|--------|--------|--------|
G|--------|--------|--------|--------|--------|--------|--------|--------|--------|
D|--------|--------|--------|--------|--------|--------|--------|--------|--------|
A|--------|--------|--------|--------|--------|--------|--------|--------|--------|
E|--------|--------|--------|--------|--------|--------|--------|--------|--------|





Track 2: Acoustic (center)

E|--------|--------|--------|--------|--------|--------|--------|--------|--------|
B|--------|--------|--------|--------|--------|--------|--------|--------|--------|
G|--------|--------|--------|--------|--------|--------|--------|--------|--------|
D|--------|--------|--------|--------|--------|--------|--------|--------|--------|
A|--------|--------|--------|--------|--------|--------|--------|--------|--------|
E|--------|--------|--------|--------|--------|--------|--------|--------|--------|


E|--------|--------|--------|--------|--------|--------|--------|--------|--------|
B|--------|--------|--------|--------|--------|--------|--------|--------|--------|
G|--------|--------|--------|--------|--------|--------|--------|--------|--------|
D|--------|--------|--------|--------|--------|--------|--------|--------|--------|
A|--------|--------|--------|--------|--------|--------|--------|--------|--------|
E|--------|--------|--------|--------|--------|--------|--------|--------|--------|


E|--------|--------|--------|--------|--------|-------------|--------|--------|--------|
B|--------|--------|--------|--------|--------|-------------|--------|--------|--------|
G|--------|--------|--------|--------|--------|-------------|--------|--------|--------|
D|--------|--------|--------|--------|--------|-------------|--------|--------|--------|
A|--------|--------|--------|--------|--------|-------------|--------|--------|--------|
E|--------|--------|--------|--------|--------|-------------|--------|--------|--------|


E|--------|--------|--------|--------|--------|--------|--------|--------|--------|
B|--------|--------|--------|--------|--------|--------|--------|--------|--------|
G|--------|--------|--------|--------|--------|--------|--------|--------|--------|
D|--------|--------|--------|--------|--------|--------|--------|--------|--------|
A|--------|--------|--------|--------|--------|--------|--------|--------|--------|
E|--------|--------|--------|--------|--------|--------|--------|--------|--------|


E|--------|--------|--------|--------|--------|--------|--------|--------|--------|
B|--------|--------|--------|--------|--------|--------|--------|--------|--------|
G|--------|--------|--------|--------|--------|--------|--------|--------|--------|
D|--------|--------|--------|--------|--------|--------|--------|--------|--------|
A|--------|--------|--------|--------|--------|--------|--------|--------|--------|
E|--------|--------|--------|--------|--------|--------|--------|--------|--------|


E|--------|--------|--------|--------|--------|--------|--------|--------|--------|
B|--------|--------|--------|--------|--------|--------|--------|--------|--------|
G|--------|--------|--------|--------|--------|--------|--------|--------|--------|
D|--------|--------|--------|--------|--------|--------|--------|--------|--------|
A|--------|--------|--------|--------|--------|--------|--------|--------|--------|
E|--------|--------|--------|--------|--------|--------|--------|--------|--------|


E|--------|--------|--------|--------|--------|--------|--------|--------|--------|
B|--------|--------|--------|--------|--------|--------|--------|--------|--------|
G|--------|--------|--------|--------|--------|--------|--------|--------|--------|
D|--------|--------|--------|--------|--------|--------|--------|--------|--------|
A|--------|--------|--------|--------|--------|--------|--------|--------|--------|
E|--------|--------|--------|--------|--------|--------|--------|--------|--------|


E|--------|--------|--------|--------|--------|--------|--------|--------|--------|
B|--------|--------|--------|--------|--------|--------|--------|--------|--------|
G|--------|--------|--------|--------|--------|--------|--------|--------|--------|
D|--------|--------|--------|--------|--------|--------|--------|--------|--------|
A|--------|--------|--------|--------|--------|--------|--------|--------|--------|
E|--------|--------|--------|--------|--------|--------|--------|--------|--------|


E|--------|--------|--------|--------|--------|--------|--------|--------|--------|
B|--------|--------|--------|--------|--------|--------|--------|--------|--------|
G|--------|--------|--------|--------|--------|--------|--------|--------|--------|
D|--------|--------|--------|--------|--------|--------|--------|--------|--------|
A|--------|--------|--------|--------|--------|--------|--------|--------|--------|
E|--------|--------|--------|--------|--------|--------|--------|--------|--------|


E|--------|--------|--------|--------|--------|--------|--------|--------|--------|
B|--------|--------|--------|--------|--------|--------|--------|--------|--------|
G|--------|--------|--------|--------|--------|--------|--------|--------|--------|
D|--------|--------|--------|--------|--------|--------|--------|--------|--------|
A|--------|--------|--------|--------|--------|--------|--------|--------|--------|
E|--------|--------|--------|--------|--------|--------|--------|--------|--------|


E|--------|--------|--------|--------|--------|--------|--------|--------|--------|
B|--------|--------|--------|--------|--------|--------|--------|--------|--------|
G|--------|--------|--------|--------|--------|--------|--------|--------|--------|
D|--------|--------|--------|--------|--------|--------|--------|--------|--------|
A|--------|--------|--------|--------|--------|--------|--------|--------|--------|
E|--------|--------|--------|--------|--------|--------|--------|--------|--------|


E|--------|--------|--------|--------|--------|--------|--------|--------|--------|
B|--------|--------|--------|--------|--------|--------|--------|--------|--------|
G|--------|--------|--------|--------|--------|--------|--------|--------|--------|
D|--------|--------|--------|--------|--------|--------|--------|--------|--------|
A|--------|--------|--------|--------|--------|--------|--------|--------|--------|
E|--------|--------|--------|--------|--------|--------|--------|--------|--------|


E|--------|--------|--------|--------|--------|--------|
B|--------|--------|--------|--------|--------|--------|
G|--------|--------|--------|--------|--------|--------|
D|--------|--------|--------|--------|--------|--------|
A|--------|--------|--------|--------|--------|--------|
E|--------|--------|--------|--------|--------|--------|





Track 3: Overdriven guitar (slightly right)

E|--------|--------|--------|--------|--------|--------|--------|--------|--------|
B|--------|--------|--------|--------|--------|--------|--------|--------|--------|
G|--------|--------|--------|--------|--------|--------|--------|--------|--------|
D|--------|--------|--------|--------|--------|--------|--------|--------|--------|
A|--------|--------|--------|--------|--------|--------|--------|--------|--------|
E|--------|--------|--------|--------|--------|--------|--------|--------|--------|


E|--------|--------|--------|--------|--------|--------|--------|--------|--------|
B|--------|--------|--------|--------|--------|--------|--------|--------|--------|
G|--------|--------|--------|--------|--------|--------|--------|--------|--------|
D|--------|--------|--------|--------|--------|--------|--------|--------|--------|
A|--------|--------|--------|--------|--------|--------|--------|--------|--------|
E|--------|--------|--------|--------|--------|--------|--------|--------|--------|


E|--------|--------|--------|--------|--------|--------------------|---------------------------|
B|--------|--------|--------|--------|--------|--------------------|------3----3---3-----------|
G|--------|--------|--------|--------|--------|--------------------|-0----0----0---0-----------|
D|--------|--------|--------|--------|--------|--------------------|-0----0----0---0-----------|
A|--------|--------|--------|--------|--------|--------------------|-----------------------2---|
E|--------|--------|--------|--------|--------|------------0---2---|-3----3----3---3---2---0---|


E|---------0---0-------------|-0----0----0---0---0---0---|-0---0---0---0----0-----------|
B|---------0---0-------------|-3----3----3---3---3---2---|-2---2---2---2----2-----------|
G|---------0---0-------------|-2----2----2---2---2---2---|-2---2---2---2----2-----------|
D|-----2---2---2----2---2----|-0----0----0---0---0---2---|-2---2---2---2----2-----------|
A|-2---2---2---2----2---2----|-----------------------0---|-0---0---0---0----0-----------|
E|-0---0---0---0----0---0----|---------------------------|----------------------0---2---|


E|---------------------------|---------0---0------------------|-0----0----0---0---0---0---|
B|------3----3---3-----------|---------0---0------------------|-3----3----3---3---3---2---|
G|-0----0----0---0-----------|---------0---0------------------|-2----2----2---2---2---2---|
D|-0----0----0---0-----------|-----2---2---2----2---2---2--2--|-0----0----0---0---0---2---|
A|-----------------------2---|-2---2---2---2----2---2---2--2--|-----------------------0---|
E|-3----3----3---3---2---0---|-0---0---0---0----0---0---0--0--|---------------------------|


E|-0------|--------|--------|--------|--------|--------|--------|--------|--------|
B|-2------|--------|--------|--------|--------|--------|--------|--------|--------|
G|-2------|--------|--------|--------|--------|--------|--------|--------|--------|
D|-2------|--------|--------|--------|--------|--------|--------|--------|--------|
A|-0------|--------|--------|--------|--------|--------|--------|--------|--------|
E|--------|--------|--------|--------|--------|--------|--------|--------|--------|


E|--------|--------|--------|--------|--------|--------|--------|--------------------|
B|--------|--------|--------|--------|--------|--------|--------|--------------------|
G|--------|--------|--------|--------|--------|--------|--------|--------------------|
D|--------|--------|--------|--------|--------|--------|--------|--------------------|
A|--------|--------|--------|--------|--------|--------|--------|--------------------|
E|--------|--------|--------|--------|--------|--------|--------|------------0---2---|


E|--------|--------|--------|--------|--------|--------|--------|--------|--------|
B|--------|--------|--------|--------|--------|--------|--------|--------|--------|
G|--------|--------|--------|--------|--------|--------|--------|--------|--------|
D|--------|--------|--------|--------|--------|--------|--------|--------|--------|
A|--------|--------|--------|--------|--------|--------|--------|--------|--------|
E|--------|--------|--------|--------|--------|--------|--------|--------|--------|


E|--------|--------|--------|--------|--------|--------|--------|--------|--------|
B|--------|--------|--------|--------|--------|--------|--------|--------|--------|
G|--------|--------|--------|--------|--------|--------|--------|--------|--------|
D|--------|--------|--------|--------|--------|--------|--------|--------|--------|
A|--------|--------|--------|--------|--------|--------|--------|--------|--------|
E|--------|--------|--------|--------|--------|--------|--------|--------|--------|


E|--------|--------|--------|--------|--------|--------|--------|--------|--------|
B|--------|--------|--------|--------|--------|--------|--------|--------|--------|
G|--------|--------|--------|--------|--------|--------|--------|--------|--------|
D|--------|--------|--------|--------|--------|--------|--------|--------|--------|
A|--------|--------|--------|--------|--------|--------|--------|--------|--------|
E|--------|--------|--------|--------|--------|--------|--------|--------|--------|


E|--------|--------|--------|--------|--------------------|-----------------------0---|
B|--------|--------|--------|--------|--------------------|------1----1---1---1---3---|
G|--------|--------|--------|--------|--------------------|------0----0---0---0---2---|
D|--------|--------|--------|--------|--------------------|------2----2---2---2---0---|
A|--------|--------|--------|--------|--------------------|------3----3---3---3-------|
E|--------|--------|--------|--------|------------0---2---|-3----3----3---3---3---2---|


E|-0----0----0---0---0---0--0--|-0----0-------------|------------------------|-----------------------0---|
B|-3----3----3---3---3---3--3--|-2----2-----2---3---|-3---2----0----2---0----|------1----1---1---1---3---|
G|-2----2----2---2---2---2--2--|-2----2-----2---2---|-2---2----2----2---2----|------0----0---0---0---2---|
D|-0----0----0---0---0---0--0--|-2----2-----2---2---|-2---2----2----2---2----|------2----2---2---2---0---|
A|-----------------------------|-0----0-----0---0---|-0---0----0----0---0----|------3----3---3---3-------|
E|-2----2----2---2---2---2--2--|--------------------|------------------------|-3----3----3---3---3---2---|


E|-0----0----0---0---0---0--0--|-0-------------------------|---------------------------------|
B|-3----3----3---3---3---3--3--|-2----2----2---2---2-------|---------------------------------|
G|-2----2----2---2---2---2--2--|-2----2----2---2---2-------|---------------------------------|
D|-0----0----0---0---0---0--0--|-2----2----2---2---2---2---|-2-------------------------------|
A|-----------------------------|-0----0----0---0---0---2---|-2-------------------------------|
E|-2----2----2---2---2---2--2--|-----------------------0---|-0---0---0---0---0---0---0---2---|


E|--------|--------|--------|--------|--------|--------|--------|--------|--------|
B|--------|--------|--------|--------|--------|--------|--------|--------|--------|
G|--------|--------|--------|--------|--------|--------|--------|--------|--------|
D|--------|--------|--------|--------|--------|--------|--------|--------|--------|
A|--------|--------|--------|--------|--------|--------|--------|--------|--------|
E|--------|--------|--------|--------|--------|--------|--------|--------|--------|


E|--------|--------|--------|--------|--------|--------|--------|--------|--------|
B|--------|--------|--------|--------|--------|--------|--------|--------|--------|
G|--------|--------|--------|--------|--------|--------|--------|--------|--------|
D|--------|--------|--------|--------|--------|--------|--------|--------|--------|
A|--------|--------|--------|--------|--------|--------|--------|--------|--------|
E|--------|--------|--------|--------|--------|--------|--------|--------|--------|


E|--------|--------|--------|--------|--------|--------|--------|--------|
B|--------|--------|--------|--------|--------|--------|--------|--------|
G|--------|--------|--------|--------|--------|--------|--------|--------|
D|--------|--------|--------|--------|--------|--------|--------|--------|
A|--------|--------|--------|--------|--------|--------|--------|--------|
E|--------|--------|--------|--------|--------|--------|--------|--------|





Track 4: Acoustic (center)

E|--------|--------|--------|--------|--------|--------|--------|--------|--------|
B|--------|--------|--------|--------|--------|--------|--------|--------|--------|
G|--------|--------|--------|--------|--------|--------|--------|--------|--------|
D|--------|--------|--------|--------|--------|--------|--------|--------|--------|
A|--------|--------|--------|--------|--------|--------|--------|--------|--------|
E|--------|--------|--------|--------|--------|--------|--------|--------|--------|


E|--------|--------|--------|--------|--------|--------|--------|--------|--------|
B|--------|--------|--------|--------|--------|--------|--------|--------|--------|
G|--------|--------|--------|--------|--------|--------|--------|--------|--------|
D|--------|--------|--------|--------|--------|--------|--------|--------|--------|
A|--------|--------|--------|--------|--------|--------|--------|--------|--------|
E|--------|--------|--------|--------|--------|--------|--------|--------|--------|


E|--------|--------|--------|--------|--------|--------|--------|--------|--------|
B|--------|--------|--------|--------|--------|--------|--------|--------|--------|
G|--------|--------|--------|--------|--------|--------|--------|--------|--------|
D|--------|--------|--------|--------|--------|--------|--------|--------|--------|
A|--------|--------|--------|--------|--------|--------|--------|--------|--------|
E|--------|--------|--------|--------|--------|--------|--------|--------|--------|


E|--------|--------|--------|--------|--------|--------|--------|--------|--------|
B|--------|--------|--------|--------|--------|--------|--------|--------|--------|
G|--------|--------|--------|--------|--------|--------|--------|--------|--------|
D|--------|--------|--------|--------|--------|--------|--------|--------|--------|
A|--------|--------|--------|--------|--------|--------|--------|--------|--------|
E|--------|--------|--------|--------|--------|--------|--------|--------|--------|


E|--------|--------|--------|--------|--------|--------|--------|--------|--------|
B|--------|--------|--------|--------|--------|--------|--------|--------|--------|
G|--------|--------|--------|--------|--------|--------|--------|--------|--------|
D|--------|--------|--------|--------|--------|--------|--------|--------|--------|
A|--------|--------|--------|--------|--------|--------|--------|--------|--------|
E|--------|--------|--------|--------|--------|--------|--------|--------|--------|


E|--------|--------|--------|--------|--------|--------|--------|--------|--------|
B|--------|--------|--------|--------|--------|--------|--------|--------|--------|
G|--------|--------|--------|--------|--------|--------|--------|--------|--------|
D|--------|--------|--------|--------|--------|--------|--------|--------|--------|
A|--------|--------|--------|--------|--------|--------|--------|--------|--------|
E|--------|--------|--------|--------|--------|--------|--------|--------|--------|


E|--------|--------|--------|--------|--------|--------|--------|--------|--------|
B|--------|--------|--------|--------|--------|--------|--------|--------|--------|
G|--------|--------|--------|--------|--------|--------|--------|--------|--------|
D|--------|--------|--------|--------|--------|--------|--------|--------|--------|
A|--------|--------|--------|--------|--------|--------|--------|--------|--------|
E|--------|--------|--------|--------|--------|--------|--------|--------|--------|


E|--------|--------|--------|--------|--------|--------|--------|--------|--------|
B|--------|--------|--------|--------|--------|--------|--------|--------|--------|
G|--------|--------|--------|--------|--------|--------|--------|--------|--------|
D|--------|--------|--------|--------|--------|--------|--------|--------|--------|
A|--------|--------|--------|--------|--------|--------|--------|--------|--------|
E|--------|--------|--------|--------|--------|--------|--------|--------|--------|


E|--------|--------|--------|--------|--------|--------|--------|--------|--------|
B|--------|--------|--------|--------|--------|--------|--------|--------|--------|
G|--------|--------|--------|--------|--------|--------|--------|--------|--------|
D|--------|--------|--------|--------|--------|--------|--------|--------|--------|
A|--------|--------|--------|--------|--------|--------|--------|--------|--------|
E|--------|--------|--------|--------|--------|--------|--------|--------|--------|


E|--------|--------|--------|--------|--------|--------|--------|--------|--------|
B|--------|--------|--------|--------|--------|--------|--------|--------|--------|
G|--------|--------|--------|--------|--------|--------|--------|--------|--------|
D|--------|--------|--------|--------|--------|--------|--------|--------|--------|
A|--------|--------|--------|--------|--------|--------|--------|--------|--------|
E|--------|--------|--------|--------|--------|--------|--------|--------|--------|


E|--------|--------|--------|--------|--------|--------|--------|--------|--------|
B|--------|--------|--------|--------|--------|--------|--------|--------|--------|
G|--------|--------|--------|--------|--------|--------|--------|--------|--------|
D|--------|--------|--------|--------|--------|--------|--------|--------|--------|
A|--------|--------|--------|--------|--------|--------|--------|--------|--------|
E|--------|--------|--------|--------|--------|--------|--------|--------|--------|


E|--------|--------|--------|--------|--------|--------|--------|--------|--------|
B|--------|--------|--------|--------|--------|--------|--------|--------|--------|
G|--------|--------|--------|--------|--------|--------|--------|--------|--------|
D|--------|--------|--------|--------|--------|--------|--------|--------|--------|
A|--------|--------|--------|--------|--------|--------|--------|--------|--------|
E|--------|--------|--------|--------|--------|--------|--------|--------|--------|


E|--------|--------|--------|--------|--------|--------|
B|--------|--------|--------|--------|--------|--------|
G|--------|--------|--------|--------|--------|--------|
D|--------|--------|--------|--------|--------|--------|
A|--------|--------|--------|--------|--------|--------|
E|--------|--------|--------|--------|--------|--------|





Track 5: Acoustic (center)

E|--------|--------|--------|--------|--------|--------|--------|--------|--------|
B|--------|--------|--------|--------|--------|--------|--------|--------|--------|
G|--------|--------|--------|--------|--------|--------|--------|--------|--------|
D|--------|--------|--------|--------|--------|--------|--------|--------|--------|
A|--------|--------|--------|--------|--------|--------|--------|--------|--------|
E|--------|--------|--------|--------|--------|--------|--------|--------|--------|


E|--------|--------|--------|--------|--------|--------|--------|--------|--------|
B|--------|--------|--------|--------|--------|--------|--------|--------|--------|
G|--------|--------|--------|--------|--------|--------|--------|--------|--------|
D|--------|--------|--------|--------|--------|--------|--------|--------|--------|
A|--------|--------|--------|--------|--------|--------|--------|--------|--------|
E|--------|--------|--------|--------|--------|--------|--------|--------|--------|


E|--------|--------|--------|--------|--------|--------|--------|--------|--------|
B|--------|--------|--------|--------|--------|--------|--------|--------|--------|
G|--------|--------|--------|--------|--------|--------|--------|--------|--------|
D|--------|--------|--------|--------|--------|--------|--------|--------|--------|
A|--------|--------|--------|--------|--------|--------|--------|--------|--------|
E|--------|--------|--------|--------|--------|--------|--------|--------|--------|


E|--------|--------|--------|--------|--------|--------|--------|--------|--------|
B|--------|--------|--------|--------|--------|--------|--------|--------|--------|
G|--------|--------|--------|--------|--------|--------|--------|--------|--------|
D|--------|--------|--------|--------|--------|--------|--------|--------|--------|
A|--------|--------|--------|--------|--------|--------|--------|--------|--------|
E|--------|--------|--------|--------|--------|--------|--------|--------|--------|


E|--------|--------|--------|--------|--------|--------|--------|--------|--------|
B|--------|--------|--------|--------|--------|--------|--------|--------|--------|
G|--------|--------|--------|--------|--------|--------|--------|--------|--------|
D|--------|--------|--------|--------|--------|--------|--------|--------|--------|
A|--------|--------|--------|--------|--------|--------|--------|--------|--------|
E|--------|--------|--------|--------|--------|--------|--------|--------|--------|


E|--------|--------|--------|---------------------------|---------0---0-------------|
B|--------|--------|--------|------3----3---------------|---------0---0-------------|
G|--------|--------|--------|-0----0----0---------------|---------0---0-------------|
D|--------|--------|--------|-0----0----0---------------|-----2---2---2----2---2----|
A|--------|--------|--------|-----------------------2---|-2---2---2---2----2---2----|
E|--------|--------|--------|-3----3----3---3---2---0---|-0---0---0---0----0---0----|


E|-0-----0---0---0---0---|-0-----0----0-----------|---------------------------|---------0---0-------------|
B|-3-----3---3---3---2---|-2-----2----2-----------|------3----3---------------|---------0---0-------------|
G|-2-----2---2---2---2---|-2-----2----2-----------|-0----0----0---------------|---------0---0-------------|
D|-0-----0---0---0---2---|-2-----2----2-----------|-0----0----0---------------|-----2---2---2----2---2----|
A|-------------------0---|-0-----0----0-----------|-----------------------2---|-2---2---2---2----2---2----|
E|-----------------------|----------------0---2---|-3----3----3---3---2---0---|-0---0---0---0----0---0----|


E|-0-----0---0---0---0---|-0---0---0---0----0-----------|---------------------------|
B|-3-----3---3---3---2---|-2---2---2---2----2-----------|------3----3---------------|
G|-2-----2---2---2---2---|-2---2---2---2----2-----------|-0----0----0---------------|
D|-0-----0---0---0---2---|-2---2---2---2----2-----------|-0----0----0---------------|
A|-------------------0---|-0---0---0---0----0-----------|-----------------------2---|
E|-----------------------|----------------------0---2---|-3----3----3---3---2---0---|


E|---------0---0-------------|-0-----0---0---0---0---|-0---0---0---0----0-----------|
B|---------0---0-------------|-3-----3---3---3---2---|-2---2---2---2----2-----------|
G|---------0---0-------------|-2-----2---2---2---2---|-2---2---2---2----2-----------|
D|-----2---2---2----2---2----|-0-----0---0---0---2---|-2---2---2---2----2-----------|
A|-2---2---2---2----2---2----|-------------------0---|-0---0---0---0----0-----------|
E|-0---0---0---0----0---0----|-----------------------|----------------------0---2---|


E|---------------------------|---------0---0-------------|-0-----0---0---0---0---|
B|------3----3---3-----------|---------0---0-------------|-3-----3---3---3---2---|
G|-0----0----0---0-----------|---------0---0-------------|-2-----2---2---2---2---|
D|-0----0----0---0-----------|-----2---2---2----2---2----|-0-----0---0---0---2---|
A|-----------------------2---|-2---2---2---2----2---2----|-------------------0---|
E|-3----3----3---3---2---0---|-0---0---0---0----0---0----|-----------------------|


E|-0---0---0---0----0-----------|--------|--------|--------|--------|--------|--------|
B|-2---2---2---2----2-----------|--------|--------|--------|--------|--------|--------|
G|-2---2---2---2----2-----------|--------|--------|--------|--------|--------|--------|
D|-2---2---2---2----2-----------|--------|--------|--------|--------|--------|--------|
A|-0---0---0---0----0-----------|--------|--------|--------|--------|--------|--------|
E|----------------------0---2---|--------|--------|--------|--------|--------|--------|


E|--------|--------|--------|--------|--------|--------|--------|--------|--------|
B|--------|--------|--------|--------|--------|--------|--------|--------|--------|
G|--------|--------|--------|--------|--------|--------|--------|--------|--------|
D|--------|--------|--------|--------|--------|--------|--------|--------|--------|
A|--------|--------|--------|--------|--------|--------|--------|--------|--------|
E|--------|--------|--------|--------|--------|--------|--------|--------|--------|


E|--------|--------|--------|--------|--------|--------|--------|--------|--------|
B|--------|--------|--------|--------|--------|--------|--------|--------|--------|
G|--------|--------|--------|--------|--------|--------|--------|--------|--------|
D|--------|--------|--------|--------|--------|--------|--------|--------|--------|
A|--------|--------|--------|--------|--------|--------|--------|--------|--------|
E|--------|--------|--------|--------|--------|--------|--------|--------|--------|


E|--------|--------|--------|--------|--------|--------|--------|--------|--------|
B|--------|--------|--------|--------|--------|--------|--------|--------|--------|
G|--------|--------|--------|--------|--------|--------|--------|--------|--------|
D|--------|--------|--------|--------|--------|--------|--------|--------|--------|
A|--------|--------|--------|--------|--------|--------|--------|--------|--------|
E|--------|--------|--------|--------|--------|--------|--------|--------|--------|


E|--------|--------|--------|--------|--------|--------|--------|--------|--------|
B|--------|--------|--------|--------|--------|--------|--------|--------|--------|
G|--------|--------|--------|--------|--------|--------|--------|--------|--------|
D|--------|--------|--------|--------|--------|--------|--------|--------|--------|
A|--------|--------|--------|--------|--------|--------|--------|--------|--------|
E|--------|--------|--------|--------|--------|--------|--------|--------|--------|


E|--------|--------|--------|--------|--------|--------|--------|--------|
B|--------|--------|--------|--------|--------|--------|--------|--------|
G|--------|--------|--------|--------|--------|--------|--------|--------|
D|--------|--------|--------|--------|--------|--------|--------|--------|
A|--------|--------|--------|--------|--------|--------|--------|--------|
E|--------|--------|--------|--------|--------|--------|--------|--------|





Track 6: Acoustic (center)

E|--------|--------|--------|--------|--------|--------|--------|--------|--------|
B|--------|--------|--------|--------|--------|--------|--------|--------|--------|
G|--------|--------|--------|--------|--------|--------|--------|--------|--------|
D|--------|--------|--------|--------|--------|--------|--------|--------|--------|
A|--------|--------|--------|--------|--------|--------|--------|--------|--------|
E|--------|--------|--------|--------|--------|--------|--------|--------|--------|


E|--------|--------|--------|--------|--------|--------|--------|--------|--------|
B|--------|--------|--------|--------|--------|--------|--------|--------|--------|
G|--------|--------|--------|--------|--------|--------|--------|--------|--------|
D|--------|--------|--------|--------|--------|--------|--------|--------|--------|
A|--------|--------|--------|--------|--------|--------|--------|--------|--------|
E|--------|--------|--------|--------|--------|--------|--------|--------|--------|


E|--------|--------|--------|--------|--------|--------|--------|--------|--------|
B|--------|--------|--------|--------|--------|--------|--------|--------|--------|
G|--------|--------|--------|--------|--------|--------|--------|--------|--------|
D|--------|--------|--------|--------|--------|--------|--------|--------|--------|
A|--------|--------|--------|--------|--------|--------|--------|--------|--------|
E|--------|--------|--------|--------|--------|--------|--------|--------|--------|


E|--------|--------|--------|--------|--------|--------|--------|--------|--------|
B|--------|--------|--------|--------|--------|--------|--------|--------|--------|
G|--------|--------|--------|--------|--------|--------|--------|--------|--------|
D|--------|--------|--------|--------|--------|--------|--------|--------|--------|
A|--------|--------|--------|--------|--------|--------|--------|--------|--------|
E|--------|--------|--------|--------|--------|--------|--------|--------|--------|


E|--------|--------|--------|--------|--------|--------|--------|--------|--------|
B|--------|--------|--------|--------|--------|--------|--------|--------|--------|
G|--------|--------|--------|--------|--------|--------|--------|--------|--------|
D|--------|--------|--------|--------|--------|--------|--------|--------|--------|
A|--------|--------|--------|--------|--------|--------|--------|--------|--------|
E|--------|--------|--------|--------|--------|--------|--------|--------|--------|


E|--------|--------|--------|--------|--------|--------|--------|--------|--------|
B|--------|--------|--------|--------|--------|--------|--------|--------|--------|
G|--------|--------|--------|--------|--------|--------|--------|--------|--------|
D|--------|--------|--------|--------|--------|--------|--------|--------|--------|
A|--------|--------|--------|--------|--------|--------|--------|--------|--------|
E|--------|--------|--------|--------|--------|--------|--------|--------|--------|


E|--------|--------|--------|--------|--------|--------|--------|--------|--------|
B|--------|--------|--------|--------|--------|--------|--------|--------|--------|
G|--------|--------|--------|--------|--------|--------|--------|--------|--------|
D|--------|--------|--------|--------|--------|--------|--------|--------|--------|
A|--------|--------|--------|--------|--------|--------|--------|--------|--------|
E|--------|--------|--------|--------|--------|--------|--------|--------|--------|


E|--------|--------|--------|--------|--------|--------|--------|--------|--------|
B|--------|--------|--------|--------|--------|--------|--------|--------|--------|
G|--------|--------|--------|--------|--------|--------|--------|--------|--------|
D|--------|--------|--------|--------|--------|--------|--------|--------|--------|
A|--------|--------|--------|--------|--------|--------|--------|--------|--------|
E|--------|--------|--------|--------|--------|--------|--------|--------|--------|


E|--------|--------|--------|--------|--------|--------|--------|--------|--------|
B|--------|--------|--------|--------|--------|--------|--------|--------|--------|
G|--------|--------|--------|--------|--------|--------|--------|--------|--------|
D|--------|--------|--------|--------|--------|--------|--------|--------|--------|
A|--------|--------|--------|--------|--------|--------|--------|--------|--------|
E|--------|--------|--------|--------|--------|--------|--------|--------|--------|


E|--------|--------|--------|--------|--------|--------|--------|---------------------------|
B|--------|--------|--------|--------|--------|--------|--------|------3----3---------------|
G|--------|--------|--------|--------|--------|--------|--------|-0----0----0---------------|
D|--------|--------|--------|--------|--------|--------|--------|-0----0----0---------------|
A|--------|--------|--------|--------|--------|--------|--------|-----------------------2---|
E|--------|--------|--------|--------|--------|--------|--------|-3----3----3---3---2---0---|


E|---------0---0-------------|-0----0----0---0---0---0---|-0---0---0---0----0-----------|
B|---------0---0-------------|-3----3----3---3---3---2---|-2---2---2---2----2-----------|
G|---------0---0-------------|-2----2----2---2---2---2---|-2---2---2---2----2-----------|
D|-----2---2---2----2---2----|-0----0----0---0---0---2---|-2---2---2---2----2-----------|
A|-2---2---2---2----2---2----|-----------------------0---|-0---0---0---0----0-----------|
E|-0---0---0---0----0---0----|---------------------------|----------------------0---2---|


E|---------------------------|---------0---0-------------|-0----0----0---0---0---0---|
B|------3----3---------------|---------0---0-------------|-3----3----3---3---3---2---|
G|-0----0----0---------------|---------0---0-------------|-2----2----2---2---2---2---|
D|-0----0----0---------------|-----2---2---2----2---2----|-0----0----0---0---0---2---|
A|-----------------------2---|-2---2---2---2----2---2----|-----------------------0---|
E|-3----3----3---3---2---0---|-0---0---0---0----0---0----|---------------------------|


E|-0---0---0---0----0-----------|-0------|-0------|-0------|-0------|--------|--------|
B|-2---2---2---2----2-----------|-3------|-3------|-3------|-3------|--------|--------|
G|-2---2---2---2----2-----------|-2------|-2------|-2------|-2------|--------|--------|
D|-2---2---2---2----2-----------|-0------|-0------|-0------|-0------|--------|--------|
A|-0---0---0---0----0-----------|--------|--------|--------|--------|--------|--------|
E|----------------------0---2---|--------|--------|--------|--------|--------|--------|


E|--------|--------|--------|--------|--------|--------|--------|--------|--------|
B|--------|--------|--------|--------|--------|--------|--------|--------|--------|
G|--------|--------|--------|--------|--------|--------|--------|--------|--------|
D|--------|--------|--------|--------|--------|--------|--------|--------|--------|
A|--------|--------|--------|--------|--------|--------|--------|--------|--------|
E|--------|--------|--------|--------|--------|--------|--------|--------|--------|


E|--------|--------|--------|
B|--------|--------|--------|
G|--------|--------|--------|
D|--------|--------|--------|
A|--------|--------|--------|
E|--------|--------|--------|





Track 7: Untitled

G|------------------------|------------------------------|------------------------------|
D|------------------------|------------------------------|------------------------------|
A|-7----7----7----7---5---|-5---5---5----5---5---5---2---|-2---2---2----2---2---2---0---|
E|------------------------|------------------------------|------------------------------|


G|------------------------------|------------------------|------------------------------|
D|------------------------------|------------------------|------------------------------|
A|-0---0---0---0----0---0---2---|-7----7----7----7---5---|-5---5---5----5---5---5---2---|
E|------------------------------|------------------------|------------------------------|


G|------------------------------|------------------------------|------------------------|
D|------------------------------|------------------------------|------------------------|
A|-2---2---2----2---2---2---0---|-0---0---0---0----0---0---2---|-7----7----7---7----5---|
E|------------------------------|------------------------------|------------------------|


G|------------------------------|------------------------------|------------------------------|
D|------------------------------|------------------------------|------------------------------|
A|-5---5---5----5---5---5---2---|-2---2---2----2---2---2---0---|-0---0---0---0----0---2---5---|
E|------------------------------|------------------------------|------------------------------|


G|------------------------|------------------------------|------------------------------|
D|------------------------|------------------------------|------------------------------|
A|-7----7----7---7----5---|-5---5---5----5---5---5---2---|-2---2---2----2---2---2---0---|
E|------------------------|------------------------------|------------------------------|


G|------------------------------|------------------------|------------------------------|
D|------------------------------|------------------------|------------------------------|
A|-0---0---0---0----0---2---5---|-7----7----7---7----5---|-5---5---5----5---5---5---2---|
E|------------------------------|------------------------|------------------------------|


G|------------------------------|------------------------------|------------------------|
D|------------------------------|------------------------------|------------------------|
A|-2---2---2----2---2---2---0---|-0---0---0---0----0---2---5---|-7----7----7---7----5---|
E|------------------------------|------------------------------|------------------------|


G|------------------------------|------------------------------|---------------------------------|
D|------------------------------|------------------------------|---------------------------------|
A|-5---5---5----5---5---5---2---|-2---2---2----2---2---2---0---|-0---0---0---0---0---0-----------|
E|------------------------------|------------------------------|-------------------------0---2---|


G|---------------------------|---------------------------|---------------------------|
D|---------------------------|---------------------------|---------------------------|
A|---------------------------|---------------------------|-5----5----5---5---5---0---|
E|-3----3----3---3---2---0---|-0---0---0----0---0---0----|---------------------------|


G|---------------------------------|---------------------------|---------------------------|
D|---------------------------------|---------------------------|---------------------------|
A|-0---0---0---0---0---0-----------|---------------------------|---------------------------|
E|-------------------------0---2---|-3----3----3---3---2---0---|-0---0---0----0---0---0----|


G|---------------------------|---------------------------------|------------------------|
D|---------------------------|---------------------------------|------------------------|
A|-5----5----5---5---5---0---|-0---0---0---0---0---0---0---5---|-7----7----7---7----5---|
E|---------------------------|---------------------------------|------------------------|


G|------------------------------|------------------------------|------------------------------|
D|------------------------------|------------------------------|------------------------------|
A|-5---5---5----5---5---5---2---|-2---2---2----2---2---2---0---|-0---0---0---0----0---2---5---|
E|------------------------------|------------------------------|------------------------------|


G|------------------------|------------------------------|------------------------------|
D|------------------------|------------------------------|------------------------------|
A|-7----7----7---7----5---|-5---5---5----5---5---5---2---|-2---2---2----2---2---2---0---|
E|------------------------|------------------------------|------------------------------|


G|------------------------------|---------------------------|------------------------------|
D|------------------------------|---------------7-----------|---------7-------7------------|
A|-0---0---0---0----0---2---5---|-7----7----7-------7---5---|-5---5-------5--------5---2---|
E|------------------------------|---------------------------|------------------------------|


G|------------------------------|------------------------------|---------------------------|
D|------------------------------|------------------------------|---------------5-----------|
A|-2---2---2----2---0---2---0---|-0---0---0---0----0---2---5---|-7----7---7--------7---5---|
E|------------------------------|------------------------------|---------------------------|


G|---------------------------|---------------------------|---------------------------------|
D|---------------------------|---------------------------|---------------------------------|
A|-5---5----5----7---5---7---|-2----2----2---0---2---0---|-0---0---0---0---0---0-----------|
E|---------------------------|---------------------------|-------------------------0---2---|


G|---------------------------|---------------------------|---------------------------|
D|---------------------------|---------------------------|---------------------------|
A|---------------------------|---------------------------|-5----5----5---5---5---0---|
E|-3----3----3---3---2---0---|-0---0---0----0---0---0----|---------------------------|


G|---------------------------------|---------------------------|---------------------------|
D|---------------------------------|---------------------------|---------------------------|
A|-0---0---0---0---5---7-----------|---------------------------|---------------------------|
E|-------------------------0---2---|-3----3----3---3---2---0---|-0---0---0----0---0---0----|


G|---------------------------|---------------------------------|---------------------------|
D|---------------------------|-------------------------2---4---|-5----5----5---5---4---2---|
A|-5----5----5---5---5---0---|-0---0---0---0---5---7-----------|---------------------------|
E|---------------------------|---------------------------------|---------------------------|


G|---------------------------|---------------------------|---------------------------------|
D|-2---2---2----2---2---2----|---------------------------|---------------------------------|
A|---------------------------|-5----5----5---5---5---0---|-0---0---0---0---5---7-----------|
E|---------------------------|---------------------------|-------------------------0---2---|


G|---------------------------|---------------------------|---------------------------|
D|---------------------------|---------------------------|---------------------------|
A|---------------------------|---------------------------|-5----5----5---5---5---0---|
E|-3----3----3---3---2---0---|-0---0---0----0---0---0----|---------------------------|


G|---------------------------------|---------------------------|--------------------|
D|-------------------------0---4---|-5---5----5----5---5---4---|-4----4-----4---4---|
A|-0---0---0---0---0---0-----------|---------------------------|--------------------|
E|---------------------------------|---------------------------|--------------------|


G|---------------------------|---------------------|---------------------------|--------------------|
D|-7---7---7----7---7----7---|-7---7----7----7-----|-5---5----5----5---5---4---|-4----4-----4---4---|
A|---------------------------|---------------------|---------------------------|--------------------|
E|---------------------------|---------------------|---------------------------|--------------------|


G|------------------------|------------------------------|---------------------------|
D|-7----7-----------------|--------------------------4---|-5---5----5----5---5---4---|
A|-----------0---0----0---|-0---0----0---5---7---5-------|---------------------------|
E|------------------------|------------------------------|---------------------------|


G|--------------------|--------------------9---|-9---7---------7--------|---------------------------|
D|-4----4-----4---4---|-7---7----7----7--------|----------9---------0---|-5---5----5----5---5---4---|
A|--------------------|------------------------|------------------------|---------------------------|
E|--------------------|------------------------|------------------------|---------------------------|


G|--------------------|------------------------|------------------------------|---------------------------|
D|-4----4-----4---4---|-7----7----7------------|--------------------------4---|---------------------------|
A|--------------------|---------------2----0---|-0---0----0---5---7---5-------|-----------2-------2-------|
E|--------------------|------------------------|------------------------------|-3---3---------3-------2---|


G|---------------------|---------------------------|---------------------|---------------------------|
D|---------------------|---------------------------|---------------------|---------------------------|
A|---------------------|-0---0----0----7---5---0---|-0---0----0----0-----|---------------------------|
E|-2---2----2----2-----|---------------------------|---------------------|-3----3----3---3---3---2---|


G|---------------------------------|---------------------------|---------------------------------|
D|---------------------------------|---------------------------|---------------------------------|
A|---------------------------------|-0---0----0----------------|---------------------------------|
E|-2---2---2---2---2---2---2---2---|---------------3---2---0---|-0---0---0---0---0---0---2---3---|


G|---------------------------|---------------------------|---------------------------|
D|---------------------------|---------------------------|---------------------------|
A|---------------------------|---------------------------|-5----5----5---5---5---0---|
E|-3----3----3---3---2---0---|-0---0---0----0---0---0----|---------------------------|


G|---------------------------------|---------------------------|---------------------------|
D|---------------------------------|---------------------------|---------------------------|
A|-0---0---0---0---5---7-----------|---------------------------|---------------------------|
E|-------------------------0---2---|-3----3----3---3---2---0---|-0---0---0----0---0---0----|


G|---------------------------|---------------------------------|---------------------------|
D|---------------------------|-------------------------2---4---|-5----5----5---5---4---2---|
A|-5----5----5---5---5---0---|-0---0---0---0---5---7-----------|---------------------------|
E|---------------------------|---------------------------------|---------------------------|


G|---------------------------|---------------------------|---------------------------------|
D|-2---2---2----2---2---2----|---------------------------|---------------------------------|
A|---------------------------|-5----5----5---5---4---0---|-0---0---0---0---5---7-----------|
E|---------------------------|---------------------------|-------------------------0---2---|


G|---------------------------|---------------------------|---------------------------|
D|---------------------------|---------------------------|---------------------------|
A|---------------------------|---------------------------|-5----5----5---5---5---0---|
E|-3----3----3---3---2---0---|-0---0---0----0---0---0----|---------------------------|


G|---------------------------------|---------------------------|---------------------------|
D|-------------------------2---4---|-5----5----5---5---4---2---|-2---2---2----2---2---2----|
A|-0---0---0---0---5---7-----------|---------------------------|---------------------------|
E|---------------------------------|---------------------------|---------------------------|


G|---------------------------|---------------------------------|---------------------------|
D|---------------------------|-------------------------2---4---|-5----5----5---5---4---2---|
A|-5----5----5---5---4---0---|-0---0---0---0---5---7-----------|---------------------------|
E|---------------------------|---------------------------------|---------------------------|


G|---------------------|--------|--------|--------|--------|
D|-2---2----2----2-----|--------|--------|--------|--------|
A|---------------------|-5------|-5------|-5------|-5------|
E|---------------------|--------|--------|--------|--------|