Site menu:

    

Browse: 0-9 A B C D E F G H I J K L N O P Q R S T U V W X Y Z

hole - heaven tonight:



Title: Heaven Tonight
Artist: 
Album: Celebrity Skin
Author: Eric Erlandson


Track 1: Two 12-string guitars arranged for one

E|---------5---------------5-------|---------------------------0-------|---------5----------------------------|
B|-----8-------8-------7-------7---|-----5---7--5----------5-------5---|-----8-------8-------7---5--7--5------|
G|-7---------------7---------------|-7-------------7---6---------------|-7---------------7----------------7---|
D|---------------------------------|-----------------------------------|--------------------------------------|
A|---------------------------------|-----------------------------------|--------------------------------------|
E|---------------------------------|-----------------------------------|--------------------------------------|


E|---------0-----------0-----------|---------0---------------0-------|---------0-----------0-------0---|
B|-----0-----------0-----------0---|-----0-----------0---0-----------|-----0-----------0---------------|
G|-6-----------4-----------2-------|-6-----------7---------------7---|-6-----------4-----------2-------|
D|---------------------------------|---------------------------------|---------------------------------|
A|---------------------------------|---------------------------------|---------------------------------|
E|---------------------------------|---------------------------------|---------------------------------|


E|---------0---------------0----|-0----0---0---0---0---0---0---|-0----0---0---0---0---0---0---|
B|-----0---------------0--------|-0----0---0---0---0---0---0---|-3----3---3---3---3---3---3---|
G|-6-----------7---7------------|-2----2---2---2---2---2---2---|-2----2---2---2---2---2---2---|
D|------------------------------|-2----2---2---2---2---2---2---|-0----0---0---0---0---0---0---|
A|------------------------------|-0----0---0---0---0---0---0---|------------------------------|
E|------------------------------|------------------------------|------------------------------|


E|-0----0---0---0---0---0---0---|-0----0---0---0---0---0---0---|-0----0---0---0---0---0---0---|
B|-0----0---0---0---0---0---0---|-0----0---0---3---3---3---3---|-0----0---0---0---0---0---0---|
G|-1----1---1---1---1---1---1---|-2----2---2---2---2---2---2---|-1----1---1---1---1---1---1---|
D|-2----2---2---2---2---2---2---|-2----2---2---0---0---0---0---|-2----2---2---2---2---2---2---|
A|-2----2---2---2---2---2---2---|-0----0---0-------------------|-2----2---2---2---2---2---2---|
E|-0----0---0---0---0---0---0---|------------------------------|-0----0---0---0---0---0---0---|


E|-0----0---0---0---0---0---0---|-0----0---0---0---0---0---0---|-0----0---0---0---0---0---0---|
B|-0----0---0---3---3---3---3---|-0----0---0---0---0---0---0---|-0----0---0---0---0---0---0---|
G|-2----2---2---2---2---2---2---|-1----1---1---1---1---1---1---|-2----2---2---2---2---2---2---|
D|-2----2---2---0---0---0---0---|-2----2---2---2---2---2---2---|-2----2---2---2---2---2---2---|
A|-0----0---0-------------------|-2----2---2---2---2---2---2---|-0----0---0---0---0---0---0---|
E|------------------------------|-0----0---0---0---0---0---0---|------------------------------|


E|-0----0---0---0---0---0---0---|-0----0---0---0---0---0---0---|-0----0---0---0---0---0---0---|
B|-3----3---3---3---3---3---3---|-0----0---0---0---0---0---0---|-0----0---0---3---3---3---3---|
G|-2----2---2---2---2---2---2---|-1----1---1---1---1---1---1---|-2----2---2---2---2---2---2---|
D|-0----0---0---0---0---0---0---|-2----2---2---2---2---2---2---|-2----2---2---0---0---0---0---|
A|------------------------------|-2----2---2---2---2---2---2---|-0----0---0-------------------|
E|------------------------------|-0----0---0---0---0---0---0---|------------------------------|


E|-0----0---0---0---0---0---0---|-0----0---0---0---0---0---0---|-0----0---0---0---0---0---0---|
B|-0----0---0---0---0---0---0---|-0----0---0---3---3---3---3---|-0----0---0---0---0---0---0---|
G|-1----1---1---1---1---1---1---|-2----2---2---2---2---2---2---|-1----1---1---1---1---1---1---|
D|-2----2---2---2---2---2---2---|-2----2---2---0---0---0---0---|-2----2---2---2---2---2---2---|
A|-2----2---2---2---2---2---2---|-0----0---0-------------------|-2----2---2---2---2---2---2---|
E|-0----0---0---0---0---0---0---|------------------------------|-0----0---0---0---0---0---0---|


E|-------------0---0---------------|-------------4---4---5---4-------|-------------0---0---------------|
B|-3-------------------3-------3---|-----5-----------------------5---|-3-------------------3-------3---|
G|-----2-------------------2-------|-4-------4-----------------------|-----2-------------------2-------|
D|---------0-----------------------|---------------------------------|---------0-----------------------|
A|---------------------------------|---------------------------------|---------------------------------|
E|---------------------------------|---------------------------------|---------------------------------|


E|-------------4---4---5---4-------|-------------0---0---------------|-------------4---4---5---4-------|
B|-----5-----------------------5---|-3-------------------3-------3---|-----5-----------------------5---|
G|-4-------4-----------------------|-----2-------------------2-------|-4-------4-----------------------|
D|---------------------------------|---------0-----------------------|---------------------------------|
A|---------------------------------|---------------------------------|---------------------------------|
E|---------------------------------|---------------------------------|---------------------------------|


E|-------------0---0---------------|-------------4---4---5---4-------|-0----0---0---0---0---0---0---|
B|-3-------------------3-------3---|-----5-----------------------5---|-0----0---0---3---3---3---3---|
G|-----2-------------------2-------|-4-------4-----------------------|-2----2---2---2---2---2---2---|
D|---------0-----------------------|---------------------------------|-2----2---2---0---0---0---0---|
A|---------------------------------|---------------------------------|-0----0---0-------------------|
E|---------------------------------|---------------------------------|------------------------------|


E|-0---0---0---0---0---0---0---0---|-0----0---0---0---0---0---0---|-0---0---0---0---0---0---0---0---|
B|-0---0---0---0---0---0---0---0---|-0----0---0---3---3---3---3---|-0---0---0---0---0---0---0---0---|
G|-1---1---1---1---1---1---1---1---|-2----2---2---2---2---2---2---|-1---1---1---1---1---1---1---1---|
D|-2---2---2---2---2---2---2---2---|-2----2---2---0---0---0---0---|-2---2---2---2---2---2---2---2---|
A|-2---2---2---2---2---2---2---2---|-0----0---0-------------------|-2---2---2---2---2---2---2---2---|
E|-0---0---0---0---0---0---0---0---|------------------------------|-0---0---0---0---0---0---0---0---|


E|-0----0---0---0---0---0---0---|-0----0---0---0---0---0---0---|-0----0---0---0---0---0---0---|
B|-0----0---0---0---0---0---0---|-3----3---3---3---3---3---3---|-0----0---0---0---0---0---0---|
G|-2----2---2---2---2---2---2---|-2----2---2---2---2---2---2---|-1----1---1---1---1---1---1---|
D|-2----2---2---2---2---2---2---|-0----0---0---0---0---0---0---|-2----2---2---2---2---2---2---|
A|-0----0---0---0---0---0---0---|------------------------------|-2----2---2---2---2---2---2---|
E|------------------------------|------------------------------|-0----0---0---0---0---0---0---|


E|-0----0---0---0---0---0---0---|-0----0---0---0---0---0---0---|-0----0---0---0---0---0---0---|
B|-0----0---0---3---3---3---3---|-0----0---0---0---0---0---0---|-0----0---0---3---3---3---3---|
G|-2----2---2---2---2---2---2---|-1----1---1---1---1---1---1---|-2----2---2---2---2---2---2---|
D|-2----2---2---0---0---0---0---|-2----2---2---2---2---2---2---|-2----2---2---0---0---0---0---|
A|-0----0---0-------------------|-2----2---2---2---2---2---2---|-0----0---0-------------------|
E|------------------------------|-0----0---0---0---0---0---0---|------------------------------|


E|-0----0---0---0---0---0---0---|-0----0---0---0---0---0---0---|-0----0---0---0---0---0---0---|
B|-0----0---0---0---0---0---0---|-0----0---0---0---0---0---0---|-3----3---3---3---3---3---3---|
G|-1----1---1---1---1---1---1---|-2----2---2---2---2---2---2---|-2----2---2---2---2---2---2---|
D|-2----2---2---2---2---2---2---|-2----2---2---2---2---2---2---|-0----0---0---0---0---0---0---|
A|-2----2---2---2---2---2---2---|-0----0---0---0---0---0---0---|------------------------------|
E|-0----0---0---0---0---0---0---|------------------------------|------------------------------|


E|-0----0---0---0---0---0---0---|-0----0---0---0---0---0---0---|-0----0---0---0---0---0---0---|
B|-0----0---0---0---0---0---0---|-0----0---0---3---3---3---3---|-0----0---0---0---0---0---0---|
G|-1----1---1---1---1---1---1---|-2----2---2---2---2---2---2---|-1----1---1---1---1---1---1---|
D|-2----2---2---2---2---2---2---|-2----2---2---0---0---0---0---|-2----2---2---2---2---2---2---|
A|-2----2---2---2---2---2---2---|-0----0---0-------------------|-2----2---2---2---2---2---2---|
E|-0----0---0---0---0---0---0---|------------------------------|-0----0---0---0---0---0---0---|


E|-0----0---0---0---0---0---0---|-0----0---0---0---0---0---0---|-------------0---0---------------|
B|-0----0---0---3---3---3---3---|-0----0---0---0---0---0---0---|-3-------------------3-------3---|
G|-2----2---2---2---2---2---2---|-1----1---1---1---1---1---1---|-----2-------------------2-------|
D|-2----2---2---0---0---0---0---|-2----2---2---2---2---2---2---|---------0-----------------------|
A|-0----0---0-------------------|-2----2---2---2---2---2---2---|---------------------------------|
E|------------------------------|-0----0---0---0---0---0---0---|---------------------------------|


E|-------------4---4---5---4-------|-------------0---0---------------|-------------4---4---5---4-------|
B|-----5-----------------------5---|-3-------------------3-------3---|-----5-----------------------5---|
G|-4-------4-----------------------|-----2-------------------2-------|-4-------4-----------------------|
D|---------------------------------|---------0-----------------------|---------------------------------|
A|---------------------------------|---------------------------------|---------------------------------|
E|---------------------------------|---------------------------------|---------------------------------|


E|-------------0---0---------------|-------------4---4---5---4-------|-------------0---0---------------|
B|-3-------------------3-------3---|-----5-----------------------5---|-3-------------------3-------3---|
G|-----2-------------------2-------|-4-------4-----------------------|-----2-------------------2-------|
D|---------0-----------------------|---------------------------------|---------0-----------------------|
A|---------------------------------|---------------------------------|---------------------------------|
E|---------------------------------|---------------------------------|---------------------------------|


E|-------------4---4---5---4-------|-0----0---0---0---0---0---0---|-0---0---0---0---0---0---0---0---|
B|-----5-----------------------5---|-0----0---0---3---3---3---3---|-0---0---0---0---0---0---0---0---|
G|-4-------4-----------------------|-2----2---2---2---2---2---2---|-1---1---1---1---1---1---1---1---|
D|---------------------------------|-2----2---2---0---0---0---0---|-2---2---2---2---2---2---2---2---|
A|---------------------------------|-0----0---0-------------------|-2---2---2---2---2---2---2---2---|
E|---------------------------------|------------------------------|-0---0---0---0---0---0---0---0---|


E|-0----0---0---0---0---0---0---|-0---0---0---0---0---0---0---0---|---------5---------------5-------|
B|-0----0---0---3---3---3---3---|-0---0---0---0---0---0---0---0---|-----8-------8-------7-------7---|
G|-2----2---2---2---2---2---2---|-1---1---1---1---1---1---1---1---|-7---------------7---------------|
D|-2----2---2---0---0---0---0---|-2---2---2---2---2---2---2---2---|---------------------------------|
A|-0----0---0-------------------|-2---2---2---2---2---2---2---2---|---------------------------------|
E|------------------------------|-0---0---0---0---0---0---0---0---|---------------------------------|


E|---------------------------0-------|---------5---------------5-------|---------------------------0-------|
B|-----5---7--5----------5-------5---|-----8-------8-------7-------7---|-----5---7--5----------5-------5---|
G|-7-------------7---6---------------|-7---------------7---------------|-7-------------7---6---------------|
D|-----------------------------------|---------------------------------|-----------------------------------|
A|-----------------------------------|---------------------------------|-----------------------------------|
E|-----------------------------------|---------------------------------|-----------------------------------|


E|---------5---------------5-------|---------------------------0-------|---------5---------------5-------|
B|-----8-------8-------7-------7---|-----5---7--5----------5-------5---|-----8-------8-------7-------7---|
G|-7---------------7---------------|-7-------------7---6---------------|-7---------------7---------------|
D|---------------------------------|-----------------------------------|---------------------------------|
A|---------------------------------|-----------------------------------|---------------------------------|
E|---------------------------------|-----------------------------------|---------------------------------|


E|---------------------------0-------|---------5---------------5-------|---------------------------0-------|
B|-----5---7--5----------5-------5---|-----8-------8-------7-------7---|-----5---7--5----------5-------5---|
G|-7-------------7---6---------------|-7---------------7---------------|-7-------------7---6---------------|
D|-----------------------------------|---------------------------------|-----------------------------------|
A|-----------------------------------|---------------------------------|-----------------------------------|
E|-----------------------------------|---------------------------------|-----------------------------------|


E|---------5----------------------------|---------0-----------0-----------|---------0---------------0-------|
B|-----8-------8-------7---5--7--5------|-----0-----------0-----------0---|-----0-----------0---0-----------|
G|-7---------------7----------------7---|-6-----------4-----------2-------|-6-----------7---------------7---|
D|--------------------------------------|---------------------------------|---------------------------------|
A|--------------------------------------|---------------------------------|---------------------------------|
E|--------------------------------------|---------------------------------|---------------------------------|


E|-0----0---0---0---0---0---0---|-0----0---0---0---0---0---0---|-0----0---0---0---0---0---0---|
B|-0----0---0---0---0---0---0---|-3----3---3---3---3---3---3---|-0----0---0---0---0---0---0---|
G|-2----2---2---2---2---2---2---|-2----2---2---2---2---2---2---|-1----1---1---1---1---1---1---|
D|-2----2---2---2---2---2---2---|-0----0---0---0---0---0---0---|-2----2---2---2---2---2---2---|
A|-0----0---0---0---0---0---0---|------------------------------|-2----2---2---2---2---2---2---|
E|------------------------------|------------------------------|-0----0---0---0---0---0---0---|


E|-0----0---0---0---0---0---0---|-0----0---0---0---0---0---0---|-0----0---0---0---0---0---0---|
B|-0----0---0---3---3---3---3---|-0----0---0---0---0---0---0---|-0----0---0---3---3---3---3---|
G|-2----2---2---2---2---2---2---|-1----1---1---1---1---1---1---|-2----2---2---2---2---2---2---|
D|-2----2---2---0---0---0---0---|-2----2---2---2---2---2---2---|-2----2---2---0---0---0---0---|
A|-0----0---0-------------------|-2----2---2---2---2---2---2---|-0----0---0-------------------|
E|------------------------------|-0----0---0---0---0---0---0---|------------------------------|


E|-0----0---0---0---0---0---0---|-0----0---0---0---0---0---0---|-0----0---0---0---0---0---0---|
B|-0----0---0---0---0---0---0---|-0----0---0---0---0---0---0---|-3----3---3---3---3---3---3---|
G|-1----1---1---1---1---1---1---|-2----2---2---2---2---2---2---|-2----2---2---2---2---2---2---|
D|-2----2---2---2---2---2---2---|-2----2---2---2---2---2---2---|-0----0---0---0---0---0---0---|
A|-2----2---2---2---2---2---2---|-0----0---0---0---0---0---0---|------------------------------|
E|-0----0---0---0---0---0---0---|------------------------------|------------------------------|


E|-0----0---0---0---0---0---0---|-0----0---0---0---0---0---0---|-0----0---0---0---0---0---0---|
B|-0----0---0---0---0---0---0---|-0----0---0---3---3---3---3---|-0----0---0---0---0---0---0---|
G|-1----1---1---1---1---1---1---|-2----2---2---2---2---2---2---|-1----1---1---1---1---1---1---|
D|-2----2---2---2---2---2---2---|-2----2---2---0---0---0---0---|-2----2---2---2---2---2---2---|
A|-2----2---2---2---2---2---2---|-0----0---0-------------------|-2----2---2---2---2---2---2---|
E|-0----0---0---0---0---0---0---|------------------------------|-0----0---0---0---0---0---0---|


E|-0----0---0---0---0---0---0---|-0----0---0---0---0---0---0---|-------------0---0---------------|
B|-0----0---0---3---3---3---3---|-0----0---0---0---0---0---0---|-3-------------------3-------3---|
G|-2----2---2---2---2---2---2---|-1----1---1---1---1---1---1---|-----2-------------------2-------|
D|-2----2---2---0---0---0---0---|-2----2---2---2---2---2---2---|---------0-----------------------|
A|-0----0---0-------------------|-2----2---2---2---2---2---2---|---------------------------------|
E|------------------------------|-0----0---0---0---0---0---0---|---------------------------------|


E|-------------4---4---5---4-------|-------------0---0---------------|-------------4---4---5---4-------|
B|-----5-----------------------5---|-3-------------------3-------3---|-----5-----------------------5---|
G|-4-------4-----------------------|-----2-------------------2-------|-4-------4-----------------------|
D|---------------------------------|---------0-----------------------|---------------------------------|
A|---------------------------------|---------------------------------|---------------------------------|
E|---------------------------------|---------------------------------|---------------------------------|


E|-------------0---0---------------|-------------4---4---5---4-------|-------------0---0---------------|
B|-3-------------------3-------3---|-----5-----------------------5---|-3-------------------3-------3---|
G|-----2-------------------2-------|-4-------4-----------------------|-----2-------------------2-------|
D|---------0-----------------------|---------------------------------|---------0-----------------------|
A|---------------------------------|---------------------------------|---------------------------------|
E|---------------------------------|---------------------------------|---------------------------------|


E|-------------4---4---5---4-------|-----0----0---0---0---0---0---|-0---0---0---0---0---0---0---0---|
B|-----5-----------------------5---|-5---0----0---0---3---3---3---|-3---0---0---0---0---0---0---0---|
G|-4-------4-----------------------|-----2----2---2---2---2---2---|-2---1---1---1---1---1---1---1---|
D|---------------------------------|-----2----2---2---0---0---0---|-0---2---2---2---2---2---2---2---|
A|---------------------------------|-----0----0---0---------------|-----2---2---2---2---2---2---2---|
E|---------------------------------|------------------------------|-----0---0---0---0---0---0---0---|


E|-0---0----0---0---0---0---0---|-0---0---0---0---0---0---0---0---|-0---0----0---0---0---0---0---|
B|-0---0----0---0---3---3---3---|-3---0---0---0---0---0---0---0---|-0---0----0---0---0---0---0---|
G|-1---2----2---2---2---2---2---|-2---1---1---1---1---1---1---1---|-1---2----2---2---2---2---2---|
D|-2---2----2---2---0---0---0---|-0---2---2---2---2---2---2---2---|-2---2----2---2---2---2---2---|
A|-2---0----0---0---------------|-----2---2---2---2---2---2---2---|-2---0----0---0---0---0---0---|
E|-0----------------------------|-----0---0---0---0---0---0---0---|-0----------------------------|


E|-0---0----0---0---0---0---0---|-0---0----0---0---0---0---0---|-0---0----0---0---0---0---0---|
B|-0---3----3---3---3---3---3---|-3---0----0---0---0---0---0---|-0---0----0---0---3---3---3---|
G|-2---2----2---2---2---2---2---|-2---1----1---1---1---1---1---|-1---2----2---2---2---2---2---|
D|-2---0----0---0---0---0---0---|-0---2----2---2---2---2---2---|-2---2----2---2---0---0---0---|
A|-0----------------------------|-----2----2---2---2---2---2---|-2---0----0---0---------------|
E|------------------------------|-----0----0---0---0---0---0---|-0----------------------------|


E|-0---0----0---0---0---0---0---|-0---0----0---0---0---0---0---|-0---0----0---0---0---0---0---|
B|-3---0----0---0---0---0---0---|-0---0----0---0---3---3---3---|-3---0----0---0---0---0---0---|
G|-2---1----1---1---1---1---1---|-1---2----2---2---2---2---2---|-2---1----1---1---1---1---1---|
D|-0---2----2---2---2---2---2---|-2---2----2---2---0---0---0---|-0---2----2---2---2---2---2---|
A|-----2----2---2---2---2---2---|-2---0----0---0---------------|-----2----2---2---2---2---2---|
E|-----0----0---0---0---0---0---|-0----------------------------|-----0----0---0---0---0---0---|


E|-0---0----0---0---0---0---0---|-0---0----0---0---0---0---0---|-0---0----0---0---0---0---0---|
B|-0---0----0---0---0---0---0---|-0---3----3---3---3---3---3---|-3---0----0---0---0---0---0---|
G|-1---2----2---2---2---2---2---|-2---2----2---2---2---2---2---|-2---1----1---1---1---1---1---|
D|-2---2----2---2---2---2---2---|-2---0----0---0---0---0---0---|-0---2----2---2---2---2---2---|
A|-2---0----0---0---0---0---0---|-0----------------------------|-----2----2---2---2---2---2---|
E|-0----------------------------|------------------------------|-----0----0---0---0---0---0---|


E|-0---0----0---0---0---0---0---|-0---0----0---0---0---0---0---|-0---0----0---0---0---0---0---|
B|-0---0----0---0---3---3---3---|-3---0----0---0---0---0---0---|-0---0----0---0---3---3---3---|
G|-1---2----2---2---2---2---2---|-2---1----1---1---1---1---1---|-1---2----2---2---2---2---2---|
D|-2---2----2---2---0---0---0---|-0---2----2---2---2---2---2---|-2---2----2---2---0---0---0---|
A|-2---0----0---0---------------|-----2----2---2---2---2---2---|-2---0----0---0---------------|
E|-0----------------------------|-----0----0---0---0---0---0---|-0----------------------------|


E|-0---0----0---0---0---0---0---|-0---------------0---0-----------|-----------------4---4---5---4---|
B|-3---0----0---0---0---0---0---|-0---3-------------------3-------|-3-------5-----------------------|
G|-2---1----1---1---1---1---1---|-1-------2-------------------2---|-----4-------4-------------------|
D|-0---2----2---2---2---2---2---|-2-----------0-------------------|---------------------------------|
A|-----2----2---2---2---2---2---|-2-------------------------------|---------------------------------|
E|-----0----0---0---0---0---0---|-0-------------------------------|---------------------------------|


E|-----------------0---0-----------|-----------------4---4---5---4---|-----------------0---0-----------|
B|-5---3-------------------3-------|-3-------5-----------------------|-5---3-------------------3-------|
G|---------2-------------------2---|-----4-------4-------------------|---------2-------------------2---|
D|-------------0-------------------|---------------------------------|-------------0-------------------|
A|---------------------------------|---------------------------------|---------------------------------|
E|---------------------------------|---------------------------------|---------------------------------|


E|-----------------4---4---5---4---|-----------------0---0-----------|-----------------4---4---5---4---|
B|-3-------5-----------------------|-5---3-------------------3-------|-3-------5-----------------------|
G|-----4-------4-------------------|---------2-------------------2---|-----4-------4-------------------|
D|---------------------------------|-------------0-------------------|---------------------------------|
A|---------------------------------|---------------------------------|---------------------------------|
E|---------------------------------|---------------------------------|---------------------------------|


E|-----0----0---0---0---0---0---|-0---0---0---0---0---0---0---0---|-0---0----0---0---0---0---0---|
B|-5---0----0---0---3---3---3---|-3---0---0---0---0---0---0---0---|-0---0----0---0---3---3---3---|
G|-----2----2---2---2---2---2---|-2---1---1---1---1---1---1---1---|-1---2----2---2---2---2---2---|
D|-----2----2---2---0---0---0---|-0---2---2---2---2---2---2---2---|-2---2----2---2---0---0---0---|
A|-----0----0---0---------------|-----2---2---2---2---2---2---2---|-2---0----0---0---------------|
E|------------------------------|-----0---0---0---0---0---0---0---|-0----------------------------|


E|-0---0---0---0---0---0---0---0---|-0-----------5---------------5---|-------------------------------0---|
B|-3---0---0---0---0---0---0---0---|-0-------8-------8-------7-------|-7-------5---7--5----------5-------|
G|-2---1---1---1---1---1---1---1---|-1---7---------------7-----------|-----7-------------7---6-----------|
D|-0---2---2---2---2---2---2---2---|-2-------------------------------|-----------------------------------|
A|-----2---2---2---2---2---2---2---|-2-------------------------------|-----------------------------------|
E|-----0---0---0---0---0---0---0---|-0-------------------------------|-----------------------------------|


E|-------------5---------------5---|-------------------------------0---|-------------5---------------5---|
B|-5-------8-------8-------7-------|-7-------5---7--5----------5-------|-5-------8-------8-------7-------|
G|-----7---------------7-----------|-----7-------------7---6-----------|-----7---------------7-----------|
D|---------------------------------|-----------------------------------|---------------------------------|
A|---------------------------------|-----------------------------------|---------------------------------|
E|---------------------------------|-----------------------------------|---------------------------------|


E|-------------------------------0---|-------------5---------------5---|-------------------------------0---|
B|-7-------5---7--5----------5-------|-5-------8-------8-------7-------|-7-------5---7--5----------5-------|
G|-----7-------------7---6-----------|-----7---------------7-----------|-----7-------------7---6-----------|
D|-----------------------------------|---------------------------------|-----------------------------------|
A|-----------------------------------|---------------------------------|-----------------------------------|
E|-----------------------------------|---------------------------------|-----------------------------------|


E|-------------5---------------5---|-------------------------------0---|-------------5------------------------|
B|-5-------8-------8-------7-------|-7-------5---7--5----------5-------|-5-------8-------8-------7---5--7--5--|
G|-----7---------------7-----------|-----7-------------7---6-----------|-----7---------------7----------------|
D|---------------------------------|-----------------------------------|--------------------------------------|
A|---------------------------------|-----------------------------------|--------------------------------------|
E|---------------------------------|-----------------------------------|--------------------------------------|


E|-------------0-----------0-------|-------------0---------------0---|-------------9---------------2---|
B|---------0-----------0-----------|-0-------0-----------0---0-------|---------10------10------3-------|
G|-7---6-----------4-----------2---|-----6-----------7---------------|-7---9---------------2-----------|
D|---------------------------------|---------------------------------|---------------------------------|
A|---------------------------------|---------------------------------|---------------------------------|
E|---------------------------------|---------------------------------|---------------------------------|


E|-------------4-----------4-------|-------------9---------------2---|-------------4---------------4---|
B|-3-------5-------5---5-------5---|---------10------10------3-------|-3-------5-------5---5---5-------|
G|-----4---------------------------|-4---9---------------2-----------|-----4---------------------------|
D|---------------------------------|---------------------------------|---------------------------------|
A|---------------------------------|---------------------------------|---------------------------------|
E|---------------------------------|---------------------------------|---------------------------------|


E|-------------9---------------2---|-------------4-------5-------4---|-------------9---------------2---|
B|-5-------10------10------3-------|-3-------5-------5-------5-------|-5-------10------10------3-------|
G|-----9---------------2-----------|-----4---------------------------|-----9---------------2-----------|
D|---------------------------------|---------------------------------|---------------------------------|
A|---------------------------------|---------------------------------|---------------------------------|
E|---------------------------------|---------------------------------|---------------------------------|


E|-------------4-------5-------4---|-------------9---------------2---|-------------4-------5-------4---|
B|-3-------5-------5-------5-------|-5-------10------10------3-------|-3-------5-------5-------5-------|
G|-----4---------------------------|-----9---------------2-----------|-----4---------------------------|
D|---------------------------------|---------------------------------|---------------------------------|
A|---------------------------------|---------------------------------|---------------------------------|
E|---------------------------------|---------------------------------|---------------------------------|


E|-------------9---------------7---|-------------4-------5-------4---|-------------9---------------2---|
B|-5-------10------10------8-------|-8-------5-------5-------5-------|-5-------10------10------3-------|
G|-----9---------------7-----------|-----4---------------------------|-----9---------------2-----------|
D|---------------------------------|---------------------------------|---------------------------------|
A|---------------------------------|---------------------------------|---------------------------------|
E|---------------------------------|---------------------------------|---------------------------------|


E|-------------4-------5-------4---|-------------9---------------7---|-------------4-------5-------4---|
B|-3-------5-------5-------5-------|-5-------10------10------8-------|-8-------5-------5-------5-------|
G|-----4---------------------------|-----9---------------7-----------|-----4---------------------------|
D|---------------------------------|---------------------------------|---------------------------------|
A|---------------------------------|---------------------------------|---------------------------------|
E|---------------------------------|---------------------------------|---------------------------------|


E|-----5------|-----5------|
B|-5---5------|-----5------|
G|-----6------|-----6------|
D|------------|------------|
A|------------|------------|
E|------------|------------|





Track 2: Untitled

G|--------|--------|--------|--------|--------|--------|--------|--------|--------|
D|--------|--------|--------|--------|--------|--------|--------|--------|--------|
A|--------|--------|--------|--------|--------|--------|--------|--------|--------|
E|--------|--------|--------|--------|--------|--------|--------|--------|--------|


G|--------|--------|--------|--------|--------|--------|--------|--------|--------|
D|--------|--------|--------|--------|--------|--------|--------|--------|--------|
A|--------|--------|--------|--------|--------|--------|--------|--------|--------|
E|--------|--------|--------|--------|--------|--------|--------|--------|--------|


G|--------|--------|--------|--------|--------|--------|--------|--------|--------|
D|--------|--------|--------|--------|--------|--------|--------|--------|--------|
A|--------|--------|--------|--------|--------|--------|--------|--------|--------|
E|--------|--------|--------|--------|--------|--------|--------|--------|--------|


G|--------|--------|--------|--------|--------|--------|--------|--------|--------|
D|--------|--------|--------|--------|--------|--------|--------|--------|--------|
A|--------|--------|--------|--------|--------|--------|--------|--------|--------|
E|--------|--------|--------|--------|--------|--------|--------|--------|--------|


G|--------|--------|--------|--------|--------|--------|--------|--------|--------|
D|--------|--------|--------|--------|--------|--------|--------|--------|--------|
A|--------|--------|--------|--------|--------|--------|--------|--------|--------|
E|--------|--------|--------|--------|--------|--------|--------|--------|--------|


G|--------|--------|--------|--------|--------|--------|--------|--------|--------|
D|--------|--------|--------|--------|--------|--------|--------|--------|--------|
A|--------|--------|--------|--------|--------|--------|--------|--------|--------|
E|--------|--------|--------|--------|--------|--------|--------|--------|--------|


G|--------|--------|--------|--------|--------|--------|--------|--------|--------|
D|--------|--------|--------|--------|--------|--------|--------|--------|--------|
A|--------|--------|--------|--------|--------|--------|--------|--------|--------|
E|--------|--------|--------|--------|--------|--------|--------|--------|--------|


G|--------|--------|--------|--------|--------|--------|--------|--------|--------|
D|--------|--------|--------|--------|--------|--------|--------|--------|--------|
A|--------|--------|--------|--------|--------|--------|--------|--------|--------|
E|--------|--------|--------|--------|--------|--------|--------|--------|--------|


G|--------|--------|--------|--------|--------|--------|--------|--------|--------|
D|--------|--------|--------|--------|--------|--------|--------|--------|--------|
A|--------|--------|--------|--------|--------|--------|--------|--------|--------|
E|--------|--------|--------|--------|--------|--------|--------|--------|--------|


G|--------|--------|--------|--------|--------|--------|--------|--------|--------|
D|--------|--------|--------|--------|--------|--------|--------|--------|--------|
A|--------|--------|--------|--------|--------|--------|--------|--------|--------|
E|--------|--------|--------|--------|--------|--------|--------|--------|--------|


G|--------|--------|--------|--------|--------|--------|--------|--------|--------|
D|--------|--------|--------|--------|--------|--------|--------|--------|--------|
A|--------|--------|--------|--------|--------|--------|--------|--------|--------|
E|--------|--------|--------|--------|--------|--------|--------|--------|--------|


G|--------|--------|--------|--------|--------|--------|--------|--------|--------|
D|--------|--------|--------|--------|--------|--------|--------|--------|--------|
A|--------|--------|--------|--------|--------|--------|--------|--------|--------|
E|--------|--------|--------|--------|--------|--------|--------|--------|--------|


G|--------|--------|--------|--------|--------|--------|--------|--------|--------|
D|--------|--------|--------|--------|--------|--------|--------|--------|--------|
A|--------|--------|--------|--------|--------|--------|--------|--------|--------|
E|--------|--------|--------|--------|--------|--------|--------|--------|--------|


G|--------|--------|--------|--------|--------|--------|--------|--------|--------|
D|--------|--------|--------|--------|--------|--------|--------|--------|--------|
A|--------|--------|--------|--------|--------|--------|--------|--------|--------|
E|--------|--------|--------|--------|--------|--------|--------|--------|--------|


G|--------|--------|--------|--------|--------|--------|--------|--------|--------|
D|--------|--------|--------|--------|--------|--------|--------|--------|--------|
A|--------|--------|--------|--------|--------|--------|--------|--------|--------|
E|--------|--------|--------|--------|--------|--------|--------|--------|--------|


G|--------|--------|--------|--------|--------|--------|--------|--------|--------|
D|--------|--------|--------|--------|--------|--------|--------|--------|--------|
A|--------|--------|--------|--------|--------|--------|--------|--------|--------|
E|--------|--------|--------|--------|--------|--------|--------|--------|--------|


G|--------|--------|--------|--------|--------|--------|--------|--------|--------|
D|--------|--------|--------|--------|--------|--------|--------|--------|--------|
A|--------|--------|--------|--------|--------|--------|--------|--------|--------|
E|--------|--------|--------|--------|--------|--------|--------|--------|--------|


G|--------|--------|
D|--------|--------|
A|--------|--------|
E|--------|--------|