Site menu:

    

Browse: 0-9 A B C D E F G H I J K L N O P Q R S T U V W X Y Z

hole - celebrity skin:



Title: Celebrity Skin
Artist: 
Album: Celebrity Skin
Author: Love,Erlanderson,Corgan


Track 1: Guitar 1

E|------------------------------|--------|------------------------------|--------|
B|------------------------------|--------|------------------------------|--------|
G|------------------------------|--------|------------------------------|--------|
D|-------------6---6------------|--------|-------------6---6------------|--------|
A|-7---7-------4---4----4---4---|--------|-7---7-------4---4----4---4---|--------|
E|-5---5----------------2---2---|--------|-5---5----------------2---2---|--------|


E|------------------------------|--------|------------------------------|--------|
B|------------------------------|--------|------------------------------|--------|
G|------------------------------|--------|------------------------------|--------|
D|-------------6---6------------|--------|-------------6---6------------|--------|
A|-7---7-------4---4----4---4---|--------|-7---7-------4---4----4---4---|--------|
E|-5---5----------------2---2---|--------|-5---5----------------2---2---|--------|


E|---------------------------|---------------------------|---------------------------|
B|---------------------------|---------------------------|---------------------------|
G|---------------------------|---------------------------|---------------------------|
D|-7----9----7---7---9-------|---------------------------|-7----9----7---7---9-------|
A|-5----5----5---5---5---7---|-7---7---9----7---7---9----|-5----5----5---5---5---7---|
E|-----------------------5---|-5---5---5----5---5---5----|-----------------------5---|


E|---------------------------|---------------------------|---------------------------|
B|---------------------------|---------------------------|---------------------------|
G|---------------------------|---------------------------|---------------------------|
D|---------------------------|---------------------------|---------------------------|
A|-7---7---9----7---7---9----|-4----4----4---4---7---9---|-9----9----9---9---10--11--|
E|-5---5---5----5---5---5----|-2----2----2---2---5---7---|-7----7----7---7---8---9---|


E|------------------------------|------------------------|------------------------------|
B|------------------------------|------------------------|------------------------------|
G|------------------------------|------------------------|------------------------------|
D|------------------------------|------------------------|-------------6---6------------|
A|-12---12--14--14--15--14--12--|-12---15---14--12--12---|-7---7-------4---4----4---4---|
E|-10---10--10--10--10--10--10--|-10---10---10--10--10---|-5---5----------------2---2---|


E|--------|------------------------------|--------|------------------------------|
B|--------|------------------------------|--------|------------------------------|
G|--------|------------------------------|--------|------------------------------|
D|--------|-------------6---6------------|--------|-------------6---6------------|
A|--------|-7---7-------4---4----4---4---|--------|-7---7-------4---4----4---4---|
E|--------|-5---5----------------2---2---|--------|-5---5----------------2---2---|


E|--------|------------------------------|--------|---------------------------|---------------------------|
B|--------|------------------------------|--------|---------------------------|---------------------------|
G|--------|------------------------------|--------|---------------------------|---------------------------|
D|--------|-------------6---6------------|--------|-7----9----7---7---9-------|---------------------------|
A|--------|-7---7-------4---4----4---4---|--------|-5----5----5---5---5---7---|-7---7---9----7---7---9----|
E|--------|-5---5----------------2---2---|--------|-----------------------5---|-5---5---5----5---5---5----|


E|---------------------------|---------------------------|---------------------------|
B|---------------------------|---------------------------|---------------------------|
G|---------------------------|---------------------------|---------------------------|
D|-7----9----7---7---9-------|---------------------------|---------------------------|
A|-5----5----5---5---5---7---|-7---7---9----7---7---9----|-4----4----4---4---7---9---|
E|-----------------------5---|-5---5---5----5---5---5----|-2----2----2---2---5---7---|


E|---------------------------|------------------------------|------------------------|
B|---------------------------|------------------------------|------------------------|
G|---------------------------|------------------------------|------------------------|
D|---------------------------|------------------------------|------------------------|
A|-9----9----9---9---10--11--|-12---12--14--14--15--14--12--|-12---15---14--12--12---|
E|-7----7----7---7---8---9---|-10---10--10--10--10--10--10--|-10---10---10--10--10---|


E|--------|--------|--------|--------|--------|--------|--------|--------|--------|
B|--------|--------|--------|--------|--------|--------|--------|--------|--------|
G|--------|--------|--------|--------|--------|--------|--------|--------|--------|
D|--------|--------|--------|--------|--------|--------|--------|--------|--------|
A|--------|--------|--------|--------|--------|--------|--------|--------|--------|
E|--------|--------|--------|--------|--------|--------|--------|--------|--------|


E|--------|--------|--------|--------|--------|--------|--------|--------|--------|
B|--------|--------|--------|--------|--------|--------|--------|--------|--------|
G|--------|--------|--------|--------|--------|--------|--------|--------|--------|
D|--------|--------|--------|--------|--------|--------|--------|--------|--------|
A|--------|--------|--------|--------|--------|--------|--------|--------|--------|
E|--------|--------|--------|--------|--------|--------|--------|--------|--------|


E|--------|--------|--------|--------|--------|--------|--------|--------|--------|
B|--------|--------|--------|--------|--------|--------|--------|--------|--------|
G|--------|--------|--------|--------|--------|--------|--------|--------|--------|
D|--------|--------|--------|--------|--------|--------|--------|--------|--------|
A|--------|--------|--------|--------|--------|--------|--------|--------|--------|
E|--------|--------|--------|--------|--------|--------|--------|--------|--------|


E|--------|--------|--------|--------|--------|--------|--------|--------|--------|
B|--------|--------|--------|--------|--------|--------|--------|--------|--------|
G|--------|--------|--------|--------|--------|--------|--------|--------|--------|
D|--------|--------|--------|--------|--------|--------|--------|--------|--------|
A|--------|--------|--------|--------|--------|--------|--------|--------|--------|
E|--------|--------|--------|--------|--------|--------|--------|--------|--------|


E|--------|--------|--------|--------|------------------------------|--------|------------------------------|
B|--------|--------|--------|--------|------------------------------|--------|------------------------------|
G|--------|--------|--------|--------|------------------------------|--------|------------------------------|
D|--------|--------|--------|--------|-------------6---6------------|--------|-------------6---6------------|
A|--------|--------|--------|--------|-7---7-------4---4----4---4---|--------|-7---7-------4---4----4---4---|
E|--------|--------|--------|--------|-5---5----------------2---2---|--------|-5---5----------------2---2---|


E|--------|------------------------------|--------|------------------------------|
B|--------|------------------------------|--------|------------------------------|
G|--------|------------------------------|--------|------------------------------|
D|--------|-------------6---6------------|--------|-------------6---6------------|
A|--------|-7---7-------4---4----4---4---|--------|-7---7-------4---4----4---4---|
E|--------|-5---5----------------2---2---|--------|-5---5----------------2---2---|


E|--------|
B|--------|
G|--------|
D|--------|
A|--------|
E|--------|





Track 2: Guitar 2

E|--------|--------|--------|--------|--------|--------|--------|--------|--------|
B|--------|--------|--------|--------|--------|--------|--------|--------|--------|
G|--------|--------|--------|--------|--------|--------|--------|--------|--------|
D|--------|--------|--------|--------|--------|--------|--------|--------|--------|
A|--------|--------|--------|--------|--------|--------|--------|--------|--------|
E|--------|--------|--------|--------|--------|--------|--------|--------|--------|


E|--------|--------|--------|--------|--------|--------|--------|--------|--------|
B|--------|--------|--------|--------|--------|--------|--------|--------|--------|
G|--------|--------|--------|--------|--------|--------|--------|--------|--------|
D|--------|--------|--------|--------|--------|--------|--------|--------|--------|
A|--------|--------|--------|--------|--------|--------|--------|--------|--------|
E|--------|--------|--------|--------|--------|--------|--------|--------|--------|


E|--------|--------|--------|--------|--------|--------|--------|--------|--------|
B|--------|--------|--------|--------|--------|--------|--------|--------|--------|
G|--------|--------|--------|--------|--------|--------|--------|--------|--------|
D|--------|--------|--------|--------|--------|--------|--------|--------|--------|
A|--------|--------|--------|--------|--------|--------|--------|--------|--------|
E|--------|--------|--------|--------|--------|--------|--------|--------|--------|


E|--------|--------|--------|--------|--------|-----------------------------2---|---------------------------------|
B|--------|--------|--------|--------|--------|---------3---------------3-------|---------------------------------|
G|--------|--------|--------|--------|--------|-------------4-------------------|---------7---------------7-------|
D|--------|--------|--------|--------|--------|-----4---------------------------|-----7-------7-------7-------7---|
A|--------|--------|--------|--------|--------|-2-------------------5-----------|-5---------------5---------------|
E|--------|--------|--------|--------|--------|-----------------3---------------|---------------------------------|


E|------------------------------|--------|------------------------------|--------|
B|------------------------------|--------|------------------------------|--------|
G|------------------------------|--------|------------------------------|--------|
D|-------------6---6------------|--------|-------------6---6------------|--------|
A|-7---7-------4---4----4---4---|--------|-7---7-------4---4----4---4---|--------|
E|-5---5----------------2---2---|--------|-5---5----------------2---2---|--------|


E|------------------------------|--------|------------------------------|--------|
B|------------------------------|--------|------------------------------|--------|
G|------------------------------|--------|------------------------------|--------|
D|-------------6---6------------|--------|-------------6---6------------|--------|
A|-7---7-------4---4----4---4---|--------|-7---7-------4---4----4---4---|--------|
E|-5---5----------------2---2---|--------|-5---5----------------2---2---|--------|


E|---------------------------|---------------------------|---------------------------|
B|---------------------------|---------------------------|---------------------------|
G|---------------------------|---------------------------|---------------------------|
D|-7----9----7---7---9-------|---------------------------|-7----9----7---7---9-------|
A|-5----5----5---5---5---7---|-7---7---9----7---7---9----|-5----5----5---5---5---7---|
E|-----------------------5---|-5---5---5----5---5---5----|-----------------------5---|


E|---------------------------|---------------------------|---------------------------|
B|---------------------------|---------------------------|---------------------------|
G|---------------------------|---------------------------|---------------------------|
D|---------------------------|---------------------------|---------------------------|
A|-7---7---9----7---7---9----|-4----4----4---4---7---9---|-9----9----9---9---10--11--|
E|-5---5---5----5---5---5----|-2----2----2---2---5---7---|-7----7----7---7---8---9---|


E|------------------------------|------------------------|-----------------------------2---|
B|------------------------------|------------------------|---------3---------------3-------|
G|------------------------------|------------------------|-------------4-------------------|
D|------------------------------|------------------------|-----4---------------------------|
A|-12---12--14--14--15--14--12--|-12---15---14--12--12---|-2-------------------5-----------|
E|-10---10--10--10--10--10--10--|-10---10---10--10--10---|-----------------3---------------|


E|---------------------------------|-----------------------------2---|---------------------------------|
B|---------------------------------|---------3---------------3-------|---------------------------------|
G|---------7---------------7-------|-------------4-------------------|---------7---------------7-------|
D|-----7-------7-------7-------7---|-----4---------------------------|-----7-------7-------7-------7---|
A|-5---------------5---------------|-2-------------------5-----------|-5---------------5---------------|
E|---------------------------------|-----------------3---------------|---------------------------------|


E|-----------------------------2---|---------------------------------|-----------------------------2---|
B|---------3---------------3-------|---------------------------------|---------3---------------3-------|
G|-------------4-------------------|---------7---------------7-------|-------------4-------------------|
D|-----4---------------------------|-----7-------7-------7-------7---|-----4---------------------------|
A|-2-------------------5-----------|-5---------------5---------------|-2-------------------5-----------|
E|-----------------3---------------|---------------------------------|-----------------3---------------|


E|---------------------------------|-----------------------------2---|---------------------------------|
B|---------------------------------|---------3---------------3-------|---------------------------------|
G|---------7---------------7-------|-------------4-------------------|---------7---------------7-------|
D|-----7-------7-------7-------7---|-----4---------------------------|-----7-------7-------7-------7---|
A|-5---------------5---------------|-2-------------------5-----------|-5---------------5---------------|
E|---------------------------------|-----------------3---------------|---------------------------------|


E|-----------------------------2---|---------------------------------|-----------------------------2---|
B|---------3---------------3-------|---------------------------------|---------3---------------3-------|
G|-------------4-------------------|---------7---------------7-------|-------------4-------------------|
D|-----4---------------------------|-----7-------7-------7-------7---|-----4---------------------------|
A|-2-------------------5-----------|-5---------------5---------------|-2-------------------5-----------|
E|-----------------3---------------|---------------------------------|-----------------3---------------|


E|---------------------------------|-----------------------------2---|---------------------------------|
B|---------------------------------|---------3---------------3-------|---------------------------------|
G|---------7---------------7-------|-------------4-------------------|---------7---------------7-------|
D|-----7-------7-------7-------7---|-----4---------------------------|-----7-------7-------7-------7---|
A|-5---------------5---------------|-2-------------------5-----------|-5---------------5---------------|
E|---------------------------------|-----------------3---------------|---------------------------------|


E|-----------------------------2---|---------------------------------|-----------------------------2---|
B|---------3---------------3-------|---------------------------------|---------3---------------3-------|
G|-------------4-------------------|---------7---------------7-------|-------------4-------------------|
D|-----4---------------------------|-----7-------7-------7-------7---|-----4---------------------------|
A|-2-------------------5-----------|-5---------------5---------------|-2-------------------5-----------|
E|-----------------3---------------|---------------------------------|-----------------3---------------|


E|---------------------------------|-----------------------------2---|---------------------------------|
B|---------------------------------|---------3---------------3-------|---------------------------------|
G|---------7---------------7-------|-------------4-------------------|---------7---------------7-------|
D|-----7-------7-------7-------7---|-----4---------------------------|-----7-------7-------7-------7---|
A|-5---------------5---------------|-2-------------------5-----------|-5---------------5---------------|
E|---------------------------------|-----------------3---------------|---------------------------------|


E|--------|--------|--------|--------|--------|--------|--------|--------|
B|--------|--------|--------|--------|--------|--------|--------|--------|
G|--------|--------|--------|--------|--------|--------|--------|--------|
D|--------|--------|--------|--------|--------|--------|--------|--------|
A|--------|--------|--------|--------|--------|--------|--------|--------|
E|--------|--------|--------|--------|--------|--------|--------|--------|





Track 3: Untitled

G|--------|--------|--------|--------|--------|--------|--------|--------|--------|
D|--------|--------|--------|--------|--------|--------|--------|--------|--------|
A|--------|--------|--------|--------|--------|--------|--------|--------|--------|
E|--------|--------|--------|--------|--------|--------|--------|--------|--------|


G|--------|--------|--------|--------|--------|--------|--------|--------|--------|
D|--------|--------|--------|--------|--------|--------|--------|--------|--------|
A|--------|--------|--------|--------|--------|--------|--------|--------|--------|
E|--------|--------|--------|--------|--------|--------|--------|--------|--------|


G|--------|--------|--------|--------|--------|--------|--------|--------|--------|
D|--------|--------|--------|--------|--------|--------|--------|--------|--------|
A|--------|--------|--------|--------|--------|--------|--------|--------|--------|
E|--------|--------|--------|--------|--------|--------|--------|--------|--------|


G|--------|--------|--------|--------|--------|--------|--------|--------|--------|
D|--------|--------|--------|--------|--------|--------|--------|--------|--------|
A|--------|--------|--------|--------|--------|--------|--------|--------|--------|
E|--------|--------|--------|--------|--------|--------|--------|--------|--------|


G|--------|--------|--------|--------|--------|--------|--------|--------|--------|
D|--------|--------|--------|--------|--------|--------|--------|--------|--------|
A|--------|--------|--------|--------|--------|--------|--------|--------|--------|
E|--------|--------|--------|--------|--------|--------|--------|--------|--------|


G|--------|--------|--------|--------|--------|--------|--------|--------|--------|
D|--------|--------|--------|--------|--------|--------|--------|--------|--------|
A|--------|--------|--------|--------|--------|--------|--------|--------|--------|
E|--------|--------|--------|--------|--------|--------|--------|--------|--------|


G|--------|--------|--------|--------|--------|--------|--------|--------|--------|
D|--------|--------|--------|--------|--------|--------|--------|--------|--------|
A|--------|--------|--------|--------|--------|--------|--------|--------|--------|
E|--------|--------|--------|--------|--------|--------|--------|--------|--------|


G|--------|--------|--------|--------|--------|--------|--------|--------|--------|
D|--------|--------|--------|--------|--------|--------|--------|--------|--------|
A|--------|--------|--------|--------|--------|--------|--------|--------|--------|
E|--------|--------|--------|--------|--------|--------|--------|--------|--------|


G|--------|--------|--------|--------|--------|--------|--------|--------|
D|--------|--------|--------|--------|--------|--------|--------|--------|
A|--------|--------|--------|--------|--------|--------|--------|--------|
E|--------|--------|--------|--------|--------|--------|--------|--------|