Site menu:

    

Browse: 0-9 A B C D E F G H I J K L N O P Q R S T U V W X Y Z

goo goo dolls - long way down:



Title: Long Way Down
Artist: 
Album: A Boy Named Goo
Author: John Rzeznik


Track 1: Rhythm

E|---------------------------------|---------------------------------|------------|
B|---------------------------------|---------------------------------|------------|
G|-2---4-------4---4---4---4---7---|-7---7---6-------4-------2-------|------------|
D|-2---4-------4---4---4---4---7---|-7---7---6-------4-------2-------|-5------7---|
A|-0---2-------2---2---2---2---5---|-5---5---4-------2-------0-------|-5------7---|
E|---------------------------------|---------------------------------|-3------5---|


E|--------|---------------------------------|---------------------------------|------------|
B|--------|---------------------------------|---------------------------------|------------|
G|--------|-2---4-------4---4---4---4---7---|-7---7---6-------4-------2-------|------------|
D|-7------|-2---4-------4---4---4---4---7---|-7---7---6-------4-------2-------|-5------7---|
A|-7------|-0---2-------2---2---2---2---5---|-5---5---4-------2-------0-------|-5------7---|
E|-5------|---------------------------------|---------------------------------|-3------5---|


E|--------|---------------------------------|---------------------------------|------------|
B|--------|---------------------------------|---------------------------------|------------|
G|--------|-2---4-------4---4---4---4---7---|-7---7---6-------4-------2-------|------------|
D|-7------|-2---4-------4---4---4---4---7---|-7---7---6-------4-------2-------|-5------7---|
A|-7------|-0---2-------2---2---2---2---5---|-5---5---4-------2-------0-------|-5------7---|
E|-5------|---------------------------------|---------------------------------|-3------5---|


E|--------|-----------------|--------|--------|--------|--------|--------|--------|
B|--------|-----------------|--------|--------|--------|--------|--------|--------|
G|--------|-----------------|--------|--------|--------|--------|--------|--------|
D|-7------|-----------------|--------|--------|--------|--------|--------|--------|
A|-7------|-7---9-----9-----|-9------|--------|--------|--------|--------|--------|
E|-5------|-5---7-----7-----|-7------|--------|--------|--------|--------|--------|


E|-----------------------|--------------------|---------------------------|-----------------|
B|-----------------------|--------------------|---------------------------|-----------------|
G|-----------------------|--------------------|---------------------------|-----------------|
D|-------9-------7-------|-5-----5---5----7---|-7----7---7---7----7---7---|-----------------|
A|-------9-------7-------|-5-----5---5----7---|-7----7---7---7----7---7---|-----------------|
E|-------7-------5-------|-3-----3---3----5---|-5----5---5---5----5---5---|-5---7-----7-----|


E|--------|--------|--------|--------|-----------------------|------------------------------|
B|--------|--------|--------|--------|-----------------------|------------------------------|
G|--------|--------|--------|--------|-----------------------|------------------------------|
D|--------|--------|--------|--------|-------9-------7-------|-5----5---5---5---5---5---7---|
A|--------|--------|--------|--------|-------9-------7-------|-5----5---5---5---5---5---7---|
E|-7------|--------|--------|--------|-------7-------5-------|-3----3---3---3---3---3---5---|


E|------------------------|------------------------|---------------------------|------------------------|
B|------------------------|------------------------|---------------------------|------------------------|
G|------------------------|------------------------|---------------------------|------------------------|
D|-7----7---7---7---7-----|-5----5----5---5----7---|-7---7----7---7----7---5---|-5----5----5---5----7---|
A|-7----7---7---7---7-----|-5----5----5---5----7---|-7---7----7---7----7---5---|-5----5----5---5----7---|
E|-5----5---5---5---5-----|-3----3----3---3----5---|-5---5----5---5----5---3---|-3----3----3---3----5---|


E|------------------------|------------------------------|---------------------------------|
B|------------------------|------------------------------|---------------------------------|
G|------------------------|------------------------------|---------------------------------|
D|-7----7---7---7---7-----|-9----9---9---9---9---9---9---|-9---9---9---9---9---9---9---9---|
A|-7----7---7---7---7-----|-9----9---9---9---9---9---9---|-9---9---9---9---9---9---9---9---|
E|-5----5---5---5---5-----|-7----7---7---7---7---7---7---|-7---7---7---7---7---7---7---7---|


E|---------------------------------|---------------------------------|------------|
B|---------------------------------|---------------------------------|------------|
G|-2---4-------4---4---4---4---7---|-7---7---6-------4-------2-------|------------|
D|-2---4-------4---4---4---4---7---|-7---7---6-------4-------2-------|-5------7---|
A|-0---2-------2---2---2---2---5---|-5---5---4-------2-------0-------|-5------7---|
E|---------------------------------|---------------------------------|-3------5---|


E|--------|---------------------------------|---------------------------------|------------|
B|--------|---------------------------------|---------------------------------|------------|
G|--------|-2---4-------4---4---4---4---7---|-7---7---6-------4-------2-------|------------|
D|-7------|-2---4-------4---4---4---4---7---|-7---7---6-------4-------2-------|-5------7---|
A|-7------|-0---2-------2---2---2---2---5---|-5---5---4-------2-------0-------|-5------7---|
E|-5------|---------------------------------|---------------------------------|-3------5---|


E|--------|---------------------------------|---------------------------------|------------|
B|--------|---------------------------------|---------------------------------|------------|
G|--------|-2---4-------4---4---4---4---7---|-7---7---6-------4-------2-------|------------|
D|-7------|-2---4-------4---4---4---4---7---|-7---7---6-------4-------2-------|-5------7---|
A|-7------|-0---2-------2---2---2---2---5---|-5---5---4-------2-------0-------|-5------7---|
E|-5------|---------------------------------|---------------------------------|-3------5---|


E|--------|-----------------|--------|--------|--------|--------|--------|--------|
B|--------|-----------------|--------|--------|--------|--------|--------|--------|
G|--------|-----------------|--------|--------|--------|--------|--------|--------|
D|-7------|-----------------|--------|--------|--------|--------|--------|--------|
A|-7------|-7---9-----9-----|-9------|--------|--------|--------|--------|--------|
E|-5------|-5---7-----7-----|-7------|--------|--------|--------|--------|--------|


E|-----------------------|--------------------|---------------------------|-----------------|
B|-----------------------|--------------------|---------------------------|-----------------|
G|-----------------------|--------------------|---------------------------|-----------------|
D|-------9-------7-------|-5-----5---5----7---|-7----7---7---7----7---7---|-----------------|
A|-------9-------7-------|-5-----5---5----7---|-7----7---7---7----7---7---|-----------------|
E|-------7-------5-------|-3-----3---3----5---|-5----5---5---5----5---5---|-5---7-----7-----|


E|--------|--------|--------|--------|-----------------------|------------------------------|
B|--------|--------|--------|--------|-----------------------|------------------------------|
G|--------|--------|--------|--------|-----------------------|------------------------------|
D|--------|--------|--------|--------|-------9-------7-------|-5----5---5---5---5---5---7---|
A|--------|--------|--------|--------|-------9-------7-------|-5----5---5---5---5---5---7---|
E|-7------|--------|--------|--------|-------7-------5-------|-3----3---3---3---3---3---5---|


E|------------------------|------------------------|---------------------------|------------------------|
B|------------------------|------------------------|---------------------------|------------------------|
G|------------------------|------------------------|---------------------------|------------------------|
D|-7----7---7---7---7-----|-5----5----5---5----7---|-7---7----7---7----7---5---|-5----5----5---5----7---|
A|-7----7---7---7---7-----|-5----5----5---5----7---|-7---7----7---7----7---5---|-5----5----5---5----7---|
E|-5----5---5---5---5-----|-3----3----3---3----5---|-5---5----5---5----5---3---|-3----3----3---3----5---|


E|------------------------|------------------------------|---------------------------------|
B|------------------------|------------------------------|---------------------------------|
G|------------------------|------------------------------|---------------------------------|
D|-7----7---7---7---7-----|-9----9---9---9---9---9---9---|-9---9---9---9---9---9---9---9---|
A|-7----7---7---7---7-----|-9----9---9---9---9---9---9---|-9---9---9---9---9---9---9---9---|
E|-5----5---5---5---5-----|-7----7---7---7---7---7---7---|-7---7---7---7---7---7---7---7---|


E|---------------------------------|---------------------------------|------------|
B|---------------------------------|---------------------------------|------------|
G|-2---4-------4---4---4---4---7---|-7---7---6-------4-------2-------|------------|
D|-2---4-------4---4---4---4---7---|-7---7---6-------4-------2-------|-5------7---|
A|-0---2-------2---2---2---2---5---|-5---5---4-------2-------0-------|-5------7---|
E|---------------------------------|---------------------------------|-3------5---|


E|--------|---------------------------------|---------------------------------|------------|
B|--------|---------------------------------|---------------------------------|------------|
G|--------|-2---4-------4---4---4---4---7---|-7---7---6-------4-------2-------|------------|
D|-7------|-2---4-------4---4---4---4---7---|-7---7---6-------4-------2-------|-5------7---|
A|-7------|-0---2-------2---2---2---2---5---|-5---5---4-------2-------0-------|-5------7---|
E|-5------|---------------------------------|---------------------------------|-3------5---|


E|--------|---------------------------------|---------------------------------|------------|
B|--------|---------------------------------|---------------------------------|------------|
G|--------|-2---4-------4---4---4---4---7---|-7---7---6-------4-------2-------|------------|
D|-7------|-2---4-------4---4---4---4---7---|-7---7---6-------4-------2-------|-5------7---|
A|-7------|-0---2-------2---2---2---2---5---|-5---5---4-------2-------0-------|-5------7---|
E|-5------|---------------------------------|---------------------------------|-3------5---|


E|--------|--------------------|--------------------|--------------------|--------------------|
B|--------|----------0---0-----|----------0---0-----|----------0---0-----|----------0---0-----|
G|--------|--------------------|--------------------|--------------------|--------------------|
D|-7------|--------------------|--------------------|--------------------|--------------------|
A|-7------|-9------------------|-5------------------|-7------------------|-5------------------|
E|-5------|-7------------------|-3------------------|-5------------------|-3------------------|


E|--------------------|--------------------|--------------------|--------------------|
B|----------0---0-----|----------0---0-----|----------0---0-----|----------0---0-----|
G|--------------------|--------------------|--------------------|--------------------|
D|--------------------|--------------------|--------------------|--------------------|
A|-9------------------|-5------------------|-7------------------|-5------------------|
E|-7------------------|-3------------------|-5------------------|-3------------------|


E|--------------------|--------------------|--------------------|--------------------|
B|----------0---0-----|----------0---0-----|----------0---0-----|----------0---0-----|
G|--------------------|--------------------|--------------------|--------------------|
D|--------------------|--------------------|--------------------|--------------------|
A|-9------------------|-5------------------|-7------------------|-5------------------|
E|-7------------------|-3------------------|-5------------------|-3------------------|


E|------------------------|------------------------|------------------------|------------------------|
B|------------------------|------------------------|------------------------|------------------------|
G|------0---0---0----0----|------0---0---0----0----|------0---0---0----0----|------0---0---0----0----|
D|------------------------|-7----------------------|------------------------|-12---------------------|
A|-9----------------------|-5----------------------|-9----------------------|-10---------------------|
E|-7----------------------|------------------------|-7----------------------|------------------------|


E|--------|--------|--------|--------|--------|--------|-------------|-----------------------|
B|-3------|-3------|--------|--------|--------|--------|-------------|-----------------------|
G|-4------|-4------|--------|--------|--------|--------|-------11----|-11--------------------|
D|-4------|-4------|--------|--------|--------|--------|-------------|-------9-------7-------|
A|-2------|-2------|--------|--------|--------|--------|-------------|-------9-------7-------|
E|--------|--------|--------|--------|--------|--------|-------------|-------7-------5-------|


E|------------------------------|------------------------|------------------------|
B|------------------------------|------------------------|------------------------|
G|------------------------------|------------------------|------------------------|
D|-5----5---5---5---5---5---7---|-7----7---7---7---7-----|-5----5----5---5----7---|
A|-5----5---5---5---5---5---7---|-7----7---7---7---7-----|-5----5----5---5----7---|
E|-3----3---3---3---3---3---5---|-5----5---5---5---5-----|-3----3----3---3----5---|


E|---------------------------|------------------------|------------------------|------------------------------|
B|---------------------------|------------------------|------------------------|------------------------------|
G|---------------------------|------------------------|------------------------|------------------------------|
D|-7---7----7---7----7---5---|-5----5----5---5----7---|-7----7---7---7---7-----|-9----9---9---9---9---9---9---|
A|-7---7----7---7----7---5---|-5----5----5---5----7---|-7----7---7---7---7-----|-9----9---9---9---9---9---9---|
E|-5---5----5---5----5---3---|-3----3----3---3----5---|-5----5---5---5---5-----|-7----7---7---7---7---7---7---|


E|---------------------------------|---------------------------------|---------------------------------|
B|---------------------------------|---------------------------------|---------------------------------|
G|---------------------------------|-2---4-------4---4---4---4---7---|-7---7---6-------4-------2-------|
D|-9---9---9---9---9-------9-------|-2---4-------4---4---4---4---7---|-7---7---6-------4-------2-------|
A|-9---9---9---9---9-------9-------|-0---2-------2---2---2---2---5---|-5---5---4-------2-------0-------|
E|-7---7---7---7---7-------7-------|---------------------------------|---------------------------------|


E|------------|--------|---------------------------------|---------------------------------|
B|------------|--------|---------------------------------|---------------------------------|
G|------------|--------|-2---4-------4---4---4---4---7---|-7---7---6-------4-------2-------|
D|-5------7---|-7------|-2---4-------4---4---4---4---7---|-7---7---6-------4-------2-------|
A|-5------7---|-7------|-0---2-------2---2---2---2---5---|-5---5---4-------2-------0-------|
E|-3------5---|-5------|---------------------------------|---------------------------------|


E|------------|--------|---------------------------------|---------------------------------|
B|------------|--------|---------------------------------|---------------------------------|
G|------------|--------|-2---4-------4---4---4---4---7---|-7---7---6-------4-------2-------|
D|-5------7---|-7------|-2---4-------4---4---4---4---7---|-7---7---6-------4-------2-------|
A|-5------7---|-7------|-0---2-------2---2---2---2---5---|-5---5---4-------2-------0-------|
E|-3------5---|-5------|---------------------------------|---------------------------------|


E|------------|--------|------------------------------|---------------------------|
B|------------|--------|------------------------------|---------3----3---3---3----|
G|------------|--------|--------------------------2---|-2---2---2----2---2---2----|
D|-5------7---|-7------|-5----5---5---5---5---5---2---|-2---2---2----2---2---2----|
A|-5------7---|-7------|-5----5---5---5---5---5---0---|-0---0---0----0---0---0----|
E|-3------5---|-5------|-3----3---3---3---3---3-------|---------------------------|


E|------------------------------|---------------------------|------------------------------|
B|------------------------------|---------3----3---3---3----|------------------------------|
G|--------------------------2---|-2---2---2----2---2---2----|--------------------------2---|
D|-5----5---5---5---5---5---2---|-2---2---2----2---2---2----|-5----5---5---5---5---5---2---|
A|-5----5---5---5---5---5---0---|-0---0---0----0---0---0----|-5----3---5---3---3---3---0---|
E|-3----3---3---3---3---3-------|---------------------------|-3----3---3---3---3---3-------|


E|---------------------------|------------------------------|---------------------------|
B|---------------------------|------------------------------|---------------------------|
G|-2---2---2----2---2---2----|--------------------------2---|-2---2---2----2---2---2----|
D|-2---2---2----2---2---2----|-5----5---5---5---5---5---2---|-2---2---2----2---2---2----|
A|-0---0---0----0---0---0----|-5----3---5---3---3---3---0---|-0---0---0----0---0---0----|
E|---------------------------|-3----3---3---3---3---3-------|---------------------------|


E|---------------------------|--------|---------------------------|--------|
B|---------------------------|--------|---------------------------|--------|
G|-4--------4---4-------2----|-2------|-4--------4---4------------|--------|
D|-4--------4---4-------2----|-2------|-4--------4---4-------0----|-0------|
A|-2----0---2---2---0---0----|-0------|-2----0---2---2---0---0----|-0------|
E|---------------------------|--------|----------------------3----|-3------|





Track 2: Lead

E|--------|--------|---------------------------------|---------------------------------|
B|--------|--------|---------------------------------|---------------------------------|
G|--------|--------|-6---7---7---7---7---7---7---6---|-6---7---7---7---7---7---7---7---|
D|--------|--------|---------------------------------|---------------------------------|
A|--------|--------|---------------------------------|---------------------------------|
E|--------|--------|---------------------------------|---------------------------------|


E|---------------------------------|------------------------------|------------------------------|
B|-----7---7---7---7---7---7-------|-----7---7---7---7---7--------|-10---0---8---0---7---0---5---|
G|-6---7---7---7---7---7---7---6---|-6---7---7---7---7---7---7----|------------------------------|
D|---------------------------------|------------------------------|------------------------------|
A|---------------------------------|------------------------------|------------------------------|
E|---------------------------------|------------------------------|------------------------------|


E|-----------------------------------|---------------------------------|------------------------------|
B|-5---5---5---5---5--7--5-----------|-----7---7---7---7---7---7-------|-----7---7---7---7---7--------|
G|---------------------------7---6---|-6---7---7---7---7---7---7---6---|-6---7---7---7---7---7---7----|
D|-----------------------------------|---------------------------------|------------------------------|
A|-----------------------------------|---------------------------------|------------------------------|
E|-----------------------------------|---------------------------------|------------------------------|


E|------------------------------|-----------------------------------|-----------------|
B|-10---0---8---0---7---0---5---|-5---5---5---5---5--7--5-----------|-----------------|
G|------------------------------|---------------------------7---6---|-6---7-----7-----|
D|------------------------------|-----------------------------------|-----------------|
A|------------------------------|-----------------------------------|-----------------|
E|------------------------------|-----------------------------------|-----------------|


E|--------|--------|--------|--------|--------|--------|--------|--------|--------|
B|--------|--------|--------|--------|--------|--------|--------|--------|--------|
G|-7------|--------|--------|--------|--------|--------|--------|--------|--------|
D|--------|--------|--------|--------|--------|--------|--------|--------|--------|
A|--------|--------|--------|--------|--------|--------|--------|--------|--------|
E|--------|--------|--------|--------|--------|--------|--------|--------|--------|


E|--------|--------|--------|--------|--------|--------|--------|--------|--------|
B|--------|--------|--------|--------|--------|--------|--------|--------|--------|
G|--------|--------|--------|--------|--------|--------|--------|--------|--------|
D|--------|--------|--------|--------|--------|--------|--------|--------|--------|
A|--------|--------|--------|--------|--------|--------|--------|--------|--------|
E|--------|--------|--------|--------|--------|--------|--------|--------|--------|


E|--------|--------|--------|--------|--------|--------|--------|---------------------------------|
B|--------|--------|--------|--------|--------|--------|--------|---------------------------------|
G|--------|--------|--------|--------|--------|--------|--------|-6---7---7---7---7---7---7---6---|
D|--------|--------|--------|--------|--------|--------|--------|-6---7---7---7---7---7---7---6---|
A|--------|--------|--------|--------|--------|--------|--------|---------------------------------|
E|--------|--------|--------|--------|--------|--------|--------|---------------------------------|


E|---------------------------------|---------------------------------|---------------------------------|
B|---------------------------------|---------------------------------|---------------------------------|
G|-6---7---7---7---7---7---7---7---|-6---7---7---7---7---7---7---6---|-6---7---7---7---7---7---7---7---|
D|-6---7---7---7---7---7---7---7---|-6---7---7---7---7---7---7---6---|-6---7---7---7---7---7---7---7---|
A|---------------------------------|---------------------------------|---------------------------------|
E|---------------------------------|---------------------------------|---------------------------------|


E|---------------------------------|---------------------------------|---------------------------------|
B|---------------------------------|---------------------------------|---------------------------------|
G|-6---7---7---7---7---7---7---6---|-6---7---7---7---7---7---7---7---|-6---7---7---7---7---7---7---6---|
D|-6---7---7---7---7---7---7---6---|-6---7---7---7---7---7---7---7---|-6---7---7---7---7---7---7---6---|
A|---------------------------------|---------------------------------|---------------------------------|
E|---------------------------------|---------------------------------|---------------------------------|


E|---------------------------------|---------------------------------|---------------------------------|
B|---------------------------------|---------------------------------|---------------------------------|
G|-6---7---7---7---7---7---7---7---|-6---7---7---7---7---7---7---6---|-6---7---7---7---7---7---7---7---|
D|-6---7---7---7---7---7---7---7---|-6---7---7---7---7---7---7---6---|-6---7---7---7---7---7---7---7---|
A|---------------------------------|---------------------------------|---------------------------------|
E|---------------------------------|---------------------------------|---------------------------------|


E|--------|--------|--------|--------|--------|--------|--------|--------|--------|
B|--------|--------|--------|--------|--------|--------|--------|--------|--------|
G|-7------|-7------|--------|--------|--------|--------|--------|--------|--------|
D|-7------|-7------|--------|--------|--------|--------|--------|--------|--------|
A|--------|--------|--------|--------|--------|--------|--------|--------|--------|
E|--------|--------|--------|--------|--------|--------|--------|--------|--------|


E|--------|--------|--------|--------|--------|--------|--------|--------|--------|
B|--------|--------|--------|--------|--------|--------|--------|--------|--------|
G|--------|--------|--------|--------|--------|--------|--------|--------|--------|
D|--------|--------|--------|--------|--------|--------|--------|--------|--------|
A|--------|--------|--------|--------|--------|--------|--------|--------|--------|
E|--------|--------|--------|--------|--------|--------|--------|--------|--------|


E|--------|--------|--------|--------|--------|--------|--------|--------|---------------------------------|
B|--------|--------|--------|--------|--------|--------|--------|--------|---------------------------------|
G|--------|--------|--------|--------|--------|--------|--------|--------|-6---7---7---7---7---7---7---6---|
D|--------|--------|--------|--------|--------|--------|--------|--------|-6---7---7---7---7---7---7---6---|
A|--------|--------|--------|--------|--------|--------|--------|--------|---------------------------------|
E|--------|--------|--------|--------|--------|--------|--------|--------|---------------------------------|


E|---------------------------------|---------------------------------|---------------------------------|
B|---------------------------------|---------------------------------|---------------------------------|
G|-6---7---7---7---7---7---7---7---|-6---7---7---7---7---7---7---6---|-6---7---7---7---7---7---7---7---|
D|-6---7---7---7---7---7---7---7---|-6---7---7---7---7---7---7---6---|-6---7---7---7---7---7---7---7---|
A|---------------------------------|---------------------------------|---------------------------------|
E|---------------------------------|---------------------------------|---------------------------------|


E|---------------------------------|---------------------------------|---------------------------------|
B|---------------------------------|---------------------------------|---------------------------------|
G|-6---7---7---7---7---7---7---6---|-6---7---7---7---7---7---7---7---|-6---7---7---7---7---7---7---6---|
D|-6---7---7---7---7---7---7---6---|-6---7---7---7---7---7---7---7---|-6---7---7---7---7---7---7---6---|
A|---------------------------------|---------------------------------|---------------------------------|
E|---------------------------------|---------------------------------|---------------------------------|


E|---------------------------------|---------------------------------|---------------------------|
B|---------------------------------|---------------------------------|---------------------------|
G|-6---7---7---7---7---7---7---7---|-6---7---7---7---7---7---7---6---|-6---7---7---7---7----7----|
D|-6---7---7---7---7---7---7---7---|-6---7---7---7---7---7---7---6---|-6---7---7---7---7----7----|
A|---------------------------------|---------------------------------|---------------------------|
E|---------------------------------|---------------------------------|---------------------------|


E|------------------------|------------------------|------------------------------|
B|------------------------|------------------------|----------------------5---5---|
G|-------2---2----4---2---|-4---4----2---2----2----|-7--------6---6---7-----------|
D|-4----------------------|------------------------|------------------------------|
A|------------------------|------------------------|------------------------------|
E|------------------------|------------------------|------------------------------|


E|------------------------------|------------------------|---------------------------|
B|-5---7---7---7---7--------10--|-12----12--12---10--10--|-10--12--12---12-----------|
G|----------------------11------|------------------------|-------------------11---11-|
D|------------------------------|------------------------|---------------------------|
A|------------------------------|------------------------|---------------------------|
E|------------------------------|------------------------|---------------------------|


E|---------------------------------|--------------------10--|-12-----|-12--12------10--10--------------|
B|---------10--10--10--12------12--|-12---12---12---12------|--------|---------12----------12--12--10--|
G|-11--12--------------------------|------------------------|--------|---------------------------------|
D|-------------------------0-------|------------------------|--------|---------------------------------|
A|---------------------------------|------------------------|--------|---------------------------------|
E|---------------------------------|------------------------|--------|---------------------------------|


E|-12--10--------------------------|---------------------------------|---------------------------------|
B|---------8---7---7---5---5-------|---------------------------------|---------------------------------|
G|-----------------------------7---|-7---6-------6---6---7---6---0---|-6---7---6---7---6---7---6---7---|
D|---------------------------------|---------------------------------|---------------------------------|
A|---------------------------------|---------------------------------|---------------------------------|
E|---------------------------------|---------------------------------|---------------------------------|


E|---------------------------------|---------------------------------|---------------------------------|
B|---------------------------------|---------------------------------|---------------------------------|
G|-6---7---6---7---6---7---6---7---|-6---7---6---7---6---7---6---7---|-6---7---6---7---6---7---6---2---|
D|---------------------------------|---------------------------------|---------------------------------|
A|---------------------------------|---------------------------------|---------------------------------|
E|---------------------------------|---------------------------------|---------------------------------|


E|--------|--------|--------|--------|--------|--------|--------|--------|--------|
B|--------|--------|--------|--------|--------|--------|--------|--------|--------|
G|-4------|-4------|--------|--------|--------|--------|--------|--------|--------|
D|--------|--------|--------|--------|--------|--------|--------|--------|--------|
A|--------|--------|--------|--------|--------|--------|--------|--------|--------|
E|--------|--------|--------|--------|--------|--------|--------|--------|--------|


E|--------|--------|--------|--------|--------|--------|--------|--------|--------|
B|--------|--------|--------|--------|--------|--------|--------|--------|--------|
G|--------|--------|--------|--------|--------|--------|--------|--------|--------|
D|--------|--------|--------|--------|--------|--------|--------|--------|--------|
A|--------|--------|--------|--------|--------|--------|--------|--------|--------|
E|--------|--------|--------|--------|--------|--------|--------|--------|--------|


E|---------------------------------|---------------------------------|---------------------------------|
B|---------------------------------|---------------------------------|---------------------------------|
G|-6---7---7---7---7---7---7---6---|-6---7---7---7---7---7---7---7---|-6---7---7---7---7---7---7---6---|
D|-6---7---7---7---7---7---7---6---|-6---7---7---7---7---7---7---7---|-6---7---7---7---7---7---7---6---|
A|---------------------------------|---------------------------------|---------------------------------|
E|---------------------------------|---------------------------------|---------------------------------|


E|---------------------------------|---------------------------------|---------------------------------|
B|---------------------------------|---------------------------------|---------------------------------|
G|-6---7---7---7---7---7---7---7---|-6---7---7---7---7---7---7---6---|-6---7---7---7---7---7---7---7---|
D|-6---7---7---7---7---7---7---7---|-6---7---7---7---7---7---7---6---|-6---7---7---7---7---7---7---7---|
A|---------------------------------|---------------------------------|---------------------------------|
E|---------------------------------|---------------------------------|---------------------------------|


E|---------------------------------|---------------------------------|---------------------------------|
B|---------------------------------|---------------------------------|---------------------------------|
G|-6---7---7---7---7---7---7---6---|-6---7---7---7---7---7---7---7---|-6---7---7---7---7---7---7---6---|
D|-6---7---7---7---7---7---7---6---|-6---7---7---7---7---7---7---7---|-6---7---7---7---7---7---7---6---|
A|---------------------------------|---------------------------------|---------------------------------|
E|---------------------------------|---------------------------------|---------------------------------|


E|---------------------------------|---------------------------------|---------------------------------|
B|---------------------------------|---------------------------------|---------------------------------|
G|-6---7---7---7---7---7---7---7---|-6---7---7---7---7---7---7---6---|-6---7---7---7---7---7---7---7---|
D|-6---7---7---7---7---7---7---7---|-6---7---7---7---7---7---7---6---|-6---7---7---7---7---7---7---7---|
A|---------------------------------|---------------------------------|---------------------------------|
E|---------------------------------|---------------------------------|---------------------------------|


E|---------------------------------|------------------------------|-----------------|
B|---------------------------------|------------------------------|-----------------|
G|-6---7---7---7---7---7---7---6---|-6---7---7---7---7---7---4----|-4-----4-----6---|
D|-6---7---7---7---7---7---7---6---|-6---7---7---7---7---7--------|-----------------|
A|---------------------------------|------------------------------|-2-----2-----4---|
E|---------------------------------|------------------------------|-----------------|


E|--------|-----------------|-----------------|--------|--------|--------|--------|
B|--------|-----------------|-----------------|--------|--------|--------|--------|
G|-6------|-7-----7-----12--|-12----11--11----|-4------|-4------|-4------|-4------|
D|--------|-----------------|-----------------|--------|--------|--------|--------|
A|-4------|-5-----5-----10--|-10----9---9-----|-2------|-2------|-2------|-2------|
E|--------|-----------------|-----------------|--------|--------|--------|--------|





Track 3: Bass

G|------------------------------|---------------------------------|------------------------------|
D|------------------------------|---------------------------------|------------------------------|
A|-----2-------2------------5---|-5---5---4-------2---------------|------------------------------|
E|-5----------------------------|-------------------------5-------|-3----3---3---3---3---3---5---|


G|---------------------------------|------------------------------|---------------------------------|
D|---------------------------------|------------------------------|---------------------------------|
A|---------------------------------|-----2-------2------------5---|-5---5---4-------2---------------|
E|-5---5---5---5---5---5---5-------|-5----------------------------|-------------------------5-------|


G|------------------------------|---------------------------------|------------------------------|
D|------------------------------|---------------------------------|------------------------------|
A|------------------------------|---------------------------------|-----2-------2------------5---|
E|-3----3---3---3---3---3---5---|-5---5---5---5---5---5---5-------|-5----------------------------|


G|---------------------------------|------------------------------|---------------------------------|
D|---------------------------------|------------------------------|---------------------------------|
A|-5---5---4-------2---------------|------------------------------|---------------------------------|
E|-------------------------5-------|-3----3---3---3---3---3---5---|-5---5---5---5---5---5---5-------|


G|---------------------------------|---------------------------------|---------------------------------|
D|---------------------------------|---------------------------------|---------------------------------|
A|-----2---2---2---2---2---2---2---|-2---2---2---2---2---2---2---2---|-----2---2---2---2---2---2---2---|
E|-5-------------------------------|---------------------------------|-5-------------------------------|


G|---------------------------------|---------------------------------|---------------------------------|
D|---------------------------------|---------------------------------|---------------------------------|
A|-2---2---2---2---2---2---2---2---|-----2---2---2---2---2---2---2---|-2---2---2---2---2---2---2---2---|
E|---------------------------------|-5-------------------------------|---------------------------------|


G|---------------------------------|---------------------------------|---------------------------------|
D|---------------------------------|---------------------------------|---------------------------------|
A|-----2---2---2---2---2---2---2---|-2---2---2-------2---------------|---------------------------------|
E|-5-------------------------------|-------------------------5-------|-3---3---3---3---3---3---3---5---|


G|------------------------------|---------------------------------|---------------------------------|
D|------------------------------|---------------------------------|---------------------------------|
A|------------------------------|-----2---2---2---2---2---2---2---|-2---2---2---2---2---2---2---2---|
E|-5---5---5---5---5---5---5----|-5-------------------------------|---------------------------------|


G|---------------------------------|---------------------------------|---------------------------------|
D|---------------------------------|---------------------------------|---------------------------------|
A|-----2---2---2---2---2---2---2---|-2---2---2---2---2---2---2---2---|-----2---2---2---2---2---2---2---|
E|-5-------------------------------|---------------------------------|-5-------------------------------|


G|---------------------------------|---------------------------------|------------------------------|
D|---------------------------------|---------------------------------|------------------------------|
A|-2---2---2-------2---------------|---------------------------------|------------------------------|
E|-------------------------5-------|-3---3---3---3---3---3---3---5---|-5---5---5---5---5---5---5----|


G|---------------------------------|------------------------------|------------------------------|
D|---------------------------------|------------------------------|------------------------------|
A|---------------------------------|------------------------------|------------------------------|
E|-3---3---3---3---3---3---3---5---|-5---5---5---5---5---5---5----|-3----3---3---3---3---3---5---|


G|------------------------------|---------------------------------|-----------------4---4---4-------|
D|------------------------------|---------------------------------|---------------------------------|
A|------------------------------|-2---2---2---2---2---2---2---2---|-2-----------2---------------5---|
E|-5---5---5---5---5---5---5----|---------------------------------|-----0---2-----------------------|


G|------------------------------|---------------------------------|---------------------------|
D|------------------------------|---------------------------------|---------------------------|
A|-----2-------2------------5---|-5---5---4-------2---------------|---------------------------|
E|-5----------------------------|-------------------------5-------|-3----3----3---3---3---5---|


G|------------------------------|------------------------------|---------------------------------|
D|------------------------------|------------------------------|---------------------------------|
A|------------------------------|-----2-------2------------5---|-5---5---4-------2---------------|
E|-5---5---5----5---5---5-------|-5----------------------------|-------------------------5-------|


G|---------------------------|------------------------------|------------------------------|
D|---------------------------|------------------------------|------------------------------|
A|---------------------------|------------------------------|-----2-------2------------5---|
E|-3----3----3---3---3---5---|-5---5---5----5---5---5-------|-5----------------------------|


G|---------------------------------|---------------------------|------------------------------|
D|---------------------------------|---------------------------|------------------------------|
A|-5---5---4-------2---------------|---------------------------|------------------------------|
E|-------------------------5-------|-3----3----3---3---3---5---|-5---5---5----5---5---5-------|


G|---------------------------------|---------------------------------|---------------------------------|
D|---------------------------------|---------------------------------|---------------------------------|
A|-----2---2---2---2---2---2---2---|-2---2---2---2---2---2---2-------|-----2---2---2---2---2---2---2---|
E|-5-------------------------------|-----------------------------0---|-5-------------------------------|


G|---------------------------------|---------------------------------|---------------------------------|
D|---------------------------------|---------------------------------|---------------------------------|
A|-2---2---2---2---2---2---2-------|-----2---2---2---2---2---2---2---|-2---2---2---2---2---2---2---2---|
E|-----------------------------0---|-5-------------------------------|---------------------------------|


G|---------------------------------|---------------------------------|---------------------------------|
D|---------------------------------|---------------------------------|---------------------------------|
A|-----2---2---2---2---2---2---2---|-2---2---2-------2---------------|---------------------------------|
E|-5-------------------------------|-------------------------5-------|-3---3---3---3---3---3---3---5---|


G|------------------------------|---------------------------------|---------------------------------|
D|------------------------------|---------------------------------|---------------------------------|
A|------------------------------|-----2---2---2---2---2---2---2---|-2---2---2---2---2---2---2---2---|
E|-5---5---5---5---5---5---5----|-5-------------------------------|---------------------------------|


G|---------------------------------|---------------------------------|---------------------------------|
D|---------------------------------|---------------------------------|---------------------------------|
A|-----2---2---2---2---2---2---2---|-2---2---2---2---2---2---2---2---|-----2---2---2---2---2---2---2---|
E|-5-------------------------------|---------------------------------|-5-------------------------------|


G|---------------------------------|---------------------------------|------------------------------|
D|---------------------------------|---------------------------------|------------------------------|
A|-2---2---2-------2---------------|---------------------------------|------------------------------|
E|-------------------------5-------|-3---3---3---3---3---3---3---5---|-5---5---5---5---5---5---5----|


G|---------------------------------|------------------------------|------------------------------|
D|---------------------------------|------------------------------|------------------------------|
A|---------------------------------|------------------------------|------------------------------|
E|-3---3---3---3---3---3---3---5---|-5---5---5---5---5---5---5----|-3----3---3---3---3---3---5---|


G|------------------------------|---------------------------------|-----------------4---4---4-------|
D|------------------------------|---------------------------------|---------------------------------|
A|------------------------------|-2---2---2---2---2---2---2---2---|-2-----------2---------------5---|
E|-5---5---5---5---5---5---5----|---------------------------------|-----0---2-----------------------|


G|------------------------------|---------------------------------|---------------------------|
D|------------------------------|---------------------------------|---------------------------|
A|-----2-------2------------5---|-5---5---4-------2---------------|---------------------------|
E|-5----------------------------|-------------------------5-------|-3----3----3---3---3---5---|


G|------------------------------|------------------------------|---------------------------------|
D|------------------------------|------------------------------|---------------------------------|
A|------------------------------|-----2-------2------------5---|-5---5---4-------2---------------|
E|-5---5---5----5---5---5-------|-5----------------------------|-------------------------5-------|


G|---------------------------|------------------------------|------------------------------|
D|---------------------------|------------------------------|------------------------------|
A|---------------------------|------------------------------|-----2-------2------------5---|
E|-3----3----3---3---3---5---|-5---5---5----5---5---5-------|-5----------------------------|


G|---------------------------------|---------------------------|---------------------------|
D|---------------------------------|---------------------------|---------------------------|
A|-5---5---4-------2---------------|---------------------------|---------------------------|
E|-------------------------5-------|-3----3----3---3---3---5---|-5---5---5----5---5---5----|


G|------------------------------|------------------------------|------------------------------|
D|------------------------------|------------------------------|------------------------------|
A|-2---2---2---2---2---2---2----|------------------------------|------------------------------|
E|------------------------------|-3---3---3---3---3---3---3----|-5---5---5---5---5---5---5----|


G|------------------------------|------------------------------|------------------------------|
D|------------------------------|------------------------------|------------------------------|
A|------------------------------|-2---2---2---2---2---2---2----|------------------------------|
E|-3---3---3---3---3---3---3----|------------------------------|-3---3---3---3---3---3---3----|


G|------------------------------|------------------------------|------------------------------|
D|------------------------------|------------------------------|------------------------------|
A|------------------------------|------------------------------|-2---2---2---2---2---2---2----|
E|-5---5---5---5---5---5---5----|-3---3---3---3---3---3---3----|------------------------------|


G|------------------------------|------------------------------|------------------------------|
D|------------------------------|------------------------------|------------------------------|
A|------------------------------|------------------------------|------------------------------|
E|-3---3---3---3---3---3---3----|-5---5---5---5---5---5---5----|-3---3---3---3---3---3---3----|


G|---------------------------------|---------------------------------|---------------------------------|
D|---------------------------------|---------------------------------|-2---2---2---2---2---2---2---2---|
A|-2---2---2---2---2---2---2---2---|-5---5---5---5---5---5---5---5---|---------------------------------|
E|---------------------------------|---------------------------------|---------------------------------|


G|---------------------------------|---------------------------------|---------------------------------|
D|-5---5---5---5---5---5---5---5---|---------------------------------|---------------------------------|
A|---------------------------------|-2---2---2---2---2---2---2---2---|-2---2---2---2---2---2---2---2---|
E|---------------------------------|---------------------------------|---------------------------------|


G|---------------------------------|---------------------------------|---------------------------------|
D|---------------------------------|---------------------------------|---------------------------------|
A|-----2---2---2---2---2---2---2---|-2---2---2---2---2---2---2---2---|-----2---2---2---2---2---2---2---|
E|-5-------------------------------|---------------------------------|-5-------------------------------|


G|---------------------------------|---------------------------------|---------------------------------|
D|---------------------------------|---------------------------------|---------------------------------|
A|-2---2---2---2---2---2---2---2---|-----2---2---2---2---2---2---2---|-2---2---2-------2---------------|
E|---------------------------------|-5-------------------------------|-------------------------5-------|


G|---------------------------------|------------------------------|---------------------------------|
D|---------------------------------|------------------------------|---------------------------------|
A|---------------------------------|------------------------------|---------------------------------|
E|-3---3---3---3---3---3---3---5---|-5---5---5---5---5---5---5----|-3---3---3---3---3---3---3---5---|


G|------------------------------|------------------------------|------------------------------|
D|------------------------------|------------------------------|------------------------------|
A|------------------------------|------------------------------|------------------------------|
E|-5---5---5---5---5---5---5----|-3----3---3---3---3---3---5---|-5---5---5---5---5---5---5----|


G|---------------------------------|-----------------4-------4-------|------------------------------|
D|---------------------------------|---------------------------------|------------------------------|
A|-2---2---2---2---2---2---2---2---|-2-----------2-------------------|-----2-------2------------5---|
E|---------------------------------|-----0---2-----------------------|-5----------------------------|


G|---------------------------------|---------------------------|------------------------------|
D|---------------------------------|---------------------------|------------------------------|
A|-5---5---4-------2---------------|---------------------------|------------------------------|
E|-------------------------5-------|-3----3----3---3---3---5---|-5---5---5----5---5---5-------|


G|------------------------------|---------------------------------|---------------------------|
D|------------------------------|---------------------------------|---------------------------|
A|-----2-------2------------5---|-5---5---4-------2---------------|---------------------------|
E|-5----------------------------|-------------------------5-------|-3----3----3---3---3---5---|


G|------------------------------|------------------------------|---------------------------------|
D|------------------------------|------------------------------|---------------------------------|
A|------------------------------|-----2-------2------------5---|-5---5---4-------2---------------|
E|-5---5---5----5---5---5-------|-5----------------------------|-------------------------5-------|


G|---------------------------|------------------------------|------------------------------|
D|---------------------------|------------------------------|------------------------------|
A|---------------------------|------------------------------|------------------------------|
E|-3----3----3---3---3---5---|-5---5---5----5---5---5-------|-3----3---3---3---3---3---5---|


G|---------------------------------|------------------------------|---------------------------------|
D|---------------------------------|------------------------------|---------------------------------|
A|---------------------------------|------------------------------|---------------------------------|
E|-5---5---5---5---5---5---5---5---|-3----3---3---3---3---3---5---|-5---5---5---5---5---5---5---5---|


G|------------------------------|---------------------------------|------------------------------|
D|------------------------------|---------------------------------|------------------------------|
A|------------------------------|---------------------------------|------------------------------|
E|-3----3---3---3---3---3---5---|-5---5---5---5---5---5---5---5---|-3----3---3---3---3---3---5---|


G|---------------------------------|---------------------------|--------|---------------------------|
D|---------------------------------|---------------------------|--------|---------------------------|
A|---------------------------------|-2-----------2-------------|--------|-2-----------2-------------|
E|-5---5---5---5---5---5---5---5---|----------------------5----|-5------|----------------------3----|


G|--------|
D|--------|
A|--------|
E|-3------|