Site menu:

    

Browse: 0-9 A B C D E F G H I J K L N O P Q R S T U V W X Y Z

glenn hughes - soul mover:



Title: Soul Mover
Artist: 
Album: Soul Mover
Author: Glenn Hughes, Chad Smith, Dave Navarro


Track 1: Dave Navarro

D#|-------------|-----------------------------------|-------------------------5----|
A#|-------------|-----------------------------------|-------------------------5----|
F#|-------------|-----------------------------------|------------------------------|
C#|-------------|---------2---4-----------2---2--2--|---------2---4----------------|
G#|-------------|-------------------------2---2--2--|------------------------------|
D#|--------12---|-0---2-----------0---2---2---2--2--|-0---2-----------0---2--------|


D#|-----------------------------------|-------------------------5----|-----------------------------------|
A#|-----------------------------------|-------------------------5----|-----------------------------------|
F#|-----------------------------------|------------------------------|-----------------------------------|
C#|---------2---4-----------2---2--2--|---------2---4----------------|---------2---4-----------2------2--|
G#|-------------------------2---2--2--|-----------------0------------|-------------------------2------2--|
D#|-0---2-----------0---2---2---2--2--|-0---2-----------0---2--------|-0---2-----------0---2---2------2--|


D#|-----------------------------------|-----------------------------------|-----------------2--2--2--2--2--2--2--2--|
A#|-----------------------------------|-----------------------------------|-----------------2--2--2--2--2--2--2--2--|
F#|-----------------------------------|-----------------------------------|-----------------2--2--2--2--2--2--2--2--|
C#|---------2---4-----------2------2--|---------2---4-----------2------2--|---------2---4---2--2--2--2--2--2--2--2--|
G#|-------------------------2------2--|-------------------------2------2--|-----------------2--2--2--2--2--2--2--2--|
D#|-0---2-----------0---2---2------2--|-0---2-----------0---2---2------2--|-0---2-----------2--2--2--2--2--2--2--2--|


D#|-----------------------------------|-------------------------5----|-----------------------------------|
A#|-----------------------------------|-------------------------5----|-----------------------------------|
F#|-----------------------------------|------------------------------|-----------------------------------|
C#|---------2---4-----------2------2--|---------2---4----------------|---------2---4-----------2------2--|
G#|-------------------------2------2--|-----------------0------------|-------------------------2------2--|
D#|-0---2-----------0---2---2------2--|-0---2-----------0---2--------|-0---2-----------0---2---2------2--|


D#|-----------------2--2--2--2--2--2--2--2--|-----------------------------------|-------------------------------------|
A#|-----------------2--2--2--2--2--2--2--2--|-----------------------------------|-------------------------------------|
F#|-----------------2--2--2--2--2--2--2--2--|-----------------------------------|--------------------2----------------|
C#|---------2---4---2--2--2--2--2--2--2--2--|---------2---4-----------2------2--|---------2---4-----------4--2--------|
G#|-----------------2--2--2--2--2--2--2--2--|-------------------------2------2--|-------------------------------4--2--|
D#|-0---2-----------2--2--2--2--2--2--2--2--|-0---2-----------0---2---2------2--|-0---2-----------0-------------------|


D#|-----------------------------------|-----------------2--2--2--2--2--2--2--2--|-----------------------------------|
A#|-----------------------------------|-----------------2--2--2--2--2--2--2--2--|-----------------------------------|
F#|-----------------------------------|-----------------2--2--2--2--2--2--2--2--|-----------------------------------|
C#|---------2---4-----------2------2--|---------2---4---2--2--2--2--2--2--2--2--|---------2---4-----------2------2--|
G#|-------------------------2------2--|-----------------2--2--2--2--2--2--2--2--|-------------------------2------2--|
D#|-0---2-----------0---2---2------2--|-0---2-----------2--2--2--2--2--2--2--2--|-0---2-----------0---2---2------2--|


D#|------------------------------|-----------------------------------|---------------------------------|
A#|------------------------------|-----------------------------------|---------------------------------|
F#|------------------------------|-----------------------------------|------------------------4--------|
C#|---------2---4-----------2----|---------2---4-----------2------2--|---------2---4---2---2--4--------|
G#|------------------------------|-------------------------2------2--|-----------------2---2--4--------|
D#|-0---2-----------0---2--------|-0---2-----------0---2---2------2--|-0---2-----------2---2-----------|


D#|------------------------------------------|------------------------------------------|
A#|-11---11-11-11-11-11-11-11-11-11-11-11-11-|-11---11-11-11-11-11-11-11-11-11-11-11-11-|
F#|-11---11-11-11-11-11-11-11-11-11-11-11-11-|-11---11-11-11-11-11-11-11-11-11-11-11-11-|
C#|-11---11-11-11-11-11-11-11-11-11-11-11-11-|-11---11-11-11-11-11-11-11-11-11-11-11-11-|
G#|------------------------------------------|------------------------------------------|
D#|------------------------------------------|------------------------------------------|


D#|------------------------------------------|------------------------|---------------------------------|
A#|-11---11-11-11-11-11-11-11-11-11-11-11-11-|------------------------|---------------------------------|
F#|-11---11-11-11-11-11-11-11-11-11-11-11-11-|-----------6---4--------|---------------------------------|
C#|-11---11-11-11-11-11-11-11-11-11-11-11-11-|-4----2------------7----|-2---4-------4-------4-------4---|
G#|------------------------------------------|------------------------|-2---4-------4-------4-------4---|
D#|------------------------------------------|------------------------|-0---2-------2-------2-------2---|


D#|---------------------------------|---------------------------------|---------------------------------------|
A#|---------------------------------|---------------------------------|---------------------------------------|
F#|---------------------------------|-2-------------------------------|---------------------------------------|
C#|-2---4-------4-------4-------4---|-2---4-------4-------4-------4---|-2---4-----------------4--4--2--2------|
G#|-2---4-------4-------4-------4---|-0---4-------4-------4-------4---|-2---4---------------------------------|
D#|-0---2-------2-------2-------2---|-0---2-------2-------2-------2---|-0---2--------0--2--2------------------|


D#|---------------------------------|---------------------------------|---------------------------------|
A#|---------------------------------|---------------------------------|---------------------------------|
F#|---------------------------------|---------------------------------|-2-------------------------------|
C#|-2---4-------4-------4-------4---|-2---4-------4-------4-------4---|-2---4-------4-------4-------4---|
G#|-2---4-------4-------4-------4---|-2---4-------4-------4-------4---|-0---4-------4-------4-------4---|
D#|-0---2-------2-------2-------2---|-0---2-------2-------2-------2---|-0---2-------2-------2-------2---|


D#|---------------------------------------|-----------------------------------|-----------------------------------|
A#|---------------------------------------|-----------------------------------|-----------------------------------|
F#|---------------------------------------|-----------------------------------|-----------------------------------|
C#|-2---4-----------------4--4--2--2------|---------2---4-----------2------2--|---------2---4-----------2------2--|
G#|-2---4---------------------------------|-------------------------2------2--|-------------------------2------2--|
D#|-0---2--------0--2--2------------------|-0---2-----------0---2---2------2--|-0---2-----------0---2---2------2--|


D#|-----------------------------------|-----------------2--2--2--2--2--2--2--2--|-----------------------------------|
A#|-----------------------------------|-----------------2--2--2--2--2--2--2--2--|-----------------------------------|
F#|-----------------------------------|-----------------2--2--2--2--2--2--2--2--|-----------------------------------|
C#|---------2---4-----------2------2--|---------2---4---2--2--2--2--2--2--2--2--|---------2---4-----------2------2--|
G#|-------------------------2------2--|-----------------2--2--2--2--2--2--2--2--|-------------------------2------2--|
D#|-0---2-----------0---2---2------2--|-0---2-----------2--2--2--2--2--2--2--2--|-0---2-----------0---2---2------2--|


D#|-------------------------------------|-----------------------------------|------------------------------|
A#|-------------------------------------|-----------------------------------|------------------------------|
F#|-------------------------------------|-----------------------------------|------------------------------|
C#|---------2---4------2--4--4--2-------|---------2---4-----------2------2--|---------2---4-----------0----|
G#|--------------------2----------------|-------------------------2------2--|---------------------0---0----|
D#|-0---2-----------0--2----------------|-0---2-----------0---2---2------2--|-0---2-----------0---2---2----|


D#|------------------------------------------|------------------------------------------|
A#|-11---11-11-11-11-11-11-11-11-11-11-11-11-|-11---11-11-11-11-11-11-11-11-11-11-11-11-|
F#|-11---11-11-11-11-11-11-11-11-11-11-11-11-|-11---11-11-11-11-11-11-11-11-11-11-11-11-|
C#|-11---11-11-11-11-11-11-11-11-11-11-11-11-|-11---11-11-11-11-11-11-11-11-11-11-11-11-|
G#|------------------------------------------|------------------------------------------|
D#|------------------------------------------|------------------------------------------|


D#|------------------------------------------|------------------------|---------------------------------|
A#|-11---11-11-11-11-11-11-11-11-11-11-11-11-|------------------------|---------------------------------|
F#|-11---11-11-11-11-11-11-11-11-11-11-11-11-|-----------6---4--------|---------------------------------|
C#|-11---11-11-11-11-11-11-11-11-11-11-11-11-|-4----2------------7----|-2---4-------4-------4-------4---|
G#|------------------------------------------|------------------------|-2---4-------4-------4-------4---|
D#|------------------------------------------|------------------------|-0---2-------2-------2-------2---|


D#|---------------------------------|---------------------------------|---------------------------------------|
A#|---------------------------------|---------------------------------|---------------------------------------|
F#|---------------------------------|-2-------------------------------|---------------------------------------|
C#|-2---4-------4-------4-------4---|-2---4-------4-------4-------4---|-2---4-----------------4--4--2--2------|
G#|-2---4-------4-------4-------4---|-0---4-------4-------4-------4---|-2---4---------------------------------|
D#|-0---2-------2-------2-------2---|-0---2-------2-------2-------2---|-0---2--------0--2--2------------------|


D#|---------------------------------|---------------------------------|---------------------------------|
A#|---------------------------------|---------------------------------|---------------------------------|
F#|---------------------------------|---------------------------------|-2-------------------------------|
C#|-2---4-------4-------4-------4---|-2---4-------4-------4-------4---|-2---4-------4-------4-------4---|
G#|-2---4-------4-------4-------4---|-2---4-------4-------4-------4---|-0---4-------4-------4-------4---|
D#|-0---2-------2-------2-------2---|-0---2-------2-------2-------2---|-0---2-------2-------2-------2---|


D#|---------------------------------------|-------------------------------------------|
A#|---------------------------------------|-------------------------------------------|
F#|---------------------------------------|-----------4--4------4--4------4--------4--|
C#|-2---4-----------------4--4--2--2------|-4--2------4--4------4--4------4--2-----4--|
G#|-2---4---------------------------------|-------2---4--4--3---4--4--4---4--------4--|
D#|-0---2--------0--2--2------------------|-------------------------------------------|


D#|---------------------------------|-------------------------------------------|---------------------------------|
A#|---------------------------------|-------------------------------------------|---------------------------------|
F#|---------------------------------|-----------4--4------4--4------4--------4--|---------------------------------|
C#|---------------------------------|-4--2------4--4------4--4------4--2-----4--|---------------------------------|
G#|-0-------------------------------|-------2---4--4--3---4--4--4---4--------4--|-0-------------------------------|
D#|-----2------2--2--0--2--2--------|-------------------------------------------|-----2------2--2--0--2--2--------|


D#|-------------------------------------------|---------------------------------|-------------------------------------------|
A#|-------------------------------------------|---------------------------------|-------------------------------------------|
F#|-----------4--4------4--4------4--------4--|---------------------------------|-----------4--4------4--4------4--------4--|
C#|-4--2------4--4------4--4------4--2-----4--|---------------------------------|-4--2------4--4------4--4------4--2-----4--|
G#|-------2---4--4--3---4--4--4---4--------4--|-0-------------------------------|-------2---4--4--3---4--4--4---4--------4--|
D#|-------------------------------------------|-----2------2--2--0--2--2--------|-------------------------------------------|


D#|--------|-----------------------------------|-----------------------------------|
A#|--------|-----------------------------------|-----------------------------------|
F#|-2------|-----------------------------------|-----------------------------------|
C#|-2------|---------2---4-----------2------2--|---------2---4-----------2------2--|
G#|-0------|-------------------------2------2--|-------------------------2------2--|
D#|--------|-0---2-----------0---2---2------2--|-0---2-----------0---2---2------2--|


D#|-----------------------------------|-----------------------------------|-----------------------------------|
A#|-----------------------------------|-----------------------------------|-----------------------------------|
F#|-----------------------------------|-----------------------------------|-----------------------------------|
C#|---------2---4-----------2------2--|---------2---4-----------2------2--|---------2---4-----------2------2--|
G#|-------------------------2------2--|-------------------------2------2--|-------------------------2------2--|
D#|-0---2-----------0---2---2------2--|-0---2-----------0---2---2------2--|-0---2-----------0---2---2------2--|


D#|-----------------------------------|-----------------------------------|-----------------------------------|
A#|-----------------------------------|-----------------------------------|-----------------------------------|
F#|-----------------------------------|-----------------------------------|-----------------------------------|
C#|---------2---4-----------2------2--|---------2---4-----------2------2--|---------2---4-----------2------2--|
G#|-------------------------2------2--|-------------------------2------2--|-------------------------2------2--|
D#|-0---2-----------0---2---2------2--|-0---2-----------0---2---2------2--|-0---2-----------0---2---2------2--|


D#|------------------------------------------|------------------------------------------|
A#|-11---11-11-11-11-11-11-11-11-11-11-11-11-|-11---11-11-11-11-11-11-11-11-11-11-11-11-|
F#|-11---11-11-11-11-11-11-11-11-11-11-11-11-|-11---11-11-11-11-11-11-11-11-11-11-11-11-|
C#|-11---11-11-11-11-11-11-11-11-11-11-11-11-|-11---11-11-11-11-11-11-11-11-11-11-11-11-|
G#|------------------------------------------|------------------------------------------|
D#|------------------------------------------|------------------------------------------|


D#|------------------------------------------|------------------------|---------------------------------|
A#|-11---11-11-11-11-11-11-11-11-11-11-11-11-|------------------------|---------------------------------|
F#|-11---11-11-11-11-11-11-11-11-11-11-11-11-|-----------6---4--------|---------------------------------|
C#|-11---11-11-11-11-11-11-11-11-11-11-11-11-|-4----2------------7----|-2---4-------4-------4-------4---|
G#|------------------------------------------|------------------------|-2---4-------4-------4-------4---|
D#|------------------------------------------|------------------------|-0---2-------2-------2-------2---|


D#|---------------------------------|---------------------------------|---------------------------------------|
A#|---------------------------------|---------------------------------|---------------------------------------|
F#|---------------------------------|-2-------------------------------|---------------------------------------|
C#|-2---4-------4-------4-------4---|-2---4-------4-------4-------4---|-2---4-----------------4--4--2--2------|
G#|-2---4-------4-------4-------4---|-0---4-------4-------4-------4---|-2---4---------------------------------|
D#|-0---2-------2-------2-------2---|-0---2-------2-------2-------2---|-0---2--------0--2--2------------------|


D#|---------------------------------|---------------------------------|---------------------------------|
A#|---------------------------------|---------------------------------|---------------------------------|
F#|---------------------------------|---------------------------------|-2-------------------------------|
C#|-2---4-------4-------4-------4---|-2---4-------4-------4-------4---|-2---4-------4-------4-------4---|
G#|-2---4-------4-------4-------4---|-2---4-------4-------4-------4---|-0---4-------4-------4-------4---|
D#|-0---2-------2-------2-------2---|-0---2-------2-------2-------2---|-0---2-------2-------2-------2---|


D#|---------------------------------------|---------------------------------|---------------------------------|
A#|---------------------------------------|---------------------------------|---------------------------------|
F#|---------------------------------------|---------------------------------|---------------------------------|
C#|-2---4-----------------4--4--2--2------|-2---4-------4-------4-------4---|-2---4-------4-------4-------4---|
G#|-2---4---------------------------------|-2---4-------4-------4-------4---|-2---4-------4-------4-------4---|
D#|-0---2--------0--2--2------------------|-0---2-------2-------2-------2---|-0---2-------2-------2-------2---|


D#|---------------------------------|---------------------------------------|---------------------------------|
A#|---------------------------------|---------------------------------------|---------------------------------|
F#|-2-------------------------------|---------------------------------------|---------------------------------|
C#|-2---4-------4-------4-------4---|-2---4-----------------4--4--2--2------|-2---4-------4-------4-------4---|
G#|-0---4-------4-------4-------4---|-2---4---------------------------------|-2---4-------4-------4-------4---|
D#|-0---2-------2-------2-------2---|-0---2--------0--2--2------------------|-0---2-------2-------2-------2---|


D#|---------------------------------|---------------------------------|---------------------------------------|
A#|---------------------------------|---------------------------------|---------------------------------------|
F#|---------------------------------|-2-------------------------------|---------------------------------------|
C#|-2---4-------4-------4-------4---|-2---4-------4-------4-------4---|-2---4-----------------4--4--2--2------|
G#|-2---4-------4-------4-------4---|-0---4-------4-------4-------4---|-2---4---------------------------------|
D#|-0---2-------2-------2-------2---|-0---2-------2-------2-------2---|-0---2--------0--2--2------------------|


D#|-------------------------5----|-------------------------5----|-------------------------5----|
A#|-------------------------5----|-------------------------5----|-------------------------5----|
F#|------------------------------|------------------------------|------------------------------|
C#|---------2---4----------------|---------2---4----------------|---------2---4----------------|
G#|------------------------------|------------------------------|------------------------------|
D#|-0---2-----------0---2--------|-0---2-----------0---2--------|-0---2-----------0---2--------|


D#|-----------------2--2--2--2--2--2--2--2--|-------------------------5----|-------------14---14-13-12----------------------|
A#|-----------------2--2--2--2--2--2--2--2--|-------------------------5----|---------------------------14-13-12-------------|
F#|-----------------2--2--2--2--2--2--2--2--|------------------------------|------------------------------------14-13-12----|
C#|---------2---4---2--2--2--2--2--2--2--2--|---------2---4----------------|---------2-----------------------------------14-|
G#|-----------------2--2--2--2--2--2--2--2--|------------------------------|------------------------------------------------|
D#|-0---2-----------2--2--2--2--2--2--2--2--|-0---2-----------0---2--------|-0---2------------------------------------------|


D#|-------------------------5----|------------------------------|------------------------------|
A#|-------------------------5----|------------------------------|-------------------------2----|
F#|------------------------------|------------------------------|------------------------------|
C#|---------2---4----------------|---------2---4----------------|---------2---4----------------|
G#|------------------------------|------------------------------|------------------------------|
D#|-0---2-----------0---2--------|-0---2-----------0---2---2----|-0---2-----------0---2--------|


D#|------------------------------|------------------------------|-------------------------2---2---|
A#|-------------------------4----|-------------------------5----|-------------------------0---0---|
F#|------------------------------|------------------------------|---------------------------------|
C#|---------2---4----------------|---------2---4----------------|---------2---4-------------------|
G#|------------------------------|------------------------------|---------------------------------|
D#|-0---2-----------0---2--------|-0---2-----------0---2--------|-0---2-----------0---2-----------|


D#|------------------------------|------------------------------|------------------------------|
A#|-------------------------2----|-------------------------4----|-------------------------5----|
F#|------------------------------|------------------------------|------------------------------|
C#|---------2---4----------------|---------2---4----------------|---------2---4----------------|
G#|------------------------------|------------------------------|------------------------------|
D#|-0---2-----------0---2--------|-0---2-----------0---2--------|-0---2-----------0---2--------|


D#|-------------------------2---2---|
A#|-------------------------0---0---|
F#|---------------------------------|
C#|---------2---4-------------------|
G#|---------------------------------|
D#|-0---2-----------0---2-----------|





Track 2: Solo

D#|--------|--------|--------|--------|--------|--------|--------|--------|--------|
A#|--------|--------|--------|--------|--------|--------|--------|--------|--------|
F#|--------|--------|--------|--------|--------|--------|--------|--------|--------|
C#|--------|--------|--------|--------|--------|--------|--------|--------|--------|
G#|--------|--------|--------|--------|--------|--------|--------|--------|--------|
D#|--------|--------|--------|--------|--------|--------|--------|--------|--------|


D#|--------|--------|--------|--------|--------|--------|--------|--------|--------|
A#|--------|--------|--------|--------|--------|--------|--------|--------|--------|
F#|--------|--------|--------|--------|--------|--------|--------|--------|--------|
C#|--------|--------|--------|--------|--------|--------|--------|--------|--------|
G#|--------|--------|--------|--------|--------|--------|--------|--------|--------|
D#|--------|--------|--------|--------|--------|--------|--------|--------|--------|


D#|--------|--------|--------|--------|--------|--------|--------|--------|--------|
A#|--------|--------|--------|--------|--------|--------|--------|--------|--------|
F#|--------|--------|--------|--------|--------|--------|--------|--------|--------|
C#|--------|--------|--------|--------|--------|--------|--------|--------|--------|
G#|--------|--------|--------|--------|--------|--------|--------|--------|--------|
D#|--------|--------|--------|--------|--------|--------|--------|--------|--------|


D#|--------|--------|--------|--------|--------|--------|--------|--------|--------|
A#|--------|--------|--------|--------|--------|--------|--------|--------|--------|
F#|--------|--------|--------|--------|--------|--------|--------|--------|--------|
C#|--------|--------|--------|--------|--------|--------|--------|--------|--------|
G#|--------|--------|--------|--------|--------|--------|--------|--------|--------|
D#|--------|--------|--------|--------|--------|--------|--------|--------|--------|


D#|--------|--------|--------|--------|--------|--------|--------|--------|--------|
A#|--------|--------|--------|--------|--------|--------|--------|--------|--------|
F#|--------|--------|--------|--------|--------|--------|--------|--------|--------|
C#|--------|--------|--------|--------|--------|--------|--------|--------|--------|
G#|--------|--------|--------|--------|--------|--------|--------|--------|--------|
D#|--------|--------|--------|--------|--------|--------|--------|--------|--------|


D#|--------|--------|--------|--------|--------|--------|--------|--------|--------|
A#|--------|--------|--------|--------|--------|--------|--------|--------|--------|
F#|--------|--------|--------|--------|--------|--------|--------|--------|--------|
C#|--------|--------|--------|--------|--------|--------|--------|--------|--------|
G#|--------|--------|--------|--------|--------|--------|--------|--------|--------|
D#|--------|--------|--------|--------|--------|--------|--------|--------|--------|


D#|--------|--------|--------|--------|--------|--------|--------|-19-----19---19-|
A#|--------|--------|--------|--------|--------|--------|--------|----------------|
F#|--------|--------|--------|--------|--------|--------|--------|----------------|
C#|--------|--------|--------|--------|--------|--------|--------|----------------|
G#|--------|--------|--------|--------|--------|--------|--------|----------------|
D#|--------|--------|--------|--------|--------|--------|--------|----------------|


D#|-19--19--19-19-16-------16---|-16--16-16-14-16-16-16-14-12----12-------------------------|
A#|-------------------19--------|-----------------------------14----14-12-14-12-10-12-10----|
F#|-----------------------------|--------------------------------------------------------11-|
C#|-----------------------------|-----------------------------------------------------------|
G#|-----------------------------|-----------------------------------------------------------|
D#|-----------------------------|-----------------------------------------------------------|


D#|-9----9----9---------------|----------------|-------------------------------|----------------------------------------|
A#|------9----11----9----2----|-2------2---4---|-4---2---4--4--4--4--4---2-----|----------------------------------------|
F#|------9----9----------2----|-2------2---4---|-4---2---4--4--4--4--4---2-----|-14-14-14-14----14--14-14-14-14----11---|
C#|----------------------2----|-2------2-------|---------2--4------------------|-14-14-14-14----14--14-14-14-14---------|
G#|---------------------------|----------------|-------------------------------|----------------------------------------|
D#|---------------------------|----------------|-------------------------------|----------------------------------------|


D#|----------------------------------------|--------|--------|--------|--------|--------|
A#|----------------------------------------|--------|--------|--------|--------|--------|
F#|-14-14-14-14----14--14-14-14-14----11---|--------|--------|--------|--------|--------|
C#|-14-14-14-14----14--14-14-14-14---------|--------|--------|--------|--------|--------|
G#|----------------------------------------|--------|--------|--------|--------|--------|
D#|----------------------------------------|--------|--------|--------|--------|--------|


D#|--------|--------|--------|--------|--------|--------|--------|--------|--------|
A#|--------|--------|--------|--------|--------|--------|--------|--------|--------|
F#|--------|--------|--------|--------|--------|--------|--------|--------|--------|
C#|--------|--------|--------|--------|--------|--------|--------|--------|--------|
G#|--------|--------|--------|--------|--------|--------|--------|--------|--------|
D#|--------|--------|--------|--------|--------|--------|--------|--------|--------|


D#|--------|--------|--------|--------|--------|--------|--------|--------|--------|
A#|--------|--------|--------|--------|--------|--------|--------|--------|--------|
F#|--------|--------|--------|--------|--------|--------|--------|--------|--------|
C#|--------|--------|--------|--------|--------|--------|--------|--------|--------|
G#|--------|--------|--------|--------|--------|--------|--------|--------|--------|
D#|--------|--------|--------|--------|--------|--------|--------|--------|--------|


D#|--------|--------|--------|--------|--------|-------------|-------------|-------------|
A#|--------|--------|--------|--------|--------|-12---12-----|-12---12-----|-5----5------|
F#|--------|--------|--------|--------|--------|-14---14-----|-14---14-----|-7----7------|
C#|--------|--------|--------|--------|--------|-------------|-------------|-------------|
G#|--------|--------|--------|--------|--------|-------------|-------------|-------------|
D#|--------|--------|--------|--------|--------|-------------|-------------|-------------|


D#|--------|-------------|-------------|-------------|--------|
A#|-5------|-12---12-----|-12---12-----|-5----5------|-5------|
F#|-7------|-14---14-----|-14---14-----|-7----7------|-7------|
C#|--------|-------------|-------------|-------------|--------|
G#|--------|-------------|-------------|-------------|--------|
D#|--------|-------------|-------------|-------------|--------|





Track 3: Glenn Hughes

F#|-------------|---------------------------|---------------------------|---------------------------|
C#|-------------|---------2---4-------------|---------2---4-------------|---------2---4-------------|
G#|-------------|---------------------------|---------------------------|---------------------------|
D#|--------12---|-0---2-----------0---2-----|-0---2-----------0---2-----|-0---2-----------0---2-----|


F#|------------------------------|------------------------------|------------------------------|
C#|---------2---4----------------|---------2---4----------------|---------2---4----------------|
G#|------------------------------|------------------------------|------------------------------|
D#|-0---2-----------5---2---14---|-0---2-----------0---2--------|-0---2-----------0---2--------|


F#|------------------------------|-----------------------|------------------------------|
C#|---------2---4----------------|---------2---4---------|---------2---4----------------|
G#|------------------------------|-----------------------|------------------------------|
D#|-0---2-----------0---2--------|-0---2-----------------|-0---2-----------0---2--------|


F#|------------------------------|------------------------------|-----------------------|
C#|---------2---4----------------|---------2---4----------------|---------2---4---------|
G#|------------------------------|------------------------------|-----------------------|
D#|-0---2-----------0---2--------|-0---2-----------0---2--------|-0---2-----------------|


F#|------------------------------|------------------------------|------------------------------|
C#|---------2---4----------------|---------2---4----------------|---------2---4----------------|
G#|------------------------------|------------------------------|------------------------------|
D#|-0---2-----------0---2--------|-0---2-----------0---2--------|-0---2-----------0---2--------|


F#|-----------------------|------------------------------|------------------------------|
C#|---------2---4---------|---------2---4----------------|---------2---4----------------|
G#|-----------------------|------------------------------|------------------------------|
D#|-0---2-----------------|-0---2-----------0---2--------|-0---2-----------0---2--------|


F#|------------------------------|-----------------------|----------------|----------------|
C#|---------2---4----------------|---------2---4---------|----------------|----------------|
G#|------------------------------|-----------------------|----------------|----------------|
D#|-0---2-----------0---2--------|-0---2-----------------|-0---2----------|-0---2----------|


F#|----------------|------------------------|---------------------------------|---------------------------------|
C#|----------------|-4----2-----------------|---------------------------------|---------------------------------|
G#|----------------|-----------4---2--------|---------------------------------|---------------------------------|
D#|-0---2----------|-------------------5----|-0---2-------2-------2-------2---|-0---2-------2-------2-------2---|


F#|---------------------------------|---------------------------------------|---------------------------------|
C#|---------------------------------|-----------------------4--4--2--2------|---------------------------------|
G#|---------------------------------|---------------------------------------|---------------------------------|
D#|-5---2-------2-------2-------2---|-0---2--------0--2--2------------------|-0---2-------2-------2-------2---|


F#|---------------------------------|---------------------------------|---------------------------------------|
C#|---------------------------------|---------------------------------|-----------------------4--4--2--2------|
G#|---------------------------------|---------------------------------|---------------------------------------|
D#|-0---2-------2-------2-------2---|-5---2-------2-------2-------2---|-0---2--------0--2--2------------------|


F#|------------------------------|------------------------------|------------------------------|
C#|---------2---4----------------|---------2---4----------------|---------2---4----------------|
G#|------------------------------|------------------------------|------------------------------|
D#|-0---2-----------0---2--------|-0---2-----------0---2--------|-0---2-----------0---2--------|


F#|-----------------------|------------------------------|------------------------------|
C#|---------2---4---------|---------2---4----------------|---------2---4----------------|
G#|-----------------------|------------------------------|------------------------------|
D#|-0---2-----------------|-0---2-----------0---2--------|-0---2-----------0---2--------|


F#|------------------------------|------------------------------|----------------|
C#|---------2---4----------------|---------2---4----------------|----------------|
G#|------------------------------|------------------------------|----------------|
D#|-0---2-----------0---2--------|-0---2-----------0---2--------|-0---2----------|


F#|----------------|----------------|------------------------|---------------------------------|
C#|----------------|----------------|-4----2-----------------|---------------------------------|
G#|----------------|----------------|-----------4---2--------|---------------------------------|
D#|-0---2----------|-0---2----------|-------------------5----|-0---2-------2-------2-------2---|


F#|---------------------------------|---------------------------------|---------------------------------------|
C#|---------------------------------|---------------------------------|-----------------------4--4--2--2------|
G#|---------------------------------|---------------------------------|---------------------------------------|
D#|-0---2-------2-------2-------2---|-5---2-------2-------2-------2---|-0---2--------0--2--2------------------|


F#|---------------------------------|---------------------------------|---------------------------------|
C#|---------------------------------|---------------------------------|---------------------------------|
G#|---------------------------------|---------------------------------|---------------------------------|
D#|-0---2-------2-------2-------2---|-0---2-------2-------2-------2---|-5---2-------2-------2-------2---|


F#|---------------------------------------|-------------------------------------|---------------------------------|
C#|-----------------------4--4--2--2------|-4--2-------------------------2------|---------------------------------|
G#|---------------------------------------|-------2-------3-------4-------------|---------------------------------|
D#|-0---2--------0--2--2------------------|-------------------------------------|-5---2------2--2--0--2--2--------|


F#|-------------------------------------|---------------------------------|-------------------------------------|
C#|-4--2-------------------------2------|---------------------------------|-4--2-------------------------2------|
G#|-------2-------3-------4-------------|---------------------------------|-------2-------3-------4-------------|
D#|-------------------------------------|-5---2------2--2--0--2--2--------|-------------------------------------|


F#|---------------------------------|-------------------------------------|--------|
C#|---------------------------------|-4--2-------------------------2------|--------|
G#|---------------------------------|-------2-------3-------4-------------|--------|
D#|-5---2------2--2--0--2--2--------|-------------------------------------|-5------|


F#|---------------------------|---------------------------|---------------------------|
C#|---------2---4-------------|---------2---4-------------|---------2---4-------------|
G#|---------------------------|---------------------------|---------------------------|
D#|-0---2-----------0---2-----|-0---2-----------0---2-----|-0---2-----------0---2-----|


F#|---------------------------|---------------------------|---------------------------|
C#|---------2---4-------------|---------2---4-------------|---------2---4-------------|
G#|---------------------------|---------------------------|---------------------------|
D#|-0---2-----------0---2-----|-0---2-----------0---2-----|-0---2-----------0---2-----|


F#|---------------------------|---------------------------|----------------|----------------|
C#|---------2---4-------------|---------2---4-------------|----------------|----------------|
G#|---------------------------|---------------------------|----------------|----------------|
D#|-0---2-----------0---2-----|-0---2-----------0---2-----|-0---2----------|-0---2----------|


F#|----------------|------------------------|---------------------------------|---------------------------------|
C#|----------------|-4----2-----------------|---------------------------------|---------------------------------|
G#|----------------|-----------4---2--------|---------------------------------|---------------------------------|
D#|-0---2----------|-------------------5----|-0---2-------2-------2-------2---|-0---2-------2-------2-------2---|


F#|---------------------------------|---------------------------------------|---------------------------------|
C#|---------------------------------|-----------------------4--4--2--2------|---------------------------------|
G#|---------------------------------|---------------------------------------|---------------------------------|
D#|-5---2-------2-------2-------2---|-0---2--------0--2--2------------------|-0---2-------2-------2-------2---|


F#|---------------------------------|---------------------------------|---------------------------------------|
C#|---------------------------------|---------------------------------|-----------------------4--4--2--2------|
G#|---------------------------------|---------------------------------|---------------------------------------|
D#|-0---2-------2-------2-------2---|-5---2-------2-------2-------2---|-0---2--------0--2--2------------------|


F#|---------------------------------|---------------------------------|---------------------------------|
C#|---------------------------------|---------------------------------|---------------------------------|
G#|---------------------------------|---------------------------------|---------------------------------|
D#|-0---2-------2-------2-------2---|-0---2-------2-------2-------2---|-5---2-------2-------2-------2---|


F#|---------------------------------------|---------------------------------|---------------------------------|
C#|-----------------------4--4--2--2------|---------------------------------|---------------------------------|
G#|---------------------------------------|---------------------------------|---------------------------------|
D#|-0---2--------0--2--2------------------|-0---2-------2-------2-------2---|-0---2-------2-------2-------2---|


F#|---------------------------------|---------------------------------------|---------------------------|
C#|---------------------------------|-----------------------4--4--2--2------|---------2---4-------------|
G#|---------------------------------|---------------------------------------|---------------------------|
D#|-5---2-------2-------2-------2---|-0---2--------0--2--2------------------|-0---2-----------0---2-----|


F#|---------------------------|---------------------------|------------------------------|
C#|---------2---4-------------|---------2---4-------------|---------2---4----------------|
G#|---------------------------|---------------------------|------------------------------|
D#|-0---2-----------0---2-----|-0---2-----------0---2-----|-0---2-----------2---14--14---|


F#|---------------------------|---------------------------|---------------------------|
C#|---------2---4-------------|---------2---4-------------|---------2---4-------------|
G#|---------------------------|---------------------------|---------------------------|
D#|-0---2-----------0---2-----|-0---2-----------0---2-----|-0---2-----------0---2-----|


F#|----------------2--4--6--4--2--------------|---------------------------|---------------------------|
C#|---------2---4-----------------4--2--------|---------2---4-------------|---------2---4-------------|
G#|-------------------------------------4--2--|---------------------------|---------------------------|
D#|-0---2-------------------------------------|-0---2-----------0---2-----|-0---2-----------0---2-----|


F#|---------------------------|---------------------------|---------------------------|
C#|---------2---4-------------|---------2---4-------------|---------2---4-------------|
G#|---------------------------|---------------------------|---------------------------|
D#|-0---2-----------0---2-----|-0---2-----------0---2-----|-0---2-----------0---2-----|


F#|---------------------------|---------------------------|---------------------------|
C#|---------2---4-------------|---------2---4-------------|---------2---4-------------|
G#|---------------------------|---------------------------|---------------------------|
D#|-0---2-----------0---2-----|-0---2-----------0---2-----|-0---2-----------0---2-----|