Site menu:

    

Browse: 0-9 A B C D E F G H I J K L N O P Q R S T U V W X Y Z

george strait - love without end amen:



Title: Love Without End, Amen
Artist: 
Album: Livin' It Up
Author: Aaron G. Barker


Track 1: Rhythm (picked)

E|-----------------------------------------|-----------------------------------------|
B|-----1-----1----------------------1------|-----1-----1----------------------1------|
G|--------------0------0---0-----0---------|--------------0------0---0-----0---------|
D|-----0--2--2-----2---2---0--2--2-----0---|-----0--2--2-----2---2---0--2--2-----0---|
A|-3-------------------3-------------------|-3-------------------3-------------------|
E|-----------------------------------------|-----------------------------------------|


E|---------------------------------------------|-----------------------------------------|
B|-----1--1--1-----1---------------1-----------|------------1------------------1---------|
G|--------------0-----0---------0-----0-----0--|-----2---2-----2-----0------0-----0------|
D|-----0--2--2---------------2-----------2-----|-3---3------------2--2---2-----------2---|
A|-3---------------------3---------------------|-3----------------3----------------------|
E|---------------------------------------------|-----------------------------------------|


E|---------------------------------|-----------------------------------------|---------------------------------1-----------|
B|-----1----1--------------1-------|---------------1-------------------------|-----------------------------1------1-----1--|
G|-----0-------0-------0-------0---|-----0--0---0-----0------0------------0--|----------0-----------0------2---------2-----|
D|-2---2-----------2---------------|-----0--2----------------0---------0-----|-------0-----------0-----3---3---------------|
A|-3-------------------------------|-3-------------------2---2---0--2--------|-0--2--------0--2------------3---------------|
E|---------------------------------|---------------------3-------3-----------|-3-----------3-------------------------------|


E|-----------------------------------------|---------------------------------1-------|
B|-------------------0---------------------|-1---1------1-----------------1------1---|
G|----------------0-----0------0-------0---|-2---0--2------2--------0--2-------------|
D|-------0-----0-------------------2-------|-3-------------------3-------------------|
A|-0--2-----2--------------3---------------|-----------------------------------------|
E|-3---------------------------------------|-----------------------------------------|


E|-------------------------------------------|-------------------------------------|
B|---------------1---------------1-----------|-------------------------------1-----|
G|------------0-----0---------0-----0-----0--|-----0-------0-------0------0-----0--|
D|-----0--2----------------2-----------2-----|---------0---------------2-----------|
A|-3-------------------3---------------------|-2---------------3-------------------|
E|-------------------------------------------|-------------------------------------|


E|--------------------------------|-------------------------------------|-------------------------------------|
B|------------------1---1---1-----|-----1---1---1---------1---1---1-----|-----1---1---1---------1---1---1-----|
G|-----0------------0---0------0--|-----0---0------0------2---2------2--|-----0---0------0------0---0------0--|
D|------------------2---2---------|-----2---2-------------3---3---------|-----2---2-------------2---2---------|
A|-3------------3-----------------|-3-----------------3-----------------|-3-----------------3-----------------|
E|--------------------------------|-------------------------------------|-------------------------------------|


E|---------------------------------------|-----------------------------------------|
B|--------------1------------------------|-----3--3------3--3------3--3------3--3--|
G|--------0--------0-------------0-------|-----0--0------0--0------0--0------0--0--|
D|-----2-----2--------2------2-------2---|-----0--0------0--0------0--0------0--0--|
A|-3---------------------3---------------|-----------2-------------------2---------|
E|---------------------------------------|-3-------------------3-------------------|


E|-------------------------------------------------|-------------0---------------------------|
B|----------1--1--------1--3--------3--------3-----|----------1--1---1---1---1------1--------|
G|----------2--2--------2--0--0-----0--0-----0-----|----------0--0---0---2---0--2------2-----|
D|-3-----3-----------3-----0-----0--0-----0-----0--|----2------------3---3-------------------|
A|----3-----------3--------2--------2--------------|-3-----3---------------------------------|
E|-------------------------------------------------|-----------------------------------------|


E|-------------1---------------------------|-----------------------------------------|
B|----------1------1-------1--1------1--1--|-----3--3------3--3------1--1------1--1--|
G|----0--2-----------------0--0------0--0--|-----0--0------0--0------0--0------0--0--|
D|-3-----------------------2--2------2--2--|-----0--0------0--0------2--2------2--2--|
A|---------------------3---------3---------|-----------2---------3---------3---------|
E|-----------------------------------------|-3---------------------------------------|


E|-----------------------------------------|-------------------------------------------|
B|-----1--1------1--1------1--1------1--1--|-----3--3------3--3------1--1--------------|
G|-----0--0------0--0------0--0------0--0--|-----0--0------0--0------0--0--------0-----|
D|-----2--2------2--2------2--2------2--2--|-----0--0------0--0------2--2-----2-----2--|
A|-3---------3---------3---------3---------|-----------2---------3---------3-----------|
E|-----------------------------------------|-3-----------------------------------------|


E|-------------------------------|-------------------------------------------|-----------------------------------------|
B|-1----1--------1--1------1-----|-----------1---------------1------1--------|-1---------1-------------1--1------1-----|
G|-0----0--------0--0---0-----0--|--------0-----0-----0------2---2-----2-----|-0------0-----0----------0--0---0-----0--|
D|-2----2----2---2--2------------|-----2-----------2-----3---3------------2--|-2---2-----------2---2---2--2------------|
A|-3----3----3-------------------|-3---------------------3----------------3--|---------------------3-------------------|
E|-------------------------------|-------------------------------------------|-----------------------------------------|


E|-------------------------------------------|---------------------------------------------|
B|-----------1-------------------------1-----|---------------------------------------------|
G|--------0-----0-----0------0--0---0-----0--|-----0------------0-----------0--------------|
D|-----2-----------2---------0--2------------|-----0---------0-----------0-----0-----------|
A|-3---------------------3-------------------|-2---2---0--2--------0--2-----------2--0--2--|
E|-------------------------------------------|-3-------3-----------3--------------------3--|


E|---------1-----------------------------------|-------------------------------------|
B|-----1------1-----1--------------------3-----|-----------------1---1------1--------|
G|-----2---------2--------------------0-----0--|-----0-------0---2---0--2------2-----|
D|-3---3---------------------0-----0-----------|---------2-------3-------------------|
A|-3---3---------------0--2-----2--------------|-3-----------------------------------|
E|---------------------3-----------------------|-------------------------------------|


E|-------------1---------------------------|---------------------------------------|
B|----------1------1-----------------1-----|-----------1---------------------------|
G|----0--2------------------------0-----0--|--------0-----0-----0------0-------0---|
D|-3-----------------------0--2------------|-----2-----------2-------------0-------|
A|---------------------3-------------------|-3---------------------2---------------|
E|-----------------------------------------|---------------------------------------|


E|-----------------------------------------|-------------------------------------|
B|---------------1-------------------1-----|-----1---1---1---------1---1---1-----|
G|-----0------0-----0------0------0-----0--|-----0---0------0------0---0------0--|
D|---------2-------------------2-----------|-----2---2-------------2---2---------|
A|-3-------------------3-------------------|-3-----------------3-----------------|
E|-----------------------------------------|-------------------------------------|


E|-------------------------------------|-----------------------------------------|
B|-----1---1---1---------1---1---1-----|-----1---1---1------------------1--------|
G|-----2---2------2------0---0------0--|-----0---0------0---------0--------0-----|
D|-----3---3-------------2---2---------|-----2---2-------------2-----2--------2--|
A|-3-----------------3-----------------|-3-----------------3---------------------|
E|-------------------------------------|-----------------------------------------|


E|-------------------------------------|---------------------------------------------|
B|---------------------3--3------3--3--|-----3--3------3--3-----------1--1--------1--|
G|---------0-----------0--0------0--0--|-----0--0------0--0-----------2--2--------2--|
D|-----2-------2-------0--0------0--0--|-----0--0------0--0--3-----3-----------3-----|
A|-3-------------------------2---------|-----------2------------3-----------3--------|
E|-----------------3-------------------|-3-------------------------------------------|


E|-------------------------------------0-------|---------------------------------1-------|
B|-3--------3--------3--------------1--1---1---|-1---1------1-----------------1------1---|
G|-0--0-----0--0-----0--------------0--0---0---|-2---0--2------2--------0--2-------------|
D|-0-----0--0-----0-----0-----2------------3---|-3-------------------3-------------------|
A|-2--------2--------------3-----3-------------|-----------------------------------------|
E|---------------------------------------------|-----------------------------------------|


E|-----------------------------------------|-----------------------------------------|
B|-----1--1------1--1------3--3------3--3--|-----1--1------1--1------1--1------1--1--|
G|-----0--0------0--0------0--0------0--0--|-----0--0------0--0------0--0------0--0--|
D|-----2--2------2--2------0--0------0--0--|-----2--2------2--2------2--2------2--2--|
A|-3---------3-------------------2---------|-3---------3---------3---------3---------|
E|---------------------3-------------------|-----------------------------------------|


E|-----------------------------------------|-----------------------------------------|
B|-----1--1------1--1------3--3------3--3--|-----1--1------1--1------1--1------1--1--|
G|-----0--0------0--0------0--0------0--0--|-----0--0------0--0------0--0------0--0--|
D|-----2--2------2--2------0--0------0--0--|-----2--2------2--2------2--2------2--2--|
A|-3---------3-------------------2---------|-3---------3---------3---------3---------|
E|---------------------3-------------------|-----------------------------------------|


E|---------------------------|--------|-------------|-------------|-------------|--------|
B|-----2-------2-------2-----|--------|-------------|-------------|-------------|--------|
G|-----2-------2-------2-----|--------|-------------|-------------|-------------|--------|
D|-----2-------2-------2-----|--------|-------------|-------------|-------------|--------|
A|-0-------0-----------------|--------|-------------|-------------|-------------|--------|
E|---------------------------|--------|-------------|-------------|-------------|--------|


E|--------|-------------|-------------|-------------|--------|-----2-------2-------2-------2---|
B|--------|-------------|-------------|-------------|--------|-----3-------3-------3-------3---|
G|--------|-------------|-------------|-------------|--------|-----2-------2-------2-------2---|
D|--------|-------------|-------------|-------------|--------|-0-------0-------0-------0-------|
A|--------|-------------|-------------|-------------|--------|---------------------------------|
E|--------|-------------|-------------|-------------|--------|---------------------------------|


E|---------------------2-------2---|-----2-------2-------2-------2---|-----2-------2-------------------|
B|-----3-------3-------3-------3---|-----3-------3-------3-------3---|-----3-------3-------2-------2---|
G|-----0-------0-------2-------2---|-----2-------2-------2-------2---|-----2-------2-------2-------2---|
D|-----0-------0---0-------0-------|-0-------0-------0-------0-------|-0-------0-----------2-------2---|
A|---------2-----------------------|---------------------------------|-----------------0-------0-------|
E|-3-------------------------------|---------------------------------|---------------------------------|


E|---------------------------------|---------------------2-------2---|---------------------------------|
B|-----2-------2-------3-------3---|-----2-------2-------3-------3---|-----3-------3-------------------|
G|-----2-------2-------0-------0---|-----2-------2-------2-------2---|-----0-------0---------------0---|
D|-----2-------2-------0-------0---|-----2-------2---0-------0-------|-----0-------0-----------0-------|
A|-0-------0---------------2-------|-0-------0-----------------------|---------2-----------2-----------|
E|-----------------3---------------|---------------------------------|-3---------------3---------------|


E|-------2-----|-------2-----|-2----------------2-----|-----------------2----2---2---|
B|-3-----3-----|-2-----3-----|-3----------3-----3-----|-2---2---2-------3----3---3---|
G|-0-----2-----|-2-----2-----|-2----2--2-----2--2-----|-2---2---2-------2----2---2---|
D|-0-----0-----|-2-----0-----|-0----0-----------0-----|-2---2-------2---0----0---0---|
A|-2-----------|-0-----------|------------------------|-0---0------------------------|
E|-------------|-------------|------------------------|------------------------------|


E|-2---------------2---2----2---2---|-2-----------|
B|-3------3-----3--3---3----3---3---|-3-----------|
G|-2---2-----2-----2---2----2---2---|-2-----------|
D|-0---------------0---0----0---0---|-0-----------|
A|----------------------------------|-------------|
E|----------------------------------|-------------|





Track 2: Steel guitar

E|--------|--------|--------|--------|--------|--------|--------|--------|--------|
B|--------|--------|--------|--------|--------|--------|--------|--------|--------|
G|--------|--------|--------|--------|--------|--------|--------|--------|--------|
D|--------|--------|--------|--------|--------|--------|--------|--------|--------|
A|--------|--------|--------|--------|--------|--------|--------|--------|--------|
E|--------|--------|--------|--------|--------|--------|--------|--------|--------|


E|--------|-------------|-------------------------|--------|--------|--------|--------|
B|--------|-------------|--------------10---------|--------|--------|--------|--------|
G|--------|-------------|-----------7--7----------|--------|--------|--------|--------|
D|--------|-------------|-----7--7----------------|--------|--------|--------|--------|
A|--------|-------------|-------------------------|--------|--------|--------|--------|
E|--------|-------------|-------------------------|--------|--------|--------|--------|


E|--------|-------------------------|--------------------|---------------5------|-5--------------------|
B|--------|-------10-12---10-12--12-|-----12--12---------|------------5------7--|----5-----------------|
G|--------|-------------------------|-14-----------------|----------------------|-------7---7----------|
D|--------|-------------------------|-----12--12---------|----------------------|----------------------|
A|--------|-------------------------|--------------------|----------------------|----------------------|
E|--------|-------------------------|--------------------|----------------------|----------------------|


E|-----------14----12-10-------|-------------|--------|--------|--------|--------|
B|-----------------------10-8--|-7-----------|--------|--------|--------|--------|
G|--------------14-------------|-7-----------|--------|--------|--------|--------|
D|-----------------------------|-------------|--------|--------|--------|--------|
A|-----------------------------|-------------|--------|--------|--------|--------|
E|-----------------------------|-------------|--------|--------|--------|--------|


E|--------|--------|-------------|-------------|-------------------------|-------------|
B|--------|--------|-------------|-------------|--------------------10---|-10----------|
G|--------|--------|-------------|-------------|-----------------7--7----|-7-----------|
D|--------|--------|-------------|-------------|-----------7--7----------|-------------|
A|--------|--------|-------------|-------------|-------------------------|-------------|
E|--------|--------|-------------|-------------|-------------------------|-------------|


E|-----------5-----5---------|--------|-------5----7----|-9----12---------|-------------|
B|--------------7------7--7--|--------|-------2----3----|-5----8----------|-------------|
G|---------------------------|--------|-----------------|-----------------|-------------|
D|---------------------------|--------|-----------------|-----------------|-------------|
A|---------------------------|--------|-----------------|-----------------|-------------|
E|---------------------------|--------|-----------------|-----------------|-------------|


E|--------------------------------|--------|---------5------5--------------|--------|
B|-10-12---10-12--12-----12--12---|--------|------5------7-----5-----------|--------|
G|-------------------14-----------|--------|----------------------7---7----|--------|
D|-----------------------12--12---|--------|-------------------------------|--------|
A|--------------------------------|--------|-------------------------------|--------|
E|--------------------------------|--------|-------------------------------|--------|


E|-----14-14-12-10-------------10-------|------7---9---9--11---11------|--------|--------|
B|-----------------10-8--7--8--7----7---|-7------------------------12--|--------|--------|
G|----------------------------------7---|-8----8---9---9--11---11------|--------|--------|
D|--------------------------------------|------------------------------|--------|--------|
A|--------------------------------------|------------------------------|--------|--------|
E|--------------------------------------|------------------------------|--------|--------|


E|--------|--------|--------|--------|--------|--------|--------|--------------------7----|
B|--------|--------|--------|--------|--------|--------|--------|-----------------9--9----|
G|--------|--------|--------|--------|--------|--------|--------|-----------9-------------|
D|--------|--------|--------|--------|--------|--------|--------|--------------9----------|
A|--------|--------|--------|--------|--------|--------|--------|-------------------------|
E|--------|--------|--------|--------|--------|--------|--------|-------------------------|


E|-7-----------|-------4--4------------------|--------|-------7----9----|-11---14---------|
B|-9-----------|-------5-----7--5--7--9--7---|--------|-------4----5----|-7----10---------|
G|-------------|-----------------------------|--------|-----------------|-----------------|
D|-------------|-----------------------------|--------|-----------------|-----------------|
A|-------------|-----------------------------|--------|-----------------|-----------------|
E|-------------|-----------------------------|--------|-----------------|-----------------|


E|-------------------------|--------------------|-------------|---------------------------|
B|-------12-14---12-14--14-|-12-14---14---------|-------------|-----------7--9------7--9--|
G|-------------------------|--------------------|-------------|-----------------9---------|
D|-------------------------|--------------------|-------------|---------------------------|
A|-------------------------|--------------------|-------------|---------------------------|
E|-------------------------|--------------------|-------------|---------------------------|


E|-----------------------|---------------------------|-----------7---------------12----------------|
B|-9----7--5---5---------|-------4--5------7--5---7--|-7--9---------9---------9--------------7--9--|
G|-----------------------|-------------4-------------|-----------9-----11--11-------13-11-9--9-----|
D|-----------------------|---------------------------|-------9---------11--------------------9-----|
A|-----------------------|---------------------------|---------------------------------------------|
E|-----------------------|---------------------------|---------------------------------------------|


E|-------------|
B|-9-----------|
G|-9-----------|
D|-9-----------|
A|-------------|
E|-------------|





Track 3: Untitled

E|--------|--------|--------|--------|--------|--------|--------|--------|--------|
B|--------|--------|--------|--------|--------|--------|--------|--------|--------|
G|--------|--------|--------|--------|--------|--------|--------|--------|--------|
D|--------|--------|--------|--------|--------|--------|--------|--------|--------|
A|--------|--------|--------|--------|--------|--------|--------|--------|--------|
E|--------|--------|--------|--------|--------|--------|--------|--------|--------|


E|--------|-------------|--------|--------|--------|--------|--------|-------------|
B|--------|-------------|--------|--------|--------|--------|--------|-3-----2-----|
G|--------|-------------|--------|--------|--------|--------|--------|-4-----0-----|
D|--------|-------------|--------|--------|--------|--------|--------|-5-----2-----|
A|--------|-------------|--------|--------|--------|--------|--------|-5-----0-----|
E|--------|-------------|--------|--------|--------|--------|--------|-------------|


E|-----------------|-----------------------|-----------------------|-----------------------|
B|-3----3----3-----|---------------3-------|-----------------3-----|---------------3-------|
G|-2----2----0-----|-----------2-------2---|---------2-------2-----|-----------2-------2---|
D|-0----0----0-----|-------4---------------|-----2-------2---0-----|-------4---------------|
A|-----------------|-----------------------|-4---------------------|-----------------------|
E|------2----3-----|-----------------------|-----------------------|-----------------------|


E|-----------------------|-------------|--------|--------|--------|--------|--------|
B|-----------------3-----|-------------|--------|--------|--------|--------|--------|
G|---------2-------2-----|-------------|--------|--------|--------|--------|--------|
D|-----2-------2---0-----|-------------|--------|--------|--------|--------|--------|
A|-4---------------------|-------------|--------|--------|--------|--------|--------|
E|-----------------------|-------------|--------|--------|--------|--------|--------|


E|--------|--------|--------|--------|-------------|-------------|-------------|-2---------------|
B|--------|--------|--------|--------|-7-----------|-3-----3-----|-3-----------|-3-----2----3----|
G|--------|--------|--------|--------|-7-----------|-4-----2-----|-2-----------|-2-----2----4----|
D|--------|--------|--------|--------|-7-----------|-5-----4-----|-4-----------|-----------------|
A|--------|--------|--------|--------|-5-----------|-5-----5-----|-5-----------|-----------------|
E|--------|--------|--------|--------|-------------|-------------|-------------|-----------------|


E|-----------------|-----------------|-------------|---------------------------------|
B|-5----8----3-----|-2-----3----3----|-3-----------|---------3-----------------------|
G|-6----9----4-----|-0-----2----2----|-0-----------|-----2-------2-----------2-------|
D|-----------5-----|-2-----0----0----|-0-----------|-4-------------------2-------2---|
A|-----------5-----|-0---------------|-------------|-----------------4---------------|
E|-----------------|------------2----|-3-----------|---------------------------------|


E|-------------|---------------------------------|-------------|-------------|--------|
B|-3-----------|---------3-----------------------|-3-----------|-0-----------|--------|
G|-2-----------|-----2-------2-----------2-------|-2-----------|-2-----------|--------|
D|-0-----------|-4-------------------2-------2---|-0-----------|-1-----------|--------|
A|-------------|-----------------4---------------|-------------|-2-----------|--------|
E|-------------|---------------------------------|-------------|-------------|--------|


E|--------|--------|--------|--------|--------|--------|--------|--------|--------|
B|--------|--------|--------|--------|--------|--------|--------|--------|--------|
G|--------|--------|--------|--------|--------|--------|--------|--------|--------|
D|--------|--------|--------|--------|--------|--------|--------|--------|--------|
A|--------|--------|--------|--------|--------|--------|--------|--------|--------|
E|--------|--------|--------|--------|--------|--------|--------|--------|--------|


E|-0-----------|-------------|-------------|-4---------------|-----------------|-----------------|
B|-0-----------|-2-----0-----|-0-----------|-5-----4----5----|-7----10---5-----|-4---------------|
G|-1-----------|-2-----1-----|-1-----------|-4-----4----6----|-8----11---6-----|-4-----1----1----|
D|-2-----------|-2-----2-----|-2-----------|-----------------|-----------7-----|-4-----2----2----|
A|-2-----------|-4-----2-----|-2-----------|-----------------|-----------7-----|-2-----2----2----|
E|-0-----------|-------------|-------------|-----------------|-----------------|-------0----4----|


E|-------------|--------|--------|--------|--------|--------|--------|
B|-------------|--------|--------|--------|--------|--------|--------|
G|-2-----------|--------|--------|--------|--------|--------|--------|
D|-2-----------|--------|--------|--------|--------|--------|--------|
A|-4-----------|--------|--------|--------|--------|--------|--------|
E|-5-----------|--------|--------|--------|--------|--------|--------|





Track 4: Rhythm (strummed)

E|--------|--------|--------|--------|--------|--------|--------|--------|--------|
B|--------|--------|--------|--------|--------|--------|--------|--------|--------|
G|--------|--------|--------|--------|--------|--------|--------|--------|--------|
D|--------|--------|--------|--------|--------|--------|--------|--------|--------|
A|--------|--------|--------|--------|--------|--------|--------|--------|--------|
E|--------|--------|--------|--------|--------|--------|--------|--------|--------|


E|--------|--------|-------------|-------------|-----5-----5---------------|-------------|
B|--------|--------|-------10----|-------------|--------7------7--7--------|-------------|
G|--------|--------|-------7-----|-------------|---------------------------|-------------|
D|--------|--------|-------------|-------------|---------------------------|-------------|
A|--------|--------|-------------|-------------|---------------------------|-------------|
E|--------|--------|-------------|-------------|---------------------------|-------------|


E|-5----7----9----12---|--------|--------|--------|--------|--------|--------|--------|
B|-2----3----5----8----|--------|--------|--------|--------|--------|--------|--------|
G|---------------------|--------|--------|--------|--------|--------|--------|--------|
D|---------------------|--------|--------|--------|--------|--------|--------|--------|
A|---------------------|--------|--------|--------|--------|--------|--------|--------|
E|---------------------|--------|--------|--------|--------|--------|--------|--------|


E|--------|--------|--------|--------|--------|--------|--------|--------|--------|
B|--------|--------|--------|--------|--------|--------|--------|--------|--------|
G|--------|--------|--------|--------|--------|--------|--------|--------|--------|
D|--------|--------|--------|--------|--------|--------|--------|--------|--------|
A|--------|--------|--------|--------|--------|--------|--------|--------|--------|
E|--------|--------|--------|--------|--------|--------|--------|--------|--------|


E|--------|--------|--------|--------|--------|--------|--------|--------|--------|
B|--------|--------|--------|--------|--------|--------|--------|--------|--------|
G|--------|--------|--------|--------|--------|--------|--------|--------|--------|
D|--------|--------|--------|--------|--------|--------|--------|--------|--------|
A|--------|--------|--------|--------|--------|--------|--------|--------|--------|
E|--------|--------|--------|--------|--------|--------|--------|--------|--------|


E|--------|--------|--------|--------|--------|--------|--------|--------|--------|
B|--------|--------|--------|--------|--------|--------|--------|--------|--------|
G|--------|--------|--------|--------|--------|--------|--------|--------|--------|
D|--------|--------|--------|--------|--------|--------|--------|--------|--------|
A|--------|--------|--------|--------|--------|--------|--------|--------|--------|
E|--------|--------|--------|--------|--------|--------|--------|--------|--------|


E|--------|--------|--------|--------|--------|--------|--------|--------|--------|
B|--------|--------|--------|--------|--------|--------|--------|--------|--------|
G|--------|--------|--------|--------|--------|--------|--------|--------|--------|
D|--------|--------|--------|--------|--------|--------|--------|--------|--------|
A|--------|--------|--------|--------|--------|--------|--------|--------|--------|
E|--------|--------|--------|--------|--------|--------|--------|--------|--------|


E|--------|--------|--------|--------|--------|--------|--------|--------|
B|--------|--------|--------|--------|--------|--------|--------|--------|
G|--------|--------|--------|--------|--------|--------|--------|--------|
D|--------|--------|--------|--------|--------|--------|--------|--------|
A|--------|--------|--------|--------|--------|--------|--------|--------|
E|--------|--------|--------|--------|--------|--------|--------|--------|





Track 5: Rhythm (strummed)

E|--------|--------|--------|--------|--------|--------|--------|--------|--------|
B|--------|--------|--------|--------|--------|--------|--------|--------|--------|
G|--------|--------|--------|--------|--------|--------|--------|--------|--------|
D|--------|--------|--------|--------|--------|--------|--------|--------|--------|
A|--------|--------|--------|--------|--------|--------|--------|--------|--------|
E|--------|--------|--------|--------|--------|--------|--------|--------|--------|


E|--------|--------|-------------|-------------|-------------|-------2-----|---------------------|
B|--------|--------|-------7-----|-------3-----|-3-----3-----|-------3-----|-2----3----5----8----|
G|--------|--------|-------7-----|-------4-----|-2-----2-----|-------2-----|-2----4----6----9----|
D|--------|--------|-------7-----|-------5-----|-4-----4-----|-------------|---------------------|
A|--------|--------|-------5-----|-------5-----|-5-----5-----|-------------|---------------------|
E|--------|--------|-------------|-------------|-------------|-------------|---------------------|


E|--------|--------|--------|--------|--------|--------|--------|--------|--------|
B|--------|--------|--------|--------|--------|--------|--------|--------|--------|
G|--------|--------|--------|--------|--------|--------|--------|--------|--------|
D|--------|--------|--------|--------|--------|--------|--------|--------|--------|
A|--------|--------|--------|--------|--------|--------|--------|--------|--------|
E|--------|--------|--------|--------|--------|--------|--------|--------|--------|


E|--------|--------|--------|--------|--------|--------|--------|--------|--------|
B|--------|--------|--------|--------|--------|--------|--------|--------|--------|
G|--------|--------|--------|--------|--------|--------|--------|--------|--------|
D|--------|--------|--------|--------|--------|--------|--------|--------|--------|
A|--------|--------|--------|--------|--------|--------|--------|--------|--------|
E|--------|--------|--------|--------|--------|--------|--------|--------|--------|


E|--------|--------|--------|--------|--------|--------|--------|--------|--------|
B|--------|--------|--------|--------|--------|--------|--------|--------|--------|
G|--------|--------|--------|--------|--------|--------|--------|--------|--------|
D|--------|--------|--------|--------|--------|--------|--------|--------|--------|
A|--------|--------|--------|--------|--------|--------|--------|--------|--------|
E|--------|--------|--------|--------|--------|--------|--------|--------|--------|


E|--------|--------|--------|--------|--------|--------|--------|--------|--------|
B|--------|--------|--------|--------|--------|--------|--------|--------|--------|
G|--------|--------|--------|--------|--------|--------|--------|--------|--------|
D|--------|--------|--------|--------|--------|--------|--------|--------|--------|
A|--------|--------|--------|--------|--------|--------|--------|--------|--------|
E|--------|--------|--------|--------|--------|--------|--------|--------|--------|


E|--------|--------|--------|--------|--------|--------|--------|--------|--------|
B|--------|--------|--------|--------|--------|--------|--------|--------|--------|
G|--------|--------|--------|--------|--------|--------|--------|--------|--------|
D|--------|--------|--------|--------|--------|--------|--------|--------|--------|
A|--------|--------|--------|--------|--------|--------|--------|--------|--------|
E|--------|--------|--------|--------|--------|--------|--------|--------|--------|


E|--------|--------|--------|--------|--------|--------|
B|--------|--------|--------|--------|--------|--------|
G|--------|--------|--------|--------|--------|--------|
D|--------|--------|--------|--------|--------|--------|
A|--------|--------|--------|--------|--------|--------|
E|--------|--------|--------|--------|--------|--------|





Track 6: Rhythm (strummed)

E|--------|--------|--------|--------|--------|--------|--------|--------|--------|
B|--------|--------|--------|--------|--------|--------|--------|--------|--------|
G|--------|--------|--------|--------|--------|--------|--------|--------|--------|
D|--------|--------|--------|--------|--------|--------|--------|--------|--------|
A|--------|--------|--------|--------|--------|--------|--------|--------|--------|
E|--------|--------|--------|--------|--------|--------|--------|--------|--------|


E|--------|--------|--------|--------|--------|--------|--------|--------|--------|
B|--------|--------|--------|--------|--------|--------|--------|--------|--------|
G|--------|--------|--------|--------|--------|--------|--------|--------|--------|
D|--------|--------|--------|--------|--------|--------|--------|--------|--------|
A|--------|--------|--------|--------|--------|--------|--------|--------|--------|
E|--------|--------|--------|--------|--------|--------|--------|--------|--------|


E|--------|--------|--------|--------|--------|--------|--------|--------|--------|
B|--------|--------|--------|--------|--------|--------|--------|--------|--------|
G|--------|--------|--------|--------|--------|--------|--------|--------|--------|
D|--------|--------|--------|--------|--------|--------|--------|--------|--------|
A|--------|--------|--------|--------|--------|--------|--------|--------|--------|
E|--------|--------|--------|--------|--------|--------|--------|--------|--------|


E|--------|--------|--------|--------|--------|--------|--------|--------|--------|
B|--------|--------|--------|--------|--------|--------|--------|--------|--------|
G|--------|--------|--------|--------|--------|--------|--------|--------|--------|
D|--------|--------|--------|--------|--------|--------|--------|--------|--------|
A|--------|--------|--------|--------|--------|--------|--------|--------|--------|
E|--------|--------|--------|--------|--------|--------|--------|--------|--------|


E|--------|--------|--------|--------|--------|--------|--------|--------|--------|
B|--------|--------|--------|--------|--------|--------|--------|--------|--------|
G|--------|--------|--------|--------|--------|--------|--------|--------|--------|
D|--------|--------|--------|--------|--------|--------|--------|--------|--------|
A|--------|--------|--------|--------|--------|--------|--------|--------|--------|
E|--------|--------|--------|--------|--------|--------|--------|--------|--------|


E|--------|--------|--------|--------|--------|--------|--------|--------|--------|
B|--------|--------|--------|--------|--------|--------|--------|--------|--------|
G|--------|--------|--------|--------|--------|--------|--------|--------|--------|
D|--------|--------|--------|--------|--------|--------|--------|--------|--------|
A|--------|--------|--------|--------|--------|--------|--------|--------|--------|
E|--------|--------|--------|--------|--------|--------|--------|--------|--------|


E|--------|--------|--------|--------|--------|--------|--------|-------------|-------------|
B|--------|--------|--------|--------|--------|--------|--------|-------------|-------0-----|
G|--------|--------|--------|--------|--------|--------|--------|-------1-----|-4-----1-----|
D|--------|--------|--------|--------|--------|--------|--------|-------2-----|-4-----2-----|
A|--------|--------|--------|--------|--------|--------|--------|-------2-----|-2-----2-----|
E|--------|--------|--------|--------|--------|--------|--------|-------------|-------------|


E|-------------|-------0-----|-------------|--------|
B|-------0-----|-4-----0-----|-------------|--------|
G|-------1-----|-4-----1-----|-------------|--------|
D|-------2-----|-4-----2-----|-------------|--------|
A|-------2-----|-2-----2-----|-------------|--------|
E|-------------|-------0-----|-------------|--------|





Track 7: Untitled

G|--------|-------------|---------------------|---------------------|---------------------|
D|--------|-------------|---------------------|---------------------|---------------------|
A|-5------|-5-----------|-5---------5---------|-----------5---------|-5---------5---------|
E|--------|--------5----|------5---------5----|-3----3---------5----|------5---------5----|


G|------------------------|---------------------|---------------------|---------------------|
D|------------------------|---------------------|----------------4----|-5---------5---------|
A|-5----4---2--------7----|---------------------|-----------5---------|------5--------------|
E|--------------5---------|-5----5----3----3----|-5----5--------------|----------------3----|


G|------------------------|---------------------|------------------------|---------------------|
D|------------------------|---------------------|------------------------|---------------------|
A|-5---------5----4---2---|-0----0----5---------|-5--------4---5---------|-5----5--------------|
E|------5-----------------|----------------5----|------5------------5----|-----------3----3----|


G|---------------------|---------------------|---------------------|---------------------|
D|---------------------|---------------------|-----------7---------|---------------------|
A|-5---------5---------|-5---------5----5----|------5--------------|---------------------|
E|------5---------5----|------5--------------|-5--------------5----|-3----3----5----5----|


G|-----------0---------|-0----0--------------|---------------------|---------------------------|
D|------4---------0----|-----------0----0----|---------------------|---------------------------|
A|-5-------------------|---------------------|-0----0----5---------|-5---------------5----5----|
E|---------------------|---------------------|----------------5----|-----5---7---9-------------|


G|---------------------|-----------------|---------------------|---------------------|
D|-7-------------------|-----------------|---------------------|---------------------|
A|-----------5---------|-5-----5---------|-5-------------------|-5---------5---------|
E|------5---------5----|------------5----|------5----3----3----|------5---------5----|


G|------------------------|---------------------|---------------------|---------------------|
D|------------------------|---------------------|---------------------|------4----5---------|
A|-5---------5----4---2---|------7--------------|---------------------|-5--------------5----|
E|------5-----------------|-5---------5----5----|-3----3----5----5----|---------------------|


G|---------------------|------------------------|------------------------|---------------------|
D|-5-------------------|------------------------|------------------------|---------------------|
A|-----------5---------|-5----4---2---0----0----|-5---------5--------4---|-5---------5----5----|
E|------3---------5----|------------------------|------5---------5-------|------5--------------|


G|---------------------|---------------------|---------------------|---------------------|
D|---------------------|---------------------|---------------------|-7-------------------|
A|-----------5---------|-5---------5---------|-5----5---------5----|---------------------|
E|-3----3---------5----|------5---------5----|-----------5---------|------5----3----3----|


G|---------------------|-0---------0----0----|---------------------|---------------------------|
D|----------------4----|------0--------------|-0----0--------------|---------------------------|
A|-----------5---------|---------------------|-----------0----0----|-5---------5---------------|
E|-5----5--------------|---------------------|---------------------|------5--------5---7---9---|


G|---------------------|---------------------|-----------------|--------|-------------|
D|-----------7---------|---------------------|-----------------|--------|-------------|
A|-5----5--------------|-5---------5---------|-----------2-----|--------|-0-----------|
E|----------------5----|------5---------5----|-7----2----------|-0------|-------0-----|


G|-------------|-------------|-----------------------|---------------------|---------------------|
D|-------------|-------------|-----------------------|---------------------|---------------------|
A|-------------|-------------|-2-----2---2---2---2---|-0----0----2----2----|---------------------|
E|-------0-----|-------0-----|-----------------------|---------------------|-0----4----5----0----|


G|---------------------|---------------------|---------------------------|---------------------|
D|---------------------|---------------------|-2---------2-----------2---|-2---------2---------|
A|----------------2----|-----------2----2----|------2--------2---4-------|------2--------------|
E|-5----5----0---------|-0----0--------------|---------------------------|----------------0----|


G|---------------------|---------------------|------------------------|------------------------|
D|---------------------|-2---------2---------|------------------------|------------------------|
A|-0----0---------2----|------2---------2----|--------------2---------|-2--------2---0----0----|
E|-----------0---------|---------------------|-0----4---5--------2----|------2-----------------|


G|---------------------|-----------------|-----------------|---------------------|
D|---------------------|-----------------|-----------------|---------------------|
A|-2----2--------------|-----------------|-------7----7----|-----------7---------|
E|-----------0----4----|-5----0----5-----|-----------------|-7----7---------7----|


G|---------------------------|---------------------|-----------------------|-------------|
D|---------------------------|---------------------|-----------------------|-2-----------|
A|-------------7---7----7----|-----------7---------|-7---------------------|-------------|
E|-0---5---7-----------------|-7----7---------7----|-----9---7---9---0-----|-------------|