Site menu:

    

Browse: 0-9 A B C D E F G H I J K L N O P Q R S T U V W X Y Z

garth brooks - friends in low places:



Title: Friends In Low Places
Artist: 
Album: No Fences
Author: 


Track 1: Guitar 1

E|-----------------------|-----------------------|-------------------------5----|-------------2---4-----|
B|-------------2---2-----|-------------5---5-----|-------------3---3------------|---------5-------------|
G|---------2-------------|---------6-------------|---------2-----------2--------|-----4-----------------|
D|-----2-----------------|-----5-----------------|-----4------------------------|-2---------------------|
A|-0---------------------|-----------------------|-2----------------------------|-----------------------|
E|-----------------------|-6---------------------|------------------------------|-----------------------|


E|---------------------5-----------|---------------------6--------|---------------------5--------|
B|-------------2---2-------2-------|-------------5---5------------|-------------3---3------------|
G|---------2-------------------2---|---------6--------------------|---------4--------------------|
D|-----2---------------------------|-----5-------------------5----|-----4-------------------4----|
A|-0-------------------------------|------------------------------|-2----------------------------|
E|---------------------------------|-6----------------------------|------------------------------|


E|-------------5-------------------|-------------4---4-------2-------|-------------4---4---------------|
B|-----2---3-------3---------------|---------5-----------5-------5---|---------5---------------5-------|
G|---------------------4-----------|-----4---------------------------|-----4---------------4-----------|
D|-------------------------4---0---|-2-------------------------------|-2---------------------------2---|
A|-2-------------------------------|---------------------------------|---------------------------------|
E|---------------------------------|---------------------------------|---------------------------------|


E|---------------------5-----------|-----------------5------------|---------------------5-----------|
B|-------------2-------------------|-------------2-------2---3----|-------------2---2---------------|
G|---------2-------------------2---|---------2--------------------|---------2-------------------2---|
D|-----2-------------------2-------|-----2-------------------4----|-----2-------------------2-------|
A|-0---------------0---------------|-0----------------------------|-0-------------------------------|
E|---------------------------------|------------------------------|---------------------------------|


E|---------------------6-----------|---------------------2-----------|---------1-------0---------------|
B|-------------5---5---------------|-------------3---3---------------|-------------------------3-------|
G|---------6-------------------6---|---------4-------------------4---|-----2-------2---------------2---|
D|-----5-------------------5-------|-----4-------------------4-------|-0-------------------0-----------|
A|---------------------------------|-2-------------------------------|---------------------------------|
E|-6-------------------------------|---------------------------------|---------------------------------|


E|---------------------------------|---------------------------------|---------------------------------|
B|-------------9---9-----------9---|-------------9---------------9---|-------------9---------------9---|
G|---------9---------------9-------|---------9---------------9-------|---------9---------------9-------|
D|-----9---------------9-----------|-----9---------------9-----------|-----9---------------9-----------|
A|-7-------------------------------|-7---------------7---------------|-7---------------7---------------|
E|---------------------------------|---------------------------------|---------------------------------|


E|--------|--------|--------|--------|--------|--------|--------|--------|--------|
B|--------|--------|--------|--------|--------|--------|--------|--------|--------|
G|--------|--------|--------|--------|--------|--------|--------|--------|--------|
D|--------|--------|--------|--------|--------|--------|--------|--------|--------|
A|--------|--------|--------|--------|--------|--------|--------|--------|--------|
E|--------|--------|--------|--------|--------|--------|--------|--------|--------|


E|--------|--------|--------|--------|--------|--------|--------|--------|--------|
B|--------|--------|--------|--------|--------|--------|--------|--------|--------|
G|--------|--------|--------|--------|--------|--------|--------|--------|--------|
D|--------|--------|--------|--------|--------|--------|--------|--------|--------|
A|--------|--------|--------|--------|--------|--------|--------|--------|--------|
E|--------|--------|--------|--------|--------|--------|--------|--------|--------|


E|--------|--------|--------|--------|--------|--------|--------|--------|--------|
B|--------|--------|--------|--------|--------|--------|--------|--------|--------|
G|--------|--------|--------|--------|--------|--------|--------|--------|--------|
D|--------|--------|--------|--------|--------|--------|--------|--------|--------|
A|--------|--------|--------|--------|--------|--------|--------|--------|--------|
E|--------|--------|--------|--------|--------|--------|--------|--------|--------|


E|--------|--------|--------|--------|--------|--------|--------|--------|--------|
B|--------|--------|--------|--------|--------|--------|--------|--------|--------|
G|--------|--------|--------|--------|--------|--------|--------|--------|--------|
D|--------|--------|--------|--------|--------|--------|--------|--------|--------|
A|--------|--------|--------|--------|--------|--------|--------|--------|--------|
E|--------|--------|--------|--------|--------|--------|--------|--------|--------|


E|--------|--------|--------|--------|--------|--------|--------|--------|--------|
B|--------|--------|--------|--------|--------|--------|--------|--------|--------|
G|--------|--------|--------|--------|--------|--------|--------|--------|--------|
D|--------|--------|--------|--------|--------|--------|--------|--------|--------|
A|--------|--------|--------|--------|--------|--------|--------|--------|--------|
E|--------|--------|--------|--------|--------|--------|--------|--------|--------|


E|--------|--------|--------|--------|--------|--------|--------|--------|--------|
B|--------|--------|--------|--------|--------|--------|--------|--------|--------|
G|--------|--------|--------|--------|--------|--------|--------|--------|--------|
D|--------|--------|--------|--------|--------|--------|--------|--------|--------|
A|--------|--------|--------|--------|--------|--------|--------|--------|--------|
E|--------|--------|--------|--------|--------|--------|--------|--------|--------|


E|--------|--------|--------|--------|--------|--------|--------|--------|--------|
B|--------|--------|--------|--------|--------|--------|--------|--------|--------|
G|--------|--------|--------|--------|--------|--------|--------|--------|--------|
D|--------|--------|--------|--------|--------|--------|--------|--------|--------|
A|--------|--------|--------|--------|--------|--------|--------|--------|--------|
E|--------|--------|--------|--------|--------|--------|--------|--------|--------|


E|--------|--------|-------------1---1------------|-------------4-----------2-------|
B|--------|--------|---------3---------------3----|---------5-------------------5---|
G|--------|--------|-----2---------------2--------|-----4---------------4-----------|
D|--------|--------|-0----------------------------|-2---------------2---------------|
A|--------|--------|------------------------------|---------------------------------|
E|--------|--------|------------------------------|---------------------------------|


E|--------|--------|--------|--------|--------|--------|--------|--------|--------|
B|--------|--------|--------|--------|--------|--------|--------|--------|--------|
G|--------|--------|--------|--------|--------|--------|--------|--------|--------|
D|--------|--------|--------|--------|--------|--------|--------|--------|--------|
A|--------|--------|--------|--------|--------|--------|--------|--------|--------|
E|--------|--------|--------|--------|--------|--------|--------|--------|--------|


E|--------|--------|--------|--------|--------|--------|--------|--------|--------|
B|--------|--------|--------|--------|--------|--------|--------|--------|--------|
G|--------|--------|--------|--------|--------|--------|--------|--------|--------|
D|--------|--------|--------|--------|--------|--------|--------|--------|--------|
A|--------|--------|--------|--------|--------|--------|--------|--------|--------|
E|--------|--------|--------|--------|--------|--------|--------|--------|--------|


E|--------|--------|--------|--------|--------|--------|--------|--------|--------|
B|--------|--------|--------|--------|--------|--------|--------|--------|--------|
G|--------|--------|--------|--------|--------|--------|--------|--------|--------|
D|--------|--------|--------|--------|--------|--------|--------|--------|--------|
A|--------|--------|--------|--------|--------|--------|--------|--------|--------|
E|--------|--------|--------|--------|--------|--------|--------|--------|--------|


E|--------|--------|--------|--------|--------|--------|--------|--------|--------|
B|--------|--------|--------|--------|--------|--------|--------|--------|--------|
G|--------|--------|--------|--------|--------|--------|--------|--------|--------|
D|--------|--------|--------|--------|--------|--------|--------|--------|--------|
A|--------|--------|--------|--------|--------|--------|--------|--------|--------|
E|--------|--------|--------|--------|--------|--------|--------|--------|--------|


E|--------|--------|--------|--------|--------|--------|--------|--------|--------|
B|--------|--------|--------|--------|--------|--------|--------|--------|--------|
G|--------|--------|--------|--------|--------|--------|--------|--------|--------|
D|--------|--------|--------|--------|--------|--------|--------|--------|--------|
A|--------|--------|--------|--------|--------|--------|--------|--------|--------|
E|--------|--------|--------|--------|--------|--------|--------|--------|--------|


E|--------|--------|--------|--------|--------|--------|--------|--------|--------|
B|--------|--------|--------|--------|--------|--------|--------|--------|--------|
G|--------|--------|--------|--------|--------|--------|--------|--------|--------|
D|--------|--------|--------|--------|--------|--------|--------|--------|--------|
A|--------|--------|--------|--------|--------|--------|--------|--------|--------|
E|--------|--------|--------|--------|--------|--------|--------|--------|--------|


E|--------|--------|--------|--------|--------|
B|--------|--------|--------|--------|--------|
G|--------|--------|--------|--------|--------|
D|--------|--------|--------|--------|--------|
A|--------|--------|--------|--------|--------|
E|--------|--------|--------|--------|--------|





Track 2: Guitar 2

E|--------|--------|--------|--------|--------|--------|--------|--------|--------|
B|--------|--------|--------|--------|--------|--------|--------|--------|--------|
G|--------|--------|--------|--------|--------|--------|--------|--------|--------|
D|--------|--------|--------|--------|--------|--------|--------|--------|--------|
A|--------|--------|--------|--------|--------|--------|--------|--------|--------|
E|--------|--------|--------|--------|--------|--------|--------|--------|--------|


E|--------|--------|--------|--------|--------|--------|--------|--------|--------|
B|--------|--------|--------|--------|--------|--------|--------|--------|--------|
G|--------|--------|--------|--------|--------|--------|--------|--------|--------|
D|--------|--------|--------|--------|--------|--------|--------|--------|--------|
A|--------|--------|--------|--------|--------|--------|--------|--------|--------|
E|--------|--------|--------|--------|--------|--------|--------|--------|--------|


E|--------|------------------------------|---------------------------|---------------------------|
B|--------|------------------------------|---------------------------|---------------------------|
G|--------|------------------------------|------2----2---2---2---2---|------2----------------2---|
D|--------|------------------------------|------2----2---2---2---2---|------2--------2---4---2---|
A|--------|------------------------------|-0----0----0---0---0---0---|-0----0----4-----------0---|
E|--------|------0---0---2---2---4---4---|---------------------------|---------------------------|


E|---------------------------|---------------------------|---------------------------|
B|---------------------------|---------------------------|---------------------------|
G|------2----2---2---2---2---|------2--------2---2---2---|------4--------4-------4---|
D|------2----2---2---2---2---|------2--------2---2---2---|------4----2---4-------4---|
A|-0----0----0---0---0---0---|-0----0--------0---0---0---|-2----2----------------2---|
E|---------------------------|---------------------------|---------------------------|


E|-----------------|----------------|------------------------------|---------------------------|
B|-----------------|----------------|------------------------------|---------------------------|
G|-4-----4---4-----|----------------|------------------------------|------2----2---2---2---2---|
D|-4-----4---4-----|-2----------2---|-2----------------------------|------2----2---2---2---2---|
A|-2-----2---2-----|-2------4---2---|-2----------------------------|-0----0----0---0---0---0---|
E|-----------------|-0----------0---|-0----0---0---2---2---4---4---|---------------------------|


E|---------------------------|---------------------------|--------|---------------------------|
B|---------------------------|---------------------------|--------|---------------------------|
G|------2----------------2---|------2----2---2---2---2---|-2------|-4----4----4---4-----------|
D|------2--------2---4---2---|------2----2---2---2---2---|-2------|-4----4----4---4-----------|
A|-0----0----4-----------0---|-0----0----0---0---0---0---|-0------|-2----2----2---2-----------|
E|---------------------------|---------------------------|--------|-------------------2---2---|


E|--------|---------------------------|------------------------------|---------------------------|
B|--------|---------------------------|------------------------------|---------------------------|
G|--------|-2----2----2---2---2---2---|-2----------------------------|------2----2---2---2---2---|
D|-2------|-2----2----2---2---2---2---|-2----------------------------|------2----2---2---2---2---|
A|-2------|-0----0----0---0---0---0---|-0----------------------------|-0----0----0---0---0---0---|
E|-0------|---------------------------|------0---0---2---2---4---4---|---------------------------|


E|---------------------------|---------------------------|--------|---------------------------|
B|---------------------------|---------------------------|--------|---------------------------|
G|------2----------------2---|------2----2---2---2---2---|-2------|-4----4----4---4-----------|
D|------2--------2---4---2---|------2----2---2---2---2---|-2------|-4----4----4---4-----------|
A|-0----0----4-----------0---|-0----0----0---0---0---0---|-0------|-2----2----2---2-----------|
E|---------------------------|---------------------------|--------|-------------------2---2---|


E|--------|---------------------------|------------------------------|---------------------5-----------|
B|--------|---------------------------|------------------------------|-------------2---2-------2-------|
G|--------|-2----2----2---2---2---2---|-2----------------------------|---------2-------------------2---|
D|-2------|-2----2----2---2---2---2---|-2----------------------------|-----2---------------------------|
A|-2------|-0----0----0---0---0---0---|-0----------------------------|-0-------------------------------|
E|-0------|---------------------------|------0---0---2---2---4---4---|---------------------------------|


E|---------------------6--------|---------------------5--------|-------------5-------------------|
B|-------------5---5------------|-------------3---3------------|-----2---3-------3---------------|
G|---------6--------------------|---------4--------------------|---------------------4-----------|
D|-----5-------------------5----|-----4-------------------4----|-------------------------4---0---|
A|------------------------------|-2----------------------------|-2-------------------------------|
E|-6----------------------------|------------------------------|---------------------------------|


E|-------------4---4-------2-------|-------------4---4---------------|---------------------5-----------|
B|---------5-----------5-------5---|---------5---------------5-------|-------------2-------------------|
G|-----4---------------------------|-----4---------------4-----------|---------2-------------------2---|
D|-2-------------------------------|-2---------------------------2---|-----2-------------------2-------|
A|---------------------------------|---------------------------------|-0---------------0---------------|
E|---------------------------------|---------------------------------|---------------------------------|


E|-----------------5------------|---------------------5-----------|---------------------6-----------|
B|-------------2-------2---3----|-------------2---2---------------|-------------5---5---------------|
G|---------2--------------------|---------2-------------------2---|---------6-------------------6---|
D|-----2-------------------4----|-----2-------------------2-------|-----5-------------------5-------|
A|-0----------------------------|-0-------------------------------|---------------------------------|
E|------------------------------|---------------------------------|-6-------------------------------|


E|---------------------2-----------|---------1-------0---------------|---------------------------------|
B|-------------3---3---------------|-------------------------3-------|-------------9---9-----------9---|
G|---------4-------------------4---|-----2-------2---------------2---|---------9---------------9-------|
D|-----4-------------------4-------|-0-------------------0-----------|-----9---------------9-----------|
A|-2-------------------------------|---------------------------------|-7-------------------------------|
E|---------------------------------|---------------------------------|---------------------------------|


E|---------------------------------|---------------------------------|------------------------------|
B|-------------9---------------9---|-------------9---------------9---|------------------------------|
G|---------9---------------9-------|---------9---------------9-------|------------------------------|
D|-----9---------------9-----------|-----9---------------9-----------|------------------------------|
A|-7---------------7---------------|-7---------------7---------------|------------------------------|
E|---------------------------------|---------------------------------|------0---0---2---2---4---4---|


E|---------------------------|---------------------------|---------------------------|
B|---------------------------|---------------------------|---------------------------|
G|------2----2---2---2---2---|------2----------------2---|------2----2---2---2---2---|
D|------2----2---2---2---2---|------2--------2---4---2---|------2----2---2---2---2---|
A|-0----0----0---0---0---0---|-0----0----4-----------0---|-0----0----0---0---0---0---|
E|---------------------------|---------------------------|---------------------------|


E|---------------------------|---------------------------|-----------------|----------------|
B|---------------------------|---------------------------|-----------------|----------------|
G|------2--------2---2---2---|------4--------4-------4---|-4-----4---4-----|----------------|
D|------2--------2---2---2---|------4----2---4-------4---|-4-----4---4-----|-2----------2---|
A|-0----0--------0---0---0---|-2----2----------------2---|-2-----2---2-----|-2------4---2---|
E|---------------------------|---------------------------|-----------------|-0----------0---|


E|------------------------------|---------------------------|---------------------------|
B|------------------------------|---------------------------|---------------------------|
G|------------------------------|------2----2---2---2---2---|------2----------------2---|
D|-2----------------------------|------2----2---2---2---2---|------2--------2---4---2---|
A|-2----------------------------|-0----0----0---0---0---0---|-0----0----4-----------0---|
E|-0----0---0---2---2---4---4---|---------------------------|---------------------------|


E|---------------------------|--------|---------------------------|--------|---------------------------|
B|---------------------------|--------|---------------------------|--------|---------------------------|
G|------2----2---2---2---2---|-2------|-4----4----4---4-----------|--------|-2----2----2---2---2---2---|
D|------2----2---2---2---2---|-2------|-4----4----4---4-----------|-2------|-2----2----2---2---2---2---|
A|-0----0----0---0---0---0---|-0------|-2----2----2---2-----------|-2------|-0----0----0---0---0---0---|
E|---------------------------|--------|-------------------2---2---|-0------|---------------------------|


E|------------------------------|---------------------------|---------------------------|
B|------------------------------|---------------------------|---------------------------|
G|-2----------------------------|------2----2---2---2---2---|------2----------------2---|
D|-2----------------------------|------2----2---2---2---2---|------2--------2---4---2---|
A|-0----------------------------|-0----0----0---0---0---0---|-0----0----4-----------0---|
E|------0---0---2---2---4---4---|---------------------------|---------------------------|


E|---------------------------|--------|---------------------------|--------|---------------------------|
B|---------------------------|--------|---------------------------|--------|---------------------------|
G|------2----2---2---2---2---|-2------|-4----4----4---4-----------|--------|-2----2----2---2---2---2---|
D|------2----2---2---2---2---|-2------|-4----4----4---4-----------|-2------|-2----2----2---2---2---2---|
A|-0----0----0---0---0---0---|-0------|-2----2----2---2-----------|-2------|-0----0----0---0---0---0---|
E|---------------------------|--------|-------------------2---2---|-0------|---------------------------|


E|------------------------------|--------|--------|--------------------|----------------|
B|------------------------------|--------|--------|--------------------|----------------|
G|-2----------------------------|--------|--------|--------------------|----------------|
D|-2----------------------------|--------|--------|--------------------|-2------2---2---|
A|-0----------------------------|--------|--------|--------------------|-2------2---2---|
E|------0---0---2---2---4---4---|--------|--------|----------------3---|-0------0---0---|


E|---------------------------------|---------------------------|---------------------------|
B|---------------------------------|---------------------------|---------------------------|
G|---------------------------------|------2----2---2---2---2---|------2----------------2---|
D|-2---2---------------------------|------2----2---2---2---2---|------2--------2---4---2---|
A|-2---2---------------------------|-0----0----0---0---0---0---|-0----0----4-----------0---|
E|-0---0---0---0---2---2---4---4---|---------------------------|---------------------------|


E|---------------------------|---------------------------|---------------------------|
B|---------------------------|---------------------------|---------------------------|
G|------2----2---2---2---2---|------2--------2---2---2---|------4--------4-------4---|
D|------2----2---2---2---2---|------2--------2---2---2---|------4----2---4-------4---|
A|-0----0----0---0---0---0---|-0----0--------0---0---0---|-2----2----------------2---|
E|---------------------------|---------------------------|---------------------------|


E|-----------------|----------------|------------------------------|---------------------------|
B|-----------------|----------------|------------------------------|---------------------------|
G|-4-----4---4-----|----------------|------------------------------|------2----2---2---2---2---|
D|-4-----4---4-----|-2----------2---|-2----------------------------|------2----2---2---2---2---|
A|-2-----2---2-----|-2------4---2---|-2----------------------------|-0----0----0---0---0---0---|
E|-----------------|-0----------0---|-0----0---0---2---2---4---4---|---------------------------|


E|---------------------------|---------------------------|--------|---------------------------|
B|---------------------------|---------------------------|--------|---------------------------|
G|------2----------------2---|------2----2---2---2---2---|-2------|-4----4----4---4-----------|
D|------2--------2---4---2---|------2----2---2---2---2---|-2------|-4----4----4---4-----------|
A|-0----0----4-----------0---|-0----0----0---0---0---0---|-0------|-2----2----2---2-----------|
E|---------------------------|---------------------------|--------|-------------------2---2---|


E|--------|---------------------------|------------------------------|---------------------------|
B|--------|---------------------------|------------------------------|---------------------------|
G|--------|-2----2----2---2---2---2---|-2----------------------------|------2----2---2---2---2---|
D|-2------|-2----2----2---2---2---2---|-2----------------------------|------2----2---2---2---2---|
A|-2------|-0----0----0---0---0---0---|-0----------------------------|-0----0----0---0---0---0---|
E|-0------|---------------------------|------0---0---2---2---4---4---|---------------------------|


E|---------------------------|---------------------------|---------------------------|
B|---------------------------|---------------------------|---------------------------|
G|------2----------------2---|------2----2---2---2---2---|------2--------2---2---2---|
D|------2--------2---4---2---|------2----2---2---2---2---|------2--------2---2---2---|
A|-0----0----4-----------0---|-0----0----0---0---0---0---|-0----0--------0---0---0---|
E|---------------------------|---------------------------|---------------------------|


E|---------------------------|-----------------|----------------|------------------------------|
B|---------------------------|-----------------|----------------|------------------------------|
G|------4--------4-------4---|-4-----4---4-----|----------------|------------------------------|
D|------4----2---4-------4---|-4-----4---4-----|-2----------2---|-2----------------------------|
A|-2----2----------------2---|-2-----2---2-----|-2------4---2---|-2----------------------------|
E|---------------------------|-----------------|-0----------0---|-0----0---0---2---2---4---4---|


E|---------------------------|---------------------------|---------------------------|
B|---------------------------|---------------------------|---------------------------|
G|------2----2---2---2---2---|------2----------------2---|------2----2---2---2---2---|
D|------2----2---2---2---2---|------2--------2---4---2---|------2----2---2---2---2---|
A|-0----0----0---0---0---0---|-0----0----4-----------0---|-0----0----0---0---0---0---|
E|---------------------------|---------------------------|---------------------------|


E|---------------------------|---------------------------|--------|---------------------------|
B|---------------------------|---------------------------|--------|---------------------------|
G|-2----2----2---2---2---2---|-4----4----4---4-----------|--------|-2----2----2---2---2---2---|
D|-2----2----2---2---2---2---|-4----4----4---4-----------|-2------|-2----2----2---2---2---2---|
A|-0----0----0---0---0---0---|-2----2----2---2-----------|-2------|-0----0----0---0---0---0---|
E|---------------------------|-------------------2---2---|-0------|---------------------------|


E|------------------------------|---------------------------|---------------------------|
B|------------------------------|---------------------------|---------------------------|
G|-2----------------------------|------2----2---2---2---2---|------2----------------2---|
D|------------------------------|------2----2---2---2---2---|------2--------2---4---2---|
A|------------------------------|-0----0----0---0---0---0---|-0----0----4-----------0---|
E|------0---0---2---2---4---4---|---------------------------|---------------------------|


E|---------------------------|---------------------------|---------------------------|
B|---------------------------|---------------------------|---------------------------|
G|------2----2---2---2---2---|------2--------2---2---2---|------4--------4-------4---|
D|------2----2---2---2---2---|------2--------2---2---2---|------4----2---4-------4---|
A|-0----0----0---0---0---0---|-0----0--------0---0---0---|-2----2----------------2---|
E|---------------------------|---------------------------|---------------------------|


E|-----------------|----------------|------------------------------|---------------------------|
B|-----------------|----------------|------------------------------|---------------------------|
G|-4-----4---4-----|----------------|------------------------------|------2----2---2---2---2---|
D|-4-----4---4-----|-2----------2---|-2----------------------------|------2----2---2---2---2---|
A|-2-----2---2-----|-2------4---2---|-2----------------------------|-0----0----0---0---0---0---|
E|-----------------|-0----------0---|-0----0---0---2---2---4---4---|---------------------------|


E|---------------------------|---------------------------|--------|---------------------------|
B|---------------------------|---------------------------|--------|---------------------------|
G|------2----------------2---|------2----2---2---2---2---|-2------|-4----4----4---4-----------|
D|------2--------2---4---2---|------2----2---2---2---2---|-2------|-4----4----4---4-----------|
A|-0----0----4-----------0---|-0----0----0---0---0---0---|-0------|-2----2----2---2-----------|
E|---------------------------|---------------------------|--------|-------------------2---2---|


E|--------|---------------------------|------------------------------|--------|-----------------------|
B|--------|---------------------------|------------------------------|--------|-----------------------|
G|--------|-2----2----2---2---2---2---|-2----------------------------|--------|-------------------2---|
D|-2------|-2----2----2---2---2---2---|-2----------------------------|--------|-----------------------|
A|-2------|-0----0----0---0---0---0---|-0----------------------------|--------|-----------0---4-------|
E|-0------|---------------------------|------0---0---2---2---4---4---|--------|-----------------------|


E|-------------|-------------|--------|--------|-----------------------|-----------------------|
B|-------------|-------------|--------|--------|-----------5---5-------|-------5---5-------5---|
G|-2----2------|-2-----------|--------|--------|-------7-----------7---|---------------7-------|
D|-------------|-------------|--------|--------|-----------------------|-----------------------|
A|-------------|-------------|--------|--------|-----------------------|-----------------------|
E|-------------|-------------|--------|--------|-----------------------|-----------------------|





Track 3: Guitar 3

E|--------|--------|--------|--------|--------|--------|--------|--------|--------|
B|--------|--------|--------|--------|--------|--------|--------|--------|--------|
G|--------|--------|--------|--------|--------|--------|--------|--------|--------|
D|--------|--------|--------|--------|--------|--------|--------|--------|--------|
A|--------|--------|--------|--------|--------|--------|--------|--------|--------|
E|--------|--------|--------|--------|--------|--------|--------|--------|--------|


E|--------|--------|--------|--------|--------|--------|--------|--------|--------|
B|--------|--------|--------|--------|--------|--------|--------|--------|--------|
G|--------|--------|--------|--------|--------|--------|--------|--------|--------|
D|--------|--------|--------|--------|--------|--------|--------|--------|--------|
A|--------|--------|--------|--------|--------|--------|--------|--------|--------|
E|--------|--------|--------|--------|--------|--------|--------|--------|--------|


E|--------|--------|--------|--------|--------|--------|--------|--------|--------|
B|--------|--------|--------|--------|--------|--------|--------|--------|--------|
G|--------|--------|--------|--------|--------|--------|--------|--------|--------|
D|--------|--------|--------|--------|--------|--------|--------|--------|--------|
A|--------|--------|--------|--------|--------|--------|--------|--------|--------|
E|--------|--------|--------|--------|--------|--------|--------|--------|--------|


E|--------|--------|--------|--------|--------|--------|--------|--------------------|
B|--------|--------|--------|--------|--------|--------|--------|----------------5---|
G|--------|--------|--------|--------|--------|--------|--------|--------------------|
D|--------|--------|--------|--------|--------|--------|--------|--------------------|
A|--------|--------|--------|--------|--------|--------|--------|--------------------|
E|--------|--------|--------|--------|--------|--------|--------|--------------------|


E|---------------------------------|------------------------------|------------------------|
B|-5---5---5---5---5---5-----------|------------------------------|------------------------|
G|-------------------------2---4---|-4---4---4---2---2------------|------------------------|
D|---------------------------------|------------------------------|---------------2----2---|
A|---------------------------------|-------------------------12---|-0-----2---4------------|
E|---------------------------------|------------------------------|------------------------|


E|-----------------------------------|--------------------------------|----------------|
B|-5-------5-------5-----5---5---5---|-7-------5----------------------|----------------|
G|-4-------4-------4--4--2---4---2---|--------------4--4--2---4---4---|-4--------------|
D|-----------------------------------|--------------------------------|--------4---4---|
A|-----------------------------------|--------------------------------|----------------|
E|-----------------------------------|--------------------------------|----------------|


E|----------------|---------------------------|--------|--------|--------|--------|
B|----------------|---------------------------|--------|--------|--------|--------|
G|----------------|---------------------------|--------|--------|--------|--------|
D|-2--------------|---------------2-----------|--------|--------|--------|--------|
A|--------2---2---|-0-----0---4-------4---2---|-0------|--------|--------|--------|
E|----------------|---------------------------|--------|--------|--------|--------|


E|--------|--------|--------|--------|--------|--------|--------|--------|--------|
B|--------|--------|--------|--------|--------|--------|--------|--------|--------|
G|--------|--------|--------|--------|--------|--------|--------|--------|--------|
D|--------|--------|--------|--------|--------|--------|--------|--------|--------|
A|--------|--------|--------|--------|--------|--------|--------|--------|--------|
E|--------|--------|--------|--------|--------|--------|--------|--------|--------|


E|--------|--------|--------|--------|--------|--------|--------|--------|--------|
B|--------|--------|--------|--------|--------|--------|--------|--------|--------|
G|--------|--------|--------|--------|--------|--------|--------|--------|--------|
D|--------|--------|--------|--------|--------|--------|--------|--------|--------|
A|--------|--------|--------|--------|--------|--------|--------|--------|--------|
E|--------|--------|--------|--------|--------|--------|--------|--------|--------|


E|--------|--------|--------|--------|--------|--------|--------|--------|--------|
B|--------|--------|--------|--------|--------|--------|--------|--------|--------|
G|--------|--------|--------|--------|--------|--------|--------|--------|--------|
D|--------|--------|--------|--------|--------|--------|--------|--------|--------|
A|--------|--------|--------|--------|--------|--------|--------|--------|--------|
E|--------|--------|--------|--------|--------|--------|--------|--------|--------|


E|--------------------|---------------------------------|------------------------------|
B|----------------5---|-5---5---5---5---5---5-----------|------------------------------|
G|--------------------|-------------------------2---4---|-4---4---4---2---2------------|
D|--------------------|---------------------------------|------------------------------|
A|--------------------|---------------------------------|-------------------------12---|
E|--------------------|---------------------------------|------------------------------|


E|------------------------|-----------------------------------|--------------------------------|
B|------------------------|-5-------5-------5-----5---5---5---|-7-------5----------------------|
G|------------------------|-4-------4-------4--4--2---4---2---|--------------4--4--2---4---4---|
D|---------------2----2---|-----------------------------------|--------------------------------|
A|-0-----2---4------------|-----------------------------------|--------------------------------|
E|------------------------|-----------------------------------|--------------------------------|


E|----------------|----------------|---------------------------|--------|--------|
B|----------------|----------------|---------------------------|--------|--------|
G|-4--------------|----------------|---------------------------|--------|--------|
D|--------4---4---|-2--------------|---------------2-----------|--------|--------|
A|----------------|--------2---2---|-0-----0---4-------4---2---|-0------|--------|
E|----------------|----------------|---------------------------|--------|--------|


E|--------|--------|--------|--------|--------|--------|--------|--------|--------|
B|--------|--------|--------|--------|--------|--------|--------|--------|--------|
G|--------|--------|--------|--------|--------|--------|--------|--------|--------|
D|--------|--------|--------|--------|--------|--------|--------|--------|--------|
A|--------|--------|--------|--------|--------|--------|--------|--------|--------|
E|--------|--------|--------|--------|--------|--------|--------|--------|--------|


E|--------|--------|--------|--------|--------|--------|--------|--------|--------|
B|--------|--------|--------|--------|--------|--------|--------|--------|--------|
G|--------|--------|--------|--------|--------|--------|--------|--------|--------|
D|--------|--------|--------|--------|--------|--------|--------|--------|--------|
A|--------|--------|--------|--------|--------|--------|--------|--------|--------|
E|--------|--------|--------|--------|--------|--------|--------|--------|--------|


E|---------5---5-------5-------5---|-----5-------5---------------------|-------------|
B|---------5---5-------5-------5---|-----5-------5---------------------|-------------|
G|-----7-----------7-------7-------|-7-------7-------7---7--5--7---5---|-------------|
D|---------------------------------|-----------------------------------|-7-----7-----|
A|---------------------------------|-----------------------------------|-------------|
E|---------------------------------|-----------------------------------|-------------|


E|--------------------------------|--------|-------------|--------|--------|--------|
B|--------------------------------|--------|-------------|--------|--------|--------|
G|------4---4---4--4--2-------2---|-2------|-2-----------|--------|--------|--------|
D|------------------------4-------|--------|-------------|--------|--------|--------|
A|--------------------------------|--------|-------------|--------|--------|--------|
E|--------------------------------|--------|-------------|--------|--------|--------|


E|--------|--------|------------------------------|-------------|--------|--------|
B|--------|--------|----------5---5---5-----------|-------------|--------|--------|
G|--------|--------|----------4---4---2-------2---|-2-----2-----|--------|--------|
D|--------|--------|----------------------4-------|-------------|--------|--------|
A|--------|--------|------------------------------|-------------|--------|--------|
E|--------|--------|------------------------------|-------------|--------|--------|


E|--------|---------------------------------|---------------------------------------|
B|--------|-----2---2-------2---2-------2---|-----2--2------2--2------2--2----------|
G|--------|-4-----------4-----------4-------|-4---------4---------4---------4-------|
D|--------|---------------------------------|-----------------------------------4---|
A|--------|---------------------------------|---------------------------------------|
E|--------|---------------------------------|---------------------------------------|


E|-------------|--------------5---5-------5---|-5----5------|-5---------------|--------|
B|-------------|----------5---5---5-------5---|-5----5------|-5---------------|--------|
G|-2----2------|-2----7---------------7-------|-------------|-----------------|--------|
D|-------------|------------------------------|-------------|-----------------|--------|
A|-------------|------------------------------|-------------|-----------------|--------|
E|-------------|------------------------------|-------------|-----------------|--------|


E|--------|---------------------------------|------------------------------|--------|
B|--------|-----5---5-------5---5-------5---|-----5-------5----------------|--------|
G|--------|-7-----------7-----------7-------|-7-------7-------4---4----4---|-2------|
D|--------|---------------------------------|------------------------------|--------|
A|--------|---------------------------------|------------------------------|--------|
E|--------|---------------------------------|------------------------------|--------|


E|------12---12-------------------|-------------|-------------|--------|--------|--------|
B|---------------14-12-10-12------|-10-----10---|-10-----10---|--------|--------|--------|
G|----------------------------11--|-------------|-------------|--------|--------|--------|
D|--------------------------------|-------------|-------------|--------|--------|--------|
A|--------------------------------|-------------|-------------|--------|--------|--------|
E|--------------------------------|-------------|-------------|--------|--------|--------|


E|--------|-------------|--------|--------|--------|--------|--------|--------|--------|
B|--------|------5------|--------|--------|--------|--------|--------|--------|--------|
G|--------|------4------|--------|--------|--------|--------|--------|--------|--------|
D|--------|-------------|--------|--------|--------|--------|--------|--------|--------|
A|--------|-------------|--------|--------|--------|--------|--------|--------|--------|
E|--------|-------------|--------|--------|--------|--------|--------|--------|--------|





Track 4: Untitled

G|--------|--------|--------|--------|--------|--------|--------|--------|--------|
D|--------|--------|--------|--------|--------|--------|--------|--------|--------|
A|--------|--------|--------|--------|--------|--------|--------|--------|--------|
E|--------|--------|--------|--------|--------|--------|--------|--------|--------|


G|--------|--------|--------|--------|--------|--------|--------|--------|--------|
D|--------|--------|--------|--------|--------|--------|--------|--------|--------|
A|--------|--------|--------|--------|--------|--------|--------|--------|--------|
E|--------|--------|--------|--------|--------|--------|--------|--------|--------|


G|--------|--------|--------|--------|--------|--------|--------|--------|--------|
D|--------|--------|--------|--------|--------|--------|--------|--------|--------|
A|--------|--------|--------|--------|--------|--------|--------|--------|--------|
E|--------|--------|--------|--------|--------|--------|--------|--------|--------|


G|--------|--------|--------|--------|--------|--------|--------|--------|--------|
D|--------|--------|--------|--------|--------|--------|--------|--------|--------|
A|--------|--------|--------|--------|--------|--------|--------|--------|--------|
E|--------|--------|--------|--------|--------|--------|--------|--------|--------|


G|--------|--------|--------|--------|--------|--------|--------|--------|--------|
D|--------|--------|--------|--------|--------|--------|--------|--------|--------|
A|--------|--------|--------|--------|--------|--------|--------|--------|--------|
E|--------|--------|--------|--------|--------|--------|--------|--------|--------|


G|--------|--------|--------|--------|--------|--------|--------|--------|--------|
D|--------|--------|--------|--------|--------|--------|--------|--------|--------|
A|--------|--------|--------|--------|--------|--------|--------|--------|--------|
E|--------|--------|--------|--------|--------|--------|--------|--------|--------|


G|--------|--------|--------|--------|--------|--------|--------|--------|--------|
D|--------|--------|--------|--------|--------|--------|--------|--------|--------|
A|--------|--------|--------|--------|--------|--------|--------|--------|--------|
E|--------|--------|--------|--------|--------|--------|--------|--------|--------|


G|--------|--------|--------|--------|--------|--------|--------|--------|--------|
D|--------|--------|--------|--------|--------|--------|--------|--------|--------|
A|--------|--------|--------|--------|--------|--------|--------|--------|--------|
E|--------|--------|--------|--------|--------|--------|--------|--------|--------|


G|--------|--------|--------|--------|--------|--------|--------|--------|--------|
D|--------|--------|--------|--------|--------|--------|--------|--------|--------|
A|--------|--------|--------|--------|--------|--------|--------|--------|--------|
E|--------|--------|--------|--------|--------|--------|--------|--------|--------|


G|--------|--------|--------|--------|--------|--------|--------|--------|--------|
D|--------|--------|--------|--------|--------|--------|--------|--------|--------|
A|--------|--------|--------|--------|--------|--------|--------|--------|--------|
E|--------|--------|--------|--------|--------|--------|--------|--------|--------|


G|--------|--------|--------|--------|--------|--------|--------|--------|--------|
D|--------|--------|--------|--------|--------|--------|--------|--------|--------|
A|--------|--------|--------|--------|--------|--------|--------|--------|--------|
E|--------|--------|--------|--------|--------|--------|--------|--------|--------|


G|--------|--------|--------|--------|--------|--------|--------|--------|--------|
D|--------|--------|--------|--------|--------|--------|--------|--------|--------|
A|--------|--------|--------|--------|--------|--------|--------|--------|--------|
E|--------|--------|--------|--------|--------|--------|--------|--------|--------|


G|--------|--------|--------|--------|--------|--------|--------|--------|--------|
D|--------|--------|--------|--------|--------|--------|--------|--------|--------|
A|--------|--------|--------|--------|--------|--------|--------|--------|--------|
E|--------|--------|--------|--------|--------|--------|--------|--------|--------|


G|--------|--------|--------|--------|--------|--------|--------|--------|--------|
D|--------|--------|--------|--------|--------|--------|--------|--------|--------|
A|--------|--------|--------|--------|--------|--------|--------|--------|--------|
E|--------|--------|--------|--------|--------|--------|--------|--------|--------|


G|--------|--------|--------|--------|--------|--------|--------|--------|--------|
D|--------|--------|--------|--------|--------|--------|--------|--------|--------|
A|--------|--------|--------|--------|--------|--------|--------|--------|--------|
E|--------|--------|--------|--------|--------|--------|--------|--------|--------|


G|--------|--------|--------|--------|--------|--------|--------|--------|--------|
D|--------|--------|--------|--------|--------|--------|--------|--------|--------|
A|--------|--------|--------|--------|--------|--------|--------|--------|--------|
E|--------|--------|--------|--------|--------|--------|--------|--------|--------|


G|--------|
D|--------|
A|--------|
E|--------|