Site menu:

    

Browse: 0-9 A B C D E F G H I J K L N O P Q R S T U V W X Y Z

funeral for a friend - waking up:



Title: Waking Up
Artist: 
Album: Casually Dressed & Deep In Conversation
Author: Funeral For A Friend


Track 1: Distorted 1

D#|-----------0------------0--|--------------10-----------10-|--------------0------------0--|
A#|---------------1-----------|----1-------------10----------|----10------------1-----------|
F#|---------------------------|------------------------------|------------------------------|
C#|---------------------------|------------------------------|------------------------------|
G#|---------------------------|------------------------------|------------------------------|
C#|---------------------------|------------------------------|------------------------------|


D#|--------------10-----------10-|--------------0------------0--|--------------10-----------10-|
A#|----1-------------10----------|----10------------1-----------|----1-------------10----------|
F#|------------------------------|------------------------------|------------------------------|
C#|------------------------------|------------------------------|------------------------------|
G#|------------------------------|------------------------------|------------------------------|
C#|------------------------------|------------------------------|------------------------------|


D#|--------------0------------0--|----------------|------------------------------------------|
A#|----10------------1-----------|----1-----------|------------------------------------------|
F#|------------------------------|----------------|------------------------------------------|
C#|------------------------------|----------------|------------7-----------------8-----------|
G#|------------------------------|----------------|------8--8-----8-----8-----8-----8--------|
C#|------------------------------|----------------|------------------------------------10-10-|


D#|-----------------------------------------------|-------------------------------------------------|
A#|-----------------------------------------------|-------------------------------------------------|
F#|-----------------------------------------------|-------------------------------------------------|
C#|-----------------------------------------------|-8--7--------------7-----------------8-----------|
G#|-8--10-10--8--8--10-12----8-----8--8--7--------|-------8--10-8--8-----8-----8-----8-----8--------|
C#|-----------------------------------------10-10-|-------------------------------------------10-10-|


D#|-----------------------------------------------|-------------------------------------------------|
A#|-----------------------------------------------|-------------------------------------------------|
F#|-----------------------------------------------|-------------------------------------------------|
C#|-----------------------------------------------|-8--7--------------7-----------------8-----------|
G#|-8--10-10--8--8--10-12----8-----8--8--7--------|-------8--10-8--8-----8-----8-----8-----8--------|
C#|-----------------------------------------10-10-|-------------------------------------------10-10-|


D#|-----------------------------------------------|-------------------------------------------------|
A#|-----------------------------------------------|-------------------------------------------------|
F#|-----------------------------------------------|-------------------------------------------------|
C#|-----------------------------------------------|-8--7--------------7-----------------8-----------|
G#|-8--10-10--8--8--10-12----8-----8--8--7--------|-------8--10-8--8-----8-----8-----8-----8--------|
C#|-----------------------------------------10-10-|-------------------------------------------10-10-|


D#|-----------------------------------------------|-------------------------------------------------|
A#|-----------------------------------------------|-------------13-13-13-13-13-11-11-11-11-10-10-10-|
F#|--------------------------10-10-10-10-9--9--9--|-9--5--5--5--------------------------------------|
C#|-----------------------------------------------|-------------10-10-10-10-10-8--8--8--8--7--7--7--|
G#|-8--10-10--8--8--10-12----8--8--8--8--7--7--7--|-7--3--3--3--------------------------------------|
C#|-----------------------------------------------|-------------------------------------------------|


D#|---------------------8-------------------|---------------------8-----------------|
A#|-10-8--8--5--5---6-------6--5---5--6--5--|--------------5--6-------6--5---5--6---|
F#|-----------------------------------------|-7---5--7--7---------------------------|
C#|-7--5--5---------------------------------|---------------------------------------|
G#|-----------------------------------------|---------------------------------------|
C#|-----------------------------------------|---------------------------------------|


D#|-8-----------------------------------------|---------------------8-----------------|
A#|-----6--5--5--5--6--5-------------5--6--5--|--------------5--6-------6--5---5--6---|
F#|-----------------------7---5--7------------|-7---5--7--7---------------------------|
C#|-------------------------------------------|---------------------------------------|
G#|-------------------------------------------|---------------------------------------|
C#|-------------------------------------------|---------------------------------------|


D#|-8-----------------------------------------|---------------------8-----------------|
A#|-----6--5--5--5--6--5-------------5--6--5--|--------------5--6-------6--5---5--6---|
F#|-----------------------7---5--7------------|-7---5--7--7---------------------------|
C#|-------------------------------------------|---------------------------------------|
G#|-------------------------------------------|---------------------------------------|
C#|-------------------------------------------|---------------------------------------|


D#|-8-----------------------------------------|---------------------------------|-----------------------------------------------|
A#|-----6--5--5--5--6--5-------------5--6--5--|---------------------------------|-----------------------------------------------|
F#|-----------------------7---5--7------------|-7---5---------------------------|-----------------------------------------------|
C#|-------------------------------------------|---------0---0---0---0---0---0---|-------7-----------------8---------------------|
G#|-------------------------------------------|---------0---0---0---0---0---0---|-8--8-----8-----8-----8-----8--------8--10-10--|
C#|-------------------------------------------|---------0---0---0---0---0---0---|-------------------------------10-10-----------|


D#|-------------------------------------------------|-----------------------------------------------|
A#|-------------------------------------------------|-----------------------------------------------|
F#|-------------------------------------------------|-----------------------------------------------|
C#|-------------------------------------8--7--------|-------7-----------------8---------------------|
G#|-8--8--10-12----8-----8--8--7--------------8--10-|-8--8-----8-----8-----8-----8--------8--10-10--|
C#|-------------------------------10-10-------------|-------------------------------10-10-----------|


D#|-------------------------------------------------|-----------------------------------------------|
A#|-------------------------------------------------|-----------------------------------------------|
F#|-------------------------------------------------|-----------------------------------------------|
C#|-------------------------------------8--7--------|-------7-----------------8---------------------|
G#|-8--8--10-12----8-----8--8--7--------------8--10-|-8--8-----8-----8-----8-----8--------8--10-10--|
C#|-------------------------------10-10-------------|-------------------------------10-10-----------|


D#|-------------------------------------------------|-----------------------------------------------|
A#|-------------------------------------------------|-----------------------------------------------|
F#|-------------------------------------------------|-----------------------------------------------|
C#|-------------------------------------8--7--------|-------7-----------------8---------------------|
G#|-8--8--10-12----8-----8--8--7--------------8--10-|-8--8-----8-----8-----8-----8--------8--10-10--|
C#|-------------------------------10-10-------------|-------------------------------10-10-----------|


D#|-------------------------------------------------|-------------------------------------------------|
A#|-------------------------------------------------|-13-13-13-13-13-11-11-11-11-10-10-10-10-8--8--5--|
F#|----------------------5--7--9--9--9--9--5--5--5--|-------------------------------------------------|
C#|-------------------------------------------------|-10-10-10-10-10-8--8--8--8--7--7--7--7--5--5-----|
G#|-8--8--10-12----8-----3--5--7--7--7--7--3--3--3--|-------------------------------------------------|
C#|-------------------------------------------------|-------------------------------------------------|


D#|---------8-----------------------------|-----------8-----------------8---------|
A#|-5---6-------6--5---5--6--5------------|----5--6-------6--5---5--6-------6--5--|
F#|-----------------------------7---5--7--|-7-------------------------------------|
C#|---------------------------------------|---------------------------------------|
G#|---------------------------------------|---------------------------------------|
C#|---------------------------------------|---------------------------------------|


D#|-------------------------------------------|-----------8-----------------8---------|
A#|-5--5--6--5-------------5--6--5------------|----5--6-------6--5---5--6-------6--5--|
F#|-------------7---5--7------------7---5--7--|-7-------------------------------------|
C#|-------------------------------------------|---------------------------------------|
G#|-------------------------------------------|---------------------------------------|
C#|-------------------------------------------|---------------------------------------|


D#|---------8-----------------------------|-----------8-----------------8---------|
A#|-5---6-------6--5---5--6--5------------|----5--6-------6--5---5--6-------6--5--|
F#|-----------------------------7---5--7--|-7-------------------------------------|
C#|---------------------------------------|---------------------------------------|
G#|---------------------------------------|---------------------------------------|
C#|---------------------------------------|---------------------------------------|


D#|-----------------------------------------|---------------------------|---------------------------------|
A#|-5--5--6--5-------------5--6--5----------|---------------------------|---------------------------------|
F#|-------------7---5--7------------7---5---|---------------------------|---------------------------------|
C#|-----------------------------------------|-------0---0---0---0---0---|-0---0---0---0---0---0---0---0---|
G#|-----------------------------------------|-------0---0---0---0---0---|-0---0---0---0---0---0---0---0---|
C#|-----------------------------------------|-------0---0---0---0---0---|-0---0---0---0---0---0---0---0---|


D#|---------------------------------|---------------------------------|---------------------------------|
A#|---------------------------------|---------------------------------|---------------------------------|
F#|---------------------------------|---------------------3---3---3---|-3---3---3---3---3---3---3---3---|
C#|-0---0---0---0---0---0---0---0---|-0---0---0---0---0---3---3---3---|-3---3---3---3---3---3---3---3---|
G#|-0---0---0---0---0---0---0---0---|-0---0---0---0---0---1---1---1---|-1---1---1---1---1---1---1---1---|
C#|-0---0---0---0---0---0---0---0---|-0---0---0---0---0---3---3---3---|-3---3---3---3---3---3---3---3---|


D#|---------------------------------|---------------------------------|---------------------------------|
A#|---------------------------------|---------------------------------|---------------------------------|
F#|-3-------------------------------|---------------------3---3---3---|-3---3---3---3---3---3---3---3---|
C#|-3---0---0---0---0---0---0---0---|-0---0---0---0---0---3---3---3---|-3---3---3---3---3---3---3---3---|
G#|-1---0---0---0---0---0---0---0---|-0---0---0---0---0---1---1---1---|-1---1---1---1---1---1---1---1---|
C#|-3---0---0---0---0---0---0---0---|-0---0---0---0---0---3---3---3---|-3---3---3---3---3---3---3---3---|


D#|---------------------------------|---------------------------------|---------------------------------|
A#|---------------------------------|---------------------------------|---------------------------------|
F#|-3-------------------------------|---------------------3---3---3---|-3---3---3---3---3---3---3---3---|
C#|-3---0---0---0---0---0---0---0---|-0---0---0---0---0---3---3---3---|-3---3---3---3---3---3---3---3---|
G#|-1---0---0---0---0---0---0---0---|-0---0---0---0---0---1---1---1---|-1---1---1---1---1---1---1---1---|
C#|-3---0---0---0---0---0---0---0---|-0---0---0---0---0---3---3---3---|-3---3---3---3---3---3---3---3---|


D#|---------------------------------|---------------------------------|---------------------------------|
A#|---------------------------------|---------------------------------|---------------------------------|
F#|-3-------------------------------|---------------------3---3---3---|-3---3---3---3---3---3---3---3---|
C#|-3---0---0---0---0---0---0---0---|-0---0---0---0---0---3---3---3---|-3---3---3---3---3---3---3---3---|
G#|-1---0---0---0---0---0---0---0---|-0---0---0---0---0---1---1---1---|-1---1---1---1---1---1---1---1---|
C#|-3---0---0---0---0---0---0---0---|-0---0---0---0---0---3---3---3---|-3---3---3---3---3---3---3---3---|


D#|----------------|-----------------|--------------|----------------|-----------------|
A#|----------------|-----------------|-------6------|----------------|-----------------|
F#|-3---2------2---|-----------9-----|-------5------|-----2------2---|-----------9-----|
C#|-3---3------3---|-----------10----|-------3------|-----3------3---|-----------10----|
G#|-1---3------3---|-----------8-----|-------3------|-----3------3---|-----------8-----|
C#|-3---3------3---|-----------------|--------------|-----3------3---|-----------------|


D#|--------------|----------------|-----------------|-----------------|--------|--------|
A#|-------6------|----------------|-----------------|-----------------|--------|--------|
F#|-------5------|-----2------2---|-----------2-----|-----------------|--------|--------|
C#|-------3------|-----3------3---|-----------3-----|-----------------|--------|--------|
G#|-------3------|-----3------3---|-----------3-----|-----------------|--------|--------|
C#|--------------|-----3------3---|-----------3-----|-----------------|--------|--------|


D#|--------|--------|--------|--------|-----------------------------|-------------------------------------------------|
A#|--------|--------|--------|--------|-----------------------------|-------------------------------------------------|
F#|--------|--------|--------|--------|-----------------------------|-------------------------------------------------|
C#|--------|--------|--------|--------|-----------------8-----8--10-|----10-------------------------------------------|
G#|--------|--------|--------|--------|-----------------------------|-------------10----10-12----12-------8-----8--10-|
C#|--------|--------|--------|--------|-----------8--8-----8--------|-8-----10-10----10-------10----0--0-----0--------|


D#|-------------------------------------------------|-------------------------------------------------|
A#|-------------------------------------------------|-------------------------------------------------|
F#|-------------------------------------------------|-------------------------------------------------|
C#|-------------------------------------8-----8--10-|----10-------------------------------------------|
G#|----10----8-----12-12-13----12-------------------|-------------10----10-12----12-------8-----8--10-|
C#|-0-----0-----0-----------0-----8--8-----8--------|-8-----10-10----10-------10----0--0-----0--------|


D#|-------------------------------------------------|-------------------------------------------------|
A#|-------------------------------------------------|-------------------------------------------------|
F#|-------------------------------------------------|-------------------------------------------------|
C#|-------------------------------------8-----8--10-|----10-------------------------------------------|
G#|----10----8-----12-12-13----12-------------------|-------------10----10-12----12-------8-----8--10-|
C#|-0-----0-----0-----------0-----8--8-----8--------|-8-----10-10----10-------10----0--0-----0--------|


D#|-------------------------------------------------|-------------------------------------------------|
A#|-------------------------------------------------|-------------------------------------------------|
F#|-------------------------------------------------|-------------------------------------------------|
C#|-------------------------------------8-----8--10-|----10-------------------------------------------|
G#|----10----8-----12-12-13----12-------------------|-------------10----10-12----12-------8-----8--10-|
C#|-0-----0-----0-----------0-----8--8-----8--------|-8-----10-10----10-------10----0--0-----0--------|


D#|-------------------------------------------|---------------------------------|---------------------|
A#|-------------------------------------------|---------------------------------|---------------------|
F#|-------------------------------------------|---------------------------------|---------------------|
C#|-------------------------------0---0---0---|-0---0---0---0---0---0---0---0---|-0---0---------------|
G#|----10----8-----12-12-13----12-0---0---0---|-0---0---0---0---0---0---0---0---|-0---0---------------|
C#|-0-----0-----0-----------0-----0---0---0---|-0---0---0---0---0---0---0---0---|-0---0---------------|





Track 2: Distorted 1

D#|-------------|--------|--------|--------|--------|--------|--------|--------|--------|
A#|-------------|--------|--------|--------|--------|--------|--------|--------|--------|
F#|-------------|--------|--------|--------|--------|--------|--------|--------|--------|
C#|-------------|--------|--------|--------|--------|--------|--------|--------|--------|
G#|-------------|--------|--------|--------|--------|--------|--------|--------|--------|
C#|-------------|--------|--------|--------|--------|--------|--------|--------|--------|


D#|--------|--------|--------|--------|--------|--------|--------|--------|--------|
A#|--------|--------|--------|--------|--------|--------|--------|--------|--------|
F#|--------|--------|--------|--------|--------|--------|--------|--------|--------|
C#|--------|--------|--------|--------|--------|--------|--------|--------|--------|
G#|--------|--------|--------|--------|--------|--------|--------|--------|--------|
C#|--------|--------|--------|--------|--------|--------|--------|--------|--------|


D#|--------|--------|--------|--------|--------|--------|--------|--------|--------|
A#|--------|--------|--------|--------|--------|--------|--------|--------|--------|
F#|--------|--------|--------|--------|--------|--------|--------|--------|--------|
C#|--------|--------|--------|--------|--------|--------|--------|--------|--------|
G#|--------|--------|--------|--------|--------|--------|--------|--------|--------|
C#|--------|--------|--------|--------|--------|--------|--------|--------|--------|


D#|--------|--------|--------|--------|--------|--------|--------|--------|--------|
A#|--------|--------|--------|--------|--------|--------|--------|--------|--------|
F#|--------|--------|--------|--------|--------|--------|--------|--------|--------|
C#|--------|--------|--------|--------|--------|--------|--------|--------|--------|
G#|--------|--------|--------|--------|--------|--------|--------|--------|--------|
C#|--------|--------|--------|--------|--------|--------|--------|--------|--------|


D#|--------|--------|--------|--------|--------|--------|--------|--------|--------|
A#|--------|--------|--------|--------|--------|--------|--------|--------|--------|
F#|--------|--------|--------|--------|--------|--------|--------|--------|--------|
C#|--------|--------|--------|--------|--------|--------|--------|--------|--------|
G#|--------|--------|--------|--------|--------|--------|--------|--------|--------|
C#|--------|--------|--------|--------|--------|--------|--------|--------|--------|


D#|--------|--------|--------|--------|--------|--------|--------|--------|--------|
A#|--------|--------|--------|--------|--------|--------|--------|--------|--------|
F#|--------|--------|--------|--------|--------|--------|--------|--------|--------|
C#|--------|--------|--------|--------|--------|--------|--------|--------|--------|
G#|--------|--------|--------|--------|--------|--------|--------|--------|--------|
C#|--------|--------|--------|--------|--------|--------|--------|--------|--------|


D#|--------|--------|--------|--------|--------|--------|--------|--------|--------|
A#|--------|--------|--------|--------|--------|--------|--------|--------|--------|
F#|--------|--------|--------|--------|--------|--------|--------|--------|--------|
C#|--------|--------|--------|--------|--------|--------|--------|--------|--------|
G#|--------|--------|--------|--------|--------|--------|--------|--------|--------|
C#|--------|--------|--------|--------|--------|--------|--------|--------|--------|


D#|--------|--------|--------|--------|--------|--------|--------|--------|--------|
A#|--------|--------|--------|--------|--------|--------|--------|--------|--------|
F#|--------|--------|--------|--------|--------|--------|--------|--------|--------|
C#|--------|--------|--------|--------|--------|--------|--------|--------|--------|
G#|--------|--------|--------|--------|--------|--------|--------|--------|--------|
C#|--------|--------|--------|--------|--------|--------|--------|--------|--------|


D#|--------|--------|--------|--------|--------|--------|--------|--------|--------|
A#|--------|--------|--------|--------|--------|--------|--------|--------|--------|
F#|--------|--------|--------|--------|--------|--------|--------|--------|--------|
C#|--------|--------|--------|--------|--------|--------|--------|--------|--------|
G#|--------|--------|--------|--------|--------|--------|--------|--------|--------|
C#|--------|--------|--------|--------|--------|--------|--------|--------|--------|





Track 3: Distorted 2

D#|------1-----1----|-----------------|------1-----1----|-----------------|------1-----1----|
A#|------1-----1----|------5-----6----|------1-----1----|------5-----6----|------1-----1----|
F#|------5-----5----|------5-----5----|------5-----5----|------5-----5----|------5-----5----|
C#|------3-----3----|------3-----3----|------3-----3----|------3-----3----|------3-----3----|
G#|------1-----1----|------5-----5----|------1-----1----|------5-----5----|------1-----1----|
C#|-----------------|-----------------|-----------------|-----------------|-----------------|


D#|-----------------|------1-----1----|-------------|--------------------------------------|
A#|------5-----6----|------1-----1----|------5------|------13-13-13-13-----13-13-13-13-----|
F#|------5-----5----|------5-----5----|------5------|------10-10-10-10-----10-10-10-10-----|
C#|------3-----3----|------3-----3----|------3------|------10-10-10-10-----10-10-10-10-----|
G#|------5-----5----|------1-----1----|------5------|--------------------------------------|
C#|-----------------|-----------------|-------------|--------------------------------------|


D#|-------------------------------------------|---------------------------------------------|
A#|-13-13-------------------------------------|-11-10-------13-13-13-13-----13-13-13-13-----|
F#|-10-10-----10-10-10-10-----10-10-10-10-----|-------10-12-10-10-10-10-----10-10-10-10-----|
C#|-10-10-----10-10-10-10-----10-10-10-10-----|-------------10-10-10-10-----10-10-10-10-----|
G#|-----------8--8--8--8------8--8--8--8------|---------------------------------------------|
C#|-------------------------------------------|---------------------------------------------|


D#|-------------------------------------------|---------------------------------------------|
A#|-13-13-------------------------------------|-------------13-13-13-13-----13-13-13-13-----|
F#|-10-10-----10-10-10-10-----10-10-10-10-----|-------10-12-10-10-10-10-----10-10-10-10-----|
C#|-10-10-----10-10-10-10-----10-10-10-10-----|-10-12-------10-10-10-10-----10-10-10-10-----|
G#|-----------8--8--8--8------8--8--8--8------|---------------------------------------------|
C#|-------------------------------------------|---------------------------------------------|


D#|-------------------------------------------|---------------------------------------------|
A#|-13-13-------------------------------------|-11-10-------13-13-13-13-----13-13-13-13-----|
F#|-10-10-----10-10-10-10-----10-10-10-10-----|-------10-12-10-10-10-10-----10-10-10-10-----|
C#|-10-10-----10-10-10-10-----10-10-10-10-----|-------------10-10-10-10-----10-10-10-10-----|
G#|-----------8--8--8--8------8--8--8--8------|---------------------------------------------|
C#|-------------------------------------------|---------------------------------------------|


D#|-----------------------------------------------|-------------------------------------------------|
A#|-13-13-----------------------------------------|-------------13-13-13-13-13-11-11-11-11-10-10-10-|
F#|-10-10-----10-10-10-10----10-10-10-10-12-12-12-|-12-14-14-14-------------------------------------|
C#|-10-10-----10-10-10-10-------------------------|-------------10-10-10-10-10-8--8--8--8--7--7--7--|
G#|-----------8--8--8--8-----8--8--8--8--10-10-10-|-10-12-12-12-------------------------------------|
C#|-----------------------------------------------|-------------------------------------------------|


D#|-----------------------------------------------|-------------------------------------------------|
A#|-10-8--8---------------------------------------|-------------------------------------------------|
F#|-----------------------------------------------|-------2-----------------3--3-----3--3--3-----2--|
C#|-7--5--5-----------3-----2--3------------3-----|-3--5-----3--------3-----------------------------|
G#|----------3--3--3-----3--------3------3-----3--|-------------1--1-----1--------1-----------1-----|
C#|----------------------------------0------------|-------------------------------------------------|


D#|-----------------------------------------------|-------------------------------------------------|
A#|-----------------------------------------------|-------------------------------------------------|
F#|-----------------------------------------------|-------2-----------------3--3-----3--3--3-----2--|
C#|----3--------------3-----2--3------------3-----|-3--5-----3--------3-----------------------------|
G#|-1-----1--3--3--3-----3--------3------3-----3--|-------------1--1-----1--------1-----------1-----|
C#|----------------------------------0------------|-------------------------------------------------|


D#|-----------------------------------------------|-------------------------------------------------|
A#|-----------------------------------------------|-------------------------------------------------|
F#|-----------------------------------------------|-------2-----------------3--3-----3--3--3-----2--|
C#|----3--------------3-----2--3------------3-----|-3--5-----3--------3-----------------------------|
G#|-1-----1--3--3--3-----3--------3------3-----3--|-------------1--1-----1--------1-----------1-----|
C#|----------------------------------0------------|-------------------------------------------------|


D#|-------------------------------------------------|-----------------------------------|
A#|-------------------------------------------------|-------13--------------------------|
F#|----------------------------------10-10-12-12-12-|-12-14-----------------------------|
C#|----3--------------3-----2--3--------------------|-------10--0---0---0---0---0---0---|
G#|-1-----1--3--3--3-----3--------3--8--8--10-10-10-|-10-12-----0---0---0---0---0---0---|
C#|-------------------------------------------------|-----------0---0---0---0---0---0---|


D#|-------------------------------------------|---------------------------------------------|
A#|-13-13-13-13-----13-13-13-13-----13-13-----|---------------------------------11-10-------|
F#|-10-10-10-10-----10-10-10-10-----10-10-----|-10-10-10-10-----10-10-10-10-----------10-12-|
C#|-10-10-10-10-----10-10-10-10-----10-10-----|-10-10-10-10-----10-10-10-10-----------------|
G#|-------------------------------------------|-8--8--8--8------8--8--8--8------------------|
C#|-------------------------------------------|---------------------------------------------|


D#|-------------------------------------------|---------------------------------------------|
A#|-13-13-13-13-----13-13-13-13-----13-13-----|---------------------------------------------|
F#|-10-10-10-10-----10-10-10-10-----10-10-----|-10-10-10-10-----10-10-10-10-----------10-12-|
C#|-10-10-10-10-----10-10-10-10-----10-10-----|-10-10-10-10-----10-10-10-10-----10-12-------|
G#|-------------------------------------------|-8--8--8--8------8--8--8--8------------------|
C#|-------------------------------------------|---------------------------------------------|


D#|-------------------------------------------|---------------------------------------------|
A#|-13-13-13-13-----13-13-13-13-----13-13-----|---------------------------------11-10-------|
F#|-10-10-10-10-----10-10-10-10-----10-10-----|-10-10-10-10-----10-10-10-10-----------10-12-|
C#|-10-10-10-10-----10-10-10-10-----10-10-----|-10-10-10-10-----10-10-10-10-----------------|
G#|-------------------------------------------|-8--8--8--8------8--8--8--8------------------|
C#|-------------------------------------------|---------------------------------------------|


D#|-------------------------------------------|-------------------------------------------------|
A#|-13-13-13-13-----13-13-13-13-----13-13-----|----------------------------------------13-13-13-|
F#|-10-10-10-10-----10-10-10-10-----10-10-----|-10-10-10-10-10-10-10-10-10-10-10-10-10-10-10-10-|
C#|-10-10-10-10-----10-10-10-10-----10-10-----|-10-10-10-10-10-10-10-10-10-10-10-10-10-10-10-10-|
G#|-------------------------------------------|-8--8--8--8--8--8--8--8--8--8--8--8--8-----------|
C#|-------------------------------------------|-------------------------------------------------|


D#|-------------------------------------------------|-----------------------------------------------|
A#|-------------------------------------------------|-----------------------------------------------|
F#|-------3-----3--------3--3--2-----2--2-----------|-----------------------------------------2-----|
C#|----------------------------------------3--------|-------3-----2--3------------3-----3--5-----3--|
G#|-1--1-----1-----1--1-----------1-----------1--3--|----3-----3--------3------3-----3--------------|
C#|-------------------------------------------------|----------------------0------------------------|


D#|-------------------------------------------------|-----------------------------------------------|
A#|-------------------------------------------------|-----------------------------------------------|
F#|-------------3--3-----3--3--3-----2--------------|-----------------------------------------2-----|
C#|-------3--------------------------------3--------|-------3-----2--3------------3-----3--5-----3--|
G#|-1--1-----1--------1-----------1-----1-----1--3--|-3--3-----3--------3------3-----3--------------|
C#|-------------------------------------------------|----------------------0------------------------|


D#|-------------------------------------------------|-----------------------------------------------|
A#|-------------------------------------------------|-----------------------------------------------|
F#|-------------3--3-----3--3--3-----2--------------|-----------------------------------------2-----|
C#|-------3--------------------------------3--------|-------3-----2--3------------3-----3--5-----3--|
G#|-1--1-----1--------1-----------1-----1-----1--3--|----3-----3--------3------3-----3--------------|
C#|-------------------------------------------------|----------------------0------------------------|


D#|-------------------------------------------------|-------------------------------------------------|
A#|-------------------------------------------------|-------------------------------------------------|
F#|-------------3--3-----3--3--3-----2--------------|----------------------10-10-12-12-12-12-14-14-14-|
C#|-------3--------------------------------3--------|-------3-----2--3--------------------------------|
G#|-1--1-----1--------1-----------1-----1-----1--3--|-3--3-----3--------3--8--8--10-10-10-10-12-12-12-|
C#|-------------------------------------------------|-------------------------------------------------|


D#|------------------------|--------|--------|-----------------------|---------------------------------|
A#|------------------------|--------|--------|-----------------------|---------------------------------|
F#|------------------------|--------|--------|-----------9---9---9---|-9---9---9---9---9---9---9---9---|
C#|-0---0---0--------------|--------|--------|-----------------------|---------------------------------|
G#|-0---0---0--------------|--------|--------|-----------------------|---------------------------------|
C#|-0---0---0--------------|--------|--------|-----------------------|---------------------------------|


D#|-----------------------------------|-----------------------------------|---------------------------------|
A#|-----------------------------------|-----------------------------------|---------------------------------|
F#|-9---10--10--10-9--10--10--10--9---|-9---9---9---9---10-12-9---9---9---|-9---9---9---9---9---9---9---9---|
C#|-----------------------------------|-----------------------------------|---------------------------------|
G#|-----------------------------------|-----------------------------------|---------------------------------|
C#|-----------------------------------|-----------------------------------|---------------------------------|


D#|-----------------------------------|-----------------------------------|---------------------------------|
A#|-----------------------------------|-----------------------------------|---------------------------------|
F#|-9---10--10--10-9--10--10--10--9---|-9---9---9---9---10-12-9---9---9---|-9---9---9---9---9---9---9---9---|
C#|-----------------------------------|-----------------------------------|---------------------------------|
G#|-----------------------------------|-----------------------------------|---------------------------------|
C#|-----------------------------------|-----------------------------------|---------------------------------|


D#|-----------------------------------|-----------------------------------|---------------------------------|
A#|-----------------------------------|-----------------------------------|---------------------------------|
F#|-9---10--10--10-9--10--10--10--9---|-9---9---9---9---10-12-9---9---9---|-9---9---9---9---9---9---9---9---|
C#|-----------------------------------|-----------------------------------|---------------------------------|
G#|-----------------------------------|-----------------------------------|---------------------------------|
C#|-----------------------------------|-----------------------------------|---------------------------------|


D#|----------------|-----------------|--------------|----------------|-----------------|
A#|----------------|-----------------|--------------|----------------|-----------------|
F#|-9---2------2---|-----------2-----|-------2------|-----2------2---|-----------2-----|
C#|-----3------3---|-----------3-----|-------3------|-----3------3---|-----------3-----|
G#|-----3------3---|-----------3-----|-------3------|-----3------3---|-----------3-----|
C#|-----3------3---|-----------3-----|-------3------|-----3------3---|-----------3-----|


D#|--------------|----------------|-----------------|-----------------|--------|--------|
A#|--------------|----------------|-----------------|-----------------|--------|--------|
F#|-------2------|-----2------2---|-----------2-----|-----------------|--------|--------|
C#|-------3------|-----3------3---|-----------3-----|-----------------|--------|--------|
G#|-------3------|-----3------3---|-----------3-----|-----------------|--------|--------|
C#|-------3------|-----3------3---|-----------3-----|-----------------|--------|--------|


D#|--------|--------|--------|--------|---------------------|-----------------------------|
A#|--------|--------|--------|--------|-----------6----5----|-----6----5--------6----5----|
F#|--------|--------|--------|--------|---------------------|-5-------------5-------------|
C#|--------|--------|--------|--------|---------------------|-----------------------------|
G#|--------|--------|--------|--------|---------------------|-----------------------------|
C#|--------|--------|--------|--------|---------------------|-----------------------------|


D#|---------------3-------------|-----------------------------|---------------3-------------|
A#|-----5----6--------6----5----|-----6----5--------6----5----|-----5----6--------6----5----|
F#|-5---------------------------|-5-------------5-------------|-5---------------------------|
C#|-----------------------------|-----------------------------|-----------------------------|
G#|-----------------------------|-----------------------------|-----------------------------|
C#|-----------------------------|-----------------------------|-----------------------------|


D#|-----------------------------|---------------3-------------|-----------------------------|
A#|-----6----5--------6----5----|-----5----6--------6----5----|-----6----5--------6----5----|
F#|-5-------------5-------------|-5---------------------------|-5-------------5-------------|
C#|-----------------------------|-----------------------------|-----------------------------|
G#|-----------------------------|-----------------------------|-----------------------------|
C#|-----------------------------|-----------------------------|-----------------------------|


D#|---------------3---------|--------|--------|
A#|-----5----6--------------|--------|--------|
F#|-5-----------------------|--------|--------|
C#|-------------------------|--------|--------|
G#|-------------------------|--------|--------|
C#|-------------------------|--------|--------|





Track 4: Vox

D#|--------|--------|--------|--------|-------------|-------------|-------------|-------------|
A#|--------|--------|--------|--------|-------------|-------------|-------------|-------------|
F#|--------|--------|--------|--------|------10-----|-10---7------|-7----10-----|-10---7------|
C#|--------|--------|--------|--------|-------------|-------------|-------------|-------------|
G#|--------|--------|--------|--------|------8------|-8----5------|-5----8------|-8----5------|
C#|--------|--------|--------|--------|-------------|-------------|-------------|-------------|


D#|-------------|--------|--------|--------|--------|--------|--------|--------|--------|
A#|-------------|--------|--------|--------|--------|--------|--------|--------|--------|
F#|-------------|--------|--------|--------|--------|--------|--------|--------|--------|
C#|-------------|--------|--------|--------|--------|--------|--------|--------|--------|
G#|-------------|--------|--------|--------|--------|--------|--------|--------|--------|
C#|-------------|--------|--------|--------|--------|--------|--------|--------|--------|


D#|--------|--------|--------|--------|--------|--------|--------|--------|--------|
A#|--------|--------|--------|--------|--------|--------|--------|--------|--------|
F#|--------|--------|--------|--------|--------|--------|--------|--------|--------|
C#|--------|--------|--------|--------|--------|--------|--------|--------|--------|
G#|--------|--------|--------|--------|--------|--------|--------|--------|--------|
C#|--------|--------|--------|--------|--------|--------|--------|--------|--------|


D#|--------|--------|--------|--------|--------|--------|--------|--------|--------|
A#|--------|--------|--------|--------|--------|--------|--------|--------|--------|
F#|--------|--------|--------|--------|--------|--------|--------|--------|--------|
C#|--------|--------|--------|--------|--------|--------|--------|--------|--------|
G#|--------|--------|--------|--------|--------|--------|--------|--------|--------|
C#|--------|--------|--------|--------|--------|--------|--------|--------|--------|


D#|--------|--------|--------|--------|--------|--------|--------|--------|--------|
A#|--------|--------|--------|--------|--------|--------|--------|--------|--------|
F#|--------|--------|--------|--------|--------|--------|--------|--------|--------|
C#|--------|--------|--------|--------|--------|--------|--------|--------|--------|
G#|--------|--------|--------|--------|--------|--------|--------|--------|--------|
C#|--------|--------|--------|--------|--------|--------|--------|--------|--------|


D#|--------|--------|--------|--------|--------|--------|--------|--------|--------|
A#|--------|--------|--------|--------|--------|--------|--------|--------|--------|
F#|--------|--------|--------|--------|--------|--------|--------|--------|--------|
C#|--------|--------|--------|--------|--------|--------|--------|--------|--------|
G#|--------|--------|--------|--------|--------|--------|--------|--------|--------|
C#|--------|--------|--------|--------|--------|--------|--------|--------|--------|


D#|--------|--------|--------|--------|--------|--------|--------|--------|--------|
A#|--------|--------|--------|--------|--------|--------|--------|--------|--------|
F#|--------|--------|--------|--------|--------|--------|--------|--------|--------|
C#|--------|--------|--------|--------|--------|--------|--------|--------|--------|
G#|--------|--------|--------|--------|--------|--------|--------|--------|--------|
C#|--------|--------|--------|--------|--------|--------|--------|--------|--------|


D#|--------|--------|--------|--------|--------|--------|--------|--------|--------|
A#|--------|--------|--------|--------|--------|--------|--------|--------|--------|
F#|--------|--------|--------|--------|--------|--------|--------|--------|--------|
C#|--------|--------|--------|--------|--------|--------|--------|--------|--------|
G#|--------|--------|--------|--------|--------|--------|--------|--------|--------|
C#|--------|--------|--------|--------|--------|--------|--------|--------|--------|


D#|--------|--------|--------|--------|--------|--------|--------|--------|--------|
A#|--------|--------|--------|--------|--------|--------|--------|--------|--------|
F#|--------|--------|--------|--------|--------|--------|--------|--------|--------|
C#|--------|--------|--------|--------|--------|--------|--------|--------|--------|
G#|--------|--------|--------|--------|--------|--------|--------|--------|--------|
C#|--------|--------|--------|--------|--------|--------|--------|--------|--------|


D#|--------|
A#|--------|
F#|--------|
C#|--------|
G#|--------|
C#|--------|





Track 5: Clean 1

D#|--------|--------|--------|--------|--------|--------|--------|--------|--------|
A#|--------|--------|--------|--------|--------|--------|--------|--------|--------|
F#|--------|--------|--------|--------|--------|--------|--------|--------|--------|
C#|--------|--------|--------|--------|--------|--------|--------|--------|--------|
G#|--------|--------|--------|--------|--------|--------|--------|--------|--------|
C#|--------|--------|--------|--------|--------|--------|--------|--------|--------|


D#|--------|--------|--------|--------|--------|--------|--------|--------|--------|
A#|--------|--------|--------|--------|--------|--------|--------|--------|--------|
F#|--------|--------|--------|--------|--------|--------|--------|--------|--------|
C#|--------|--------|--------|--------|--------|--------|--------|--------|--------|
G#|--------|--------|--------|--------|--------|--------|--------|--------|--------|
C#|--------|--------|--------|--------|--------|--------|--------|--------|--------|


D#|--------|--------|--------|--------|--------|--------|--------|--------|--------|
A#|--------|--------|--------|--------|--------|--------|--------|--------|--------|
F#|--------|--------|--------|--------|--------|--------|--------|--------|--------|
C#|--------|--------|--------|--------|--------|--------|--------|--------|--------|
G#|--------|--------|--------|--------|--------|--------|--------|--------|--------|
C#|--------|--------|--------|--------|--------|--------|--------|--------|--------|


D#|--------|--------|--------|--------|--------|--------|--------|--------|--------|
A#|--------|--------|--------|--------|--------|--------|--------|--------|--------|
F#|--------|--------|--------|--------|--------|--------|--------|--------|--------|
C#|--------|--------|--------|--------|--------|--------|--------|--------|--------|
G#|--------|--------|--------|--------|--------|--------|--------|--------|--------|
C#|--------|--------|--------|--------|--------|--------|--------|--------|--------|


D#|--------|--------|--------|--------|--------|--------|--------|--------|--------|
A#|--------|--------|--------|--------|--------|--------|--------|--------|--------|
F#|--------|--------|--------|--------|--------|--------|--------|--------|--------|
C#|--------|--------|--------|--------|--------|--------|--------|--------|--------|
G#|--------|--------|--------|--------|--------|--------|--------|--------|--------|
C#|--------|--------|--------|--------|--------|--------|--------|--------|--------|


D#|--------|--------|--------|--------|--------|--------|--------|--------|--------|
A#|--------|--------|--------|--------|--------|--------|--------|--------|--------|
F#|--------|--------|--------|--------|--------|--------|--------|--------|--------|
C#|--------|--------|--------|--------|--------|--------|--------|--------|--------|
G#|--------|--------|--------|--------|--------|--------|--------|--------|--------|
C#|--------|--------|--------|--------|--------|--------|--------|--------|--------|


D#|--------|--------|--------|--------|--------|--------|--------|--------|-----------------------------|
A#|--------|--------|--------|--------|--------|--------|--------|--------|-----------------------------|
F#|--------|--------|--------|--------|--------|--------|--------|--------|-----------10-10-10-10-10-10-|
C#|--------|--------|--------|--------|--------|--------|--------|--------|-----------8--8--8--8--8--8--|
G#|--------|--------|--------|--------|--------|--------|--------|--------|-----------8--8--8--8--8--8--|
C#|--------|--------|--------|--------|--------|--------|--------|--------|-----------8--8--8--8--8--8--|


D#|-------------------------------------------------|-------------------------------------------------|
A#|-------------------------------------------------|-------------------------------------------------|
F#|-10-10-12-12-12-12-12-12-12-12-------------------|-------------------------------10-10-10-10-10-10-|
C#|-8--8--10-10-10-10-10-10-10-10-10-15-15-15-15-17-|-17-17-14-14-14-14-14-15-15-15-8--8--8--8--8--8--|
G#|-8--8--10-10-10-10-10-12-12-12-12-15-15-15-15-15-|-15-15-12-12-12-12-12-12-12-12-8--8--8--8--8--8--|
C#|-8--8--10-10-10-10-10-10-10-10-0--0--0--0--0--0--|-0--0--0--0--0--0--0--0--0--0--8--8--8--8--8--8--|


D#|-------------------------------------------------|-------------------------------------------------|
A#|-------------------------------------------------|-------------------------------------------------|
F#|-10-10-12-12-12-12-12-12-12-12-------------------|-------------------------------10-10-10-10-10-10-|
C#|-8--8--10-10-10-10-10-10-10-10-10-15-15-15-15-17-|-17-17-14-14-14-14-14-15-15-15-8--8--8--8--8--8--|
G#|-8--8--10-10-10-10-10-12-12-12-12-15-15-15-15-15-|-15-15-12-12-12-12-12-12-12-12-8--8--8--8--8--8--|
C#|-8--8--10-10-10-10-10-10-10-10-0--0--0--0--0--0--|-0--0--0--0--0--0--0--0--0--0--8--8--8--8--8--8--|


D#|-------------------------------------------------|-------------------------------------------------|
A#|-------------------------------------------------|-------------------------------------------------|
F#|-10-10-12-12-12-12-12-12-12-12-------------------|-------------------------------10-10-10-10-10-10-|
C#|-8--8--10-10-10-10-10-10-10-10-10-15-15-15-15-17-|-17-17-14-14-14-14-14-15-15-15-8--8--8--8--8--8--|
G#|-8--8--10-10-10-10-10-12-12-12-12-15-15-15-15-15-|-15-15-12-12-12-12-12-12-12-12-8--8--8--8--8--8--|
C#|-8--8--10-10-10-10-10-10-10-10-0--0--0--0--0--0--|-0--0--0--0--0--0--0--0--0--0--8--8--8--8--8--8--|


D#|-------------------------------------------------|-------------------------------------|
A#|-------------------------------------------------|-------------------------------------|
F#|-10-10-12-12-12-12-12-12-12-12-------------------|-------------------------------------|
C#|-8--8--10-10-10-10-10-10-10-10-10-15-15-15-15-17-|-17-17-14-14-14-14-14-15-15-15-------|
G#|-8--8--10-10-10-10-10-12-12-12-12-15-15-15-15-15-|-15-15-12-12-12-12-12-12-12-12-------|
C#|-8--8--10-10-10-10-10-10-10-10-0--0--0--0--0--0--|-0--0--0--0--0--0--0--0--0--0--------|


D#|--------|--------|--------|--------|--------|--------|--------|--------|--------|
A#|--------|--------|--------|--------|--------|--------|--------|--------|--------|
F#|--------|--------|--------|--------|--------|--------|--------|--------|--------|
C#|--------|--------|--------|--------|--------|--------|--------|--------|--------|
G#|--------|--------|--------|--------|--------|--------|--------|--------|--------|
C#|--------|--------|--------|--------|--------|--------|--------|--------|--------|


D#|--------|
A#|--------|
F#|--------|
C#|--------|
G#|--------|
C#|--------|





Track 6: Clean 2

D#|--------|--------|--------|--------|--------|--------|--------|--------|--------|
A#|--------|--------|--------|--------|--------|--------|--------|--------|--------|
F#|--------|--------|--------|--------|--------|--------|--------|--------|--------|
C#|--------|--------|--------|--------|--------|--------|--------|--------|--------|
G#|--------|--------|--------|--------|--------|--------|--------|--------|--------|
C#|--------|--------|--------|--------|--------|--------|--------|--------|--------|


D#|--------|--------|--------|--------|--------|--------|--------|--------|--------|
A#|--------|--------|--------|--------|--------|--------|--------|--------|--------|
F#|--------|--------|--------|--------|--------|--------|--------|--------|--------|
C#|--------|--------|--------|--------|--------|--------|--------|--------|--------|
G#|--------|--------|--------|--------|--------|--------|--------|--------|--------|
C#|--------|--------|--------|--------|--------|--------|--------|--------|--------|


D#|--------|--------|--------|--------|--------|--------|--------|--------|--------|
A#|--------|--------|--------|--------|--------|--------|--------|--------|--------|
F#|--------|--------|--------|--------|--------|--------|--------|--------|--------|
C#|--------|--------|--------|--------|--------|--------|--------|--------|--------|
G#|--------|--------|--------|--------|--------|--------|--------|--------|--------|
C#|--------|--------|--------|--------|--------|--------|--------|--------|--------|


D#|--------|--------|--------|--------|--------|--------|--------|--------|--------|
A#|--------|--------|--------|--------|--------|--------|--------|--------|--------|
F#|--------|--------|--------|--------|--------|--------|--------|--------|--------|
C#|--------|--------|--------|--------|--------|--------|--------|--------|--------|
G#|--------|--------|--------|--------|--------|--------|--------|--------|--------|
C#|--------|--------|--------|--------|--------|--------|--------|--------|--------|


D#|--------|--------|--------|--------|--------|--------|--------|--------|--------|
A#|--------|--------|--------|--------|--------|--------|--------|--------|--------|
F#|--------|--------|--------|--------|--------|--------|--------|--------|--------|
C#|--------|--------|--------|--------|--------|--------|--------|--------|--------|
G#|--------|--------|--------|--------|--------|--------|--------|--------|--------|
C#|--------|--------|--------|--------|--------|--------|--------|--------|--------|


D#|--------|--------|--------|--------|--------|--------|--------|--------|--------|
A#|--------|--------|--------|--------|--------|--------|--------|--------|--------|
F#|--------|--------|--------|--------|--------|--------|--------|--------|--------|
C#|--------|--------|--------|--------|--------|--------|--------|--------|--------|
G#|--------|--------|--------|--------|--------|--------|--------|--------|--------|
C#|--------|--------|--------|--------|--------|--------|--------|--------|--------|


D#|--------|--------|--------|--------|--------|--------|--------|--------|--------|
A#|--------|--------|--------|--------|--------|--------|--------|--------|--------|
F#|--------|--------|--------|--------|--------|--------|--------|--------|--------|
C#|--------|--------|--------|--------|--------|--------|--------|--------|--------|
G#|--------|--------|--------|--------|--------|--------|--------|--------|--------|
C#|--------|--------|--------|--------|--------|--------|--------|--------|--------|


D#|--------|--------|--------|---------------------|-----------------------------|
A#|--------|--------|--------|-----------6----5----|-----6----5--------6----5----|
F#|--------|--------|--------|---------------------|-5-------------5-------------|
C#|--------|--------|--------|---------------------|-----------------------------|
G#|--------|--------|--------|---------------------|-----------------------------|
C#|--------|--------|--------|---------------------|-----------------------------|


D#|---------------3-------------|-----------------------------|---------------3---------|
A#|-----5----6--------6----5----|-----6----5--------6----5----|-----5----6--------------|
F#|-5---------------------------|-5-------------5-------------|-5-----------------------|
C#|-----------------------------|-----------------------------|-------------------------|
G#|-----------------------------|-----------------------------|-------------------------|
C#|-----------------------------|-----------------------------|-------------------------|


D#|--------|--------|--------|--------|--------|--------|--------|--------|--------|
A#|--------|--------|--------|--------|--------|--------|--------|--------|--------|
F#|--------|--------|--------|--------|--------|--------|--------|--------|--------|
C#|--------|--------|--------|--------|--------|--------|--------|--------|--------|
G#|--------|--------|--------|--------|--------|--------|--------|--------|--------|
C#|--------|--------|--------|--------|--------|--------|--------|--------|--------|


D#|--------|
A#|--------|
F#|--------|
C#|--------|
G#|--------|
C#|--------|





Track 7: Cymbal

F#|-27--27---------|--------|--------|--------|--------|--------|--------|--------|
C#|----------------|--------|--------|--------|--------|--------|--------|--------|
G#|----------------|--------|--------|--------|--------|--------|--------|--------|
C#|----------------|--------|--------|--------|--------|--------|--------|--------|


F#|--------|--------|--------|--------|--------|--------|--------|--------|--------|
C#|--------|--------|--------|--------|--------|--------|--------|--------|--------|
G#|--------|--------|--------|--------|--------|--------|--------|--------|--------|
C#|--------|--------|--------|--------|--------|--------|--------|--------|--------|


F#|--------|--------|--------|--------|--------|--------|--------|--------|--------|
C#|--------|--------|--------|--------|--------|--------|--------|--------|--------|
G#|--------|--------|--------|--------|--------|--------|--------|--------|--------|
C#|--------|--------|--------|--------|--------|--------|--------|--------|--------|


F#|--------|--------|--------|--------|--------|--------|--------|--------|--------|
C#|--------|--------|--------|--------|--------|--------|--------|--------|--------|
G#|--------|--------|--------|--------|--------|--------|--------|--------|--------|
C#|--------|--------|--------|--------|--------|--------|--------|--------|--------|


F#|--------|--------|--------|--------|--------|--------|--------|--------|--------|
C#|--------|--------|--------|--------|--------|--------|--------|--------|--------|
G#|--------|--------|--------|--------|--------|--------|--------|--------|--------|
C#|--------|--------|--------|--------|--------|--------|--------|--------|--------|


F#|--------|--------|--------|--------|--------|--------|--------|--------|--------|
C#|--------|--------|--------|--------|--------|--------|--------|--------|--------|
G#|--------|--------|--------|--------|--------|--------|--------|--------|--------|
C#|--------|--------|--------|--------|--------|--------|--------|--------|--------|


F#|--------|--------|--------|--------|--------|--------|--------|--------|--------|
C#|--------|--------|--------|--------|--------|--------|--------|--------|--------|
G#|--------|--------|--------|--------|--------|--------|--------|--------|--------|
C#|--------|--------|--------|--------|--------|--------|--------|--------|--------|


F#|--------|--------|--------|--------|--------|--------|--------|--------|--------|
C#|--------|--------|--------|--------|--------|--------|--------|--------|--------|
G#|--------|--------|--------|--------|--------|--------|--------|--------|--------|
C#|--------|--------|--------|--------|--------|--------|--------|--------|--------|


F#|--------|--------|--------|--------|--------|--------|--------|--------|--------|
C#|--------|--------|--------|--------|--------|--------|--------|--------|--------|
G#|--------|--------|--------|--------|--------|--------|--------|--------|--------|
C#|--------|--------|--------|--------|--------|--------|--------|--------|--------|


F#|--------|
C#|--------|
G#|--------|
C#|--------|





Track 8: Bass

F#|---------------------------------|---------------------------------------|---------------------------------|
C#|---------------------------------|---------------------------------------|---------------------------------|
G#|------1---1---1--1----1---1---1--|-1---1-3-3-----------------------------|------1---1---1--1----1---1---1--|
C#|---------------------------------|------------0---0---0--0----0---0---0--|-0-------------------------------|


F#|---------------------------------------|---------------------------------|---------------------------------------|
C#|---------------------------------------|---------------------------------|---------------------------------------|
G#|-1---1-3-3-----------------------------|------1---1---1--1----1---1---1--|-1---1-3-3-----------------------------|
C#|------------0---0---0--0----0---0---0--|-0-------------------------------|------------0---0---0--0----0---0---0--|


F#|---------------------------------|-------------------|----------------------------------|
C#|---------------------------------|-------------------|----------------------------------|
G#|------1---1---1--1----1---1---1--|-1---1-3-3---------|------1--1-------1------1--1------|
C#|-0-------------------------------|------------0------|----------------------------------|


F#|---------------------------------------|-------------------------------------|---------------------------------------|
C#|---------------------------------------|-------------------------------------|---------------------------------------|
G#|-1--3--3-------------------------------|---------1--1-------1------1--1------|-1--3--3-------------------------------|
C#|-----------0--0-------0------0--0------|-----0-------------------------------|-----------0--0-------0------0--0------|


F#|-------------------------------------|---------------------------------------|-------------------------------------|
C#|-------------------------------------|---------------------------------------|-------------------------------------|
G#|---------1--1-------1------1--1------|-1--3--3-------------------------------|---------1--1-------1------1--1------|
C#|-----0-------------------------------|-----------0--0-------0------0--0------|-----0-------------------------------|


F#|-----------------------------------|----------------|---------------------------------------------|
C#|-----------------------------------|----------------|---------------------------------------------|
G#|-1--3--3---------------------------|----------------|------3--3--3--3--3--1--3--3--5--5--5--5--5--|
C#|-----------0---0---0---0---0---0---|-0---0----------|---------------------------------------------|


F#|-----------------------------------------------|-------------------------------------------------|
C#|--------------------------5--5--5--5--3--3--3--|-3--2--2-----------------5-----------------------|
G#|-5--0--0--1--1---1--1--1-----------------------|----------3--3--3--3--3-----2--3--5--5--5--5--5--|
C#|-----------------------------------------------|-------------------------------------------------|


F#|-----------------------------------------------|-------------------------------------------------|
C#|--------------------------5--5--5--5--3--3--3--|-3--2--2-----------------------------------------|
G#|-5-----0--1--1---1--1--1-----------------------|----------3--3--3--3--3--1--3--3--5--5--5--5--5--|
C#|----5------------------------------------------|-------------------------------------------------|


F#|-----------------------------------------------|-------------------------------------------------|
C#|--------------------------5--5--5--5--3--3--3--|-3--2--2-----------------2--3--------------------|
G#|-5--0--0--1--1---1--1--1-----------------------|----------3--3--3--3--3--------3--5--5--5--5--5--|
C#|-----------------------------------------------|-------------------------------------------------|


F#|-----------------------------------|---------------------------------------|----------------------------------|
C#|-------3---------------------------|---------------------------------------|----------------------------------|
G#|-5--5------------------------------|-1--1-------1------1--1------1--3--3---|----------------------------------|
C#|-----------0---0---0---0---0---0---|---------------------------------------|-0--0-------0------0--0-------0---|


F#|---------------------------------------|----------------------------------|---------------------------------------|
C#|---------------------------------------|----------------------------------|---------------------------------------|
G#|-1--1-------1------1--1------1--3--3---|----------------------------------|-1--1-------1------1--1------1--3--3---|
C#|---------------------------------------|-0--0-------0------0--0-------0---|---------------------------------------|


F#|----------------------------------|---------------------------------------|---------------------------------|
C#|----------------------------------|---------------------------------------|---------------------------------|
G#|----------------------------------|-1--1-------1------1--1------1--3--3---|---------------------------------|
C#|-0--0-------0------0--0-------0---|---------------------------------------|-0---0---0---0---0---0---0---0---|


F#|-------------------------------------------------|-------------------------------------------------|
C#|----------------3--3--3--3--------3--3--2--------|-------------------------------------------------|
G#|-1--1--1--1--1--------------1--1-----------1--3--|-3--3--3--3--1--3--3--5--5--5--5--5--5--0--0--1--|
C#|-------------------------------------------------|-------------------------------------------------|


F#|-----------------------------------------------|-------------------------------------------------|
C#|--------------5--5--5--5--3--3--3--3--2--2-----|-------------5-----------------------------------|
G#|-1---1--1--1--------------------------------3--|-3--3--3--3-----2--3--5--5--5--5--5--5-----0--1--|
C#|-----------------------------------------------|----------------------------------------5--------|


F#|-----------------------------------------------|-------------------------------------------------|
C#|--------------5--5--5--5--3--3--3--3--2--2-----|-------------------------------------------------|
G#|-1---1--1--1--------------------------------3--|-3--3--3--3--1--3--3--5--5--5--5--5--5--0--0--1--|
C#|-----------------------------------------------|-------------------------------------------------|


F#|-----------------------------------------------|-----------------------------------------------|
C#|--------------5--5--5--5--3--3--3--3--2--2-----|-------------2--3--------------------------3---|
G#|-1---1--1--1--------------------------------3--|-3--3--3--3--------3--5--5--5--5--5--5--5------|
C#|-----------------------------------------------|-----------------------------------------------|


F#|-----------------------|---------------------------------|---------------------------------|
C#|-----------------------|---------------------------------|---------------------------------|
G#|-----------------------|---------------------------------|---------------------------------|
C#|-----------0---0---0---|-0---0---0---0---0---0---0---0---|-0---0---0---0---0---0---0---0---|


F#|---------------------------------|---------------------------------|---------------------------------|
C#|---------------------------------|---------------------------------|---------------------------------|
G#|---------------------1---1---1---|-1---1---1---1---1---1---1---1---|-1-------------------------------|
C#|-0---0---0---0---0---------------|---------------------------------|-----0---0---0---0---0---0---0---|


F#|---------------------------------|---------------------------------|---------------------------------|
C#|---------------------------------|---------------------------------|---------------------------------|
G#|---------------------1---1---1---|-1---1---1---1---1---1---1---1---|-1-------------------------------|
C#|-0---0---0---0---0---------------|---------------------------------|-----0---0---0---0---0---0---0---|


F#|------------------------------|------------------------------|---------------------------|
C#|------------------------------|----------3---3---3---2---2---|-0---------------------0---|
G#|---------------------1----1---|-1----1-----------------------|---------------------------|
C#|-0---0---0---0---0------------|------------------------------|-----0----0---0----0-------|


F#|------------------------------|------------------------------|----------------|
C#|-----0---2---2---3------------|----------3---3---3---2---2---|-5--------------|
G#|---------------------1----1---|-1----1-----------------------|----------------|
C#|-0----------------------------|------------------------------|-----3------3---|


F#|-----------------|--------------|----------------|-----------------|--------------|
C#|-----------------|--------------|----------------|-----------------|--------------|
G#|-----------------|--------------|----------------|-----------------|--------------|
C#|-----------3-----|-------3------|-----3------3---|-----------3-----|-------3------|


F#|----------------|--------|--------|--------|--------|--------|--------|--------|
C#|----------------|--------|--------|--------|--------|--------|--------|--------|
G#|----------------|--------|--------|--------|--------|--------|--------|--------|
C#|-----3------3---|--------|--------|--------|--------|--------|--------|--------|


F#|-----------------|---------------------------------------|-------------------------------------------------|
C#|-----------------|-------------7-------------------------|-------------------------------------------------|
G#|-----------------|-----------------8---1--1--1--1--1--1--|-1--1--3--3--3--3--3--3--3--3--5--5--5--5--5--5--|
C#|-----------------|---------8-----------------------------|-------------------------------------------------|


F#|-------------------------------------------------|-------------------------------------------------|
C#|-------------------------------------------------|-------------------------------------------------|
G#|-5--5--5--5--5--5--3--3--5--3--1--1--1--1--1--1--|-1--1--3--3--3--3--3--3--3--3--5--5--5--5--5--5--|
C#|-------------------------------------------------|-------------------------------------------------|


F#|-------------------------------------------------|-------------------------------------------------|
C#|-------------------------------------------------|-------------------------------------------------|
G#|-5--5--5--5--5--5--5--5--5--5--1--1--1--1--1--1--|-1--1--3--3--3--3--3--3--3--3--5--5--5--5--5--5--|
C#|-------------------------------------------------|-------------------------------------------------|


F#|-------------------------------------------------|-----------------------------------------|
C#|-------------------------------------------------|-----------------------------------------|
G#|-5--5--5--5--5--5--5--5--5--5--5--5--5--5--5--5--|-5--5--5--5--5--5--5--5--3---------------|
C#|-------------------------------------------------|-----------------------------0---0---0---|


F#|---------------------------------|---------------------|--------|
C#|---------------------------------|---------------------|--------|
G#|---------------------------------|---------------------|--------|
C#|-0---0---0---0---0---0---0---0---|-0---0---------------|--------|