Site menu:

    

Browse: 0-9 A B C D E F G H I J K L N O P Q R S T U V W X Y Z

ernst gottlieb baron - concerto in c for lute violin and contrabass:



Title: Concerto In C for Lute, Violin and Contrabass
Artist: 
Album: 
Author: E. G. Baron


Track 1: Violin

E|-3--------3---3---------|-3--------3---3---------|------------------------------|
B|------------------------|------------------------|-1---1---0---1---0--------0---|
G|------------------------|------------------------|------------------------------|
D|------------------------|------------------------|------------------------------|
A|------------------------|------------------------|------------------------------|
E|------------------------|------------------------|------------------------------|


E|-----------------0-----------------|------------------------------|---------------------------------|
B|-1---0---3---1-------3--1--3---0---|-1---0---1---3---0--------1---|-1-------1-------1-------1-------|
G|-----------------------------------|------------------------------|---------------------------------|
D|-----------------------------------|------------------------------|---------------------------------|
A|-----------------------------------|------------------------------|---------------------------------|
E|-----------------------------------|------------------------------|---------------------------------|


E|---------------------------|--------|----------------3---|-3------|-3---2--3--5--3--5--2--3---3--5--7--5--7--3--|
B|-0---1---0----1--1---------|--------|--------------------|--------|---------------------------------------------|
G|---------------------------|--------|--------------------|--------|---------------------------------------------|
D|---------------------------|--------|--------------------|--------|---------------------------------------------|
A|---------------------------|--------|--------------------|--------|---------------------------------------------|
E|---------------------------|--------|--------------------|--------|---------------------------------------------|


E|-2---2--3--5--3--5--2--3---3--5--7--5--7--3--|-2---3--5--2----3--3---------------------|
B|---------------------------------------------|--------------------------------0--------|
G|---------------------------------------------|-----------------------0-----0-----2--0--|
D|---------------------------------------------|--------------------------4--------------|
A|---------------------------------------------|-----------------------------------------|
E|---------------------------------------------|-----------------------------------------|


E|-------------------------------------------0-----|-------------------------------------------------|
B|-------------3--1--0-----0-----1-----3-----------|-3--1--0--------3--5--3--1--3--0--1-----1--0-----|
G|-2--------2-----------2-----0-----0-----0-----0--|----------2--0-----------------------2--------2--|
D|----0--4-----------------------------------------|-------------------------------------------------|
A|-------------------------------------------------|-------------------------------------------------|
E|-------------------------------------------------|-------------------------------------------------|


E|-------------0---1--0--1--0--1--0--1--0--|-1-----------------------1-----1-----1-----1-----|
B|-----------------------------------------|-------0--3-----------3-----1-----1-----1-----1--|
G|-1---------------------------------------|----0--------0-----0-----------------------------|
D|-----2-----------------------------------|----------------0--------------------------------|
A|-----------------------------------------|-------------------------------------------------|
E|-----------------------------------------|-------------------------------------------------|


E|-0--------0-----------0--------------------------|----------------1--0-------------------------|
B|-------1-----1-----1-----3--1--3--1--3--1--3--1--|-3--------0--3--------3--1--0-----0----------|
G|----2-----------2--------------------------------|-------1-----------------------2-----1----2--|
D|-------------------------------------------------|----2----------------------------------------|
A|-------------------------------------------------|---------------------------------------------|
E|-------------------------------------------------|---------------------------------------------|


E|---------0-------0---------|-0-------0-------0---------|-5-------5-------5---------|
B|---------------------------|---------------------------|---------------------------|
G|-2-------------------------|---------------------------|---------------------------|
D|---------------------------|---------------------------|---------------------------|
A|---------------------------|---------------------------|---------------------------|
E|---------------------------|---------------------------|---------------------------|


E|-5-------5-------5---------|-3-------3-------3---------|-3-------3-------3---------|
B|---------------------------|---------------------------|---------------------------|
G|---------------------------|---------------------------|---------------------------|
D|---------------------------|---------------------------|---------------------------|
A|---------------------------|---------------------------|---------------------------|
E|---------------------------|---------------------------|---------------------------|


E|--------|-------------0-----0-----0-----|-0---------------0-----0-----0-----|-0---------0---1--0----------|
B|--------|----------3-----3-----3-----3--|--------------3-----3-----3-----3--|---------------------3----1--|
G|--------|-------------------------------|-----------------------------------|-----------------------------|
D|--------|-------------------------------|-----------------------------------|-----------------------------|
A|--------|-------------------------------|-----------------------------------|-----------------------------|
E|--------|-------------------------------|-----------------------------------|-----------------------------|


E|--------|-3--------3---3---------|-3--------3---3---------|------------------------------|
B|-1------|------------------------|------------------------|-1---1---0---1---0--------0---|
G|--------|------------------------|------------------------|------------------------------|
D|--------|------------------------|------------------------|------------------------------|
A|--------|------------------------|------------------------|------------------------------|
E|--------|------------------------|------------------------|------------------------------|


E|-----------------0-----------------|------------------------------|---------------------------------|
B|-1---0---3---1-------3--1--3---0---|-1---0---1---3---0--------1---|-1-------1-------1-------1-------|
G|-----------------------------------|------------------------------|---------------------------------|
D|-----------------------------------|------------------------------|---------------------------------|
A|-----------------------------------|------------------------------|---------------------------------|
E|-----------------------------------|------------------------------|---------------------------------|


E|---------------------------|--------|----------------3---|-3------|-3---2--3--5--3--5--2--3---3--5--7--5--7--3--|
B|-0---1---0----1--1---------|--------|--------------------|--------|---------------------------------------------|
G|---------------------------|--------|--------------------|--------|---------------------------------------------|
D|---------------------------|--------|--------------------|--------|---------------------------------------------|
A|---------------------------|--------|--------------------|--------|---------------------------------------------|
E|---------------------------|--------|--------------------|--------|---------------------------------------------|


E|-2---2--3--5--3--5--2--3---3--5--7--5--7--3--|-2---3--5--2----3--3---------------------|
B|---------------------------------------------|--------------------------------0--------|
G|---------------------------------------------|-----------------------0-----0-----2--0--|
D|---------------------------------------------|--------------------------4--------------|
A|---------------------------------------------|-----------------------------------------|
E|---------------------------------------------|-----------------------------------------|


E|-------------------------------------------0-----|-------------------------------------------------|
B|-------------3--1--0-----0-----1-----3-----------|-3--1--0--------3--5--3--1--3--0--1-----1--0-----|
G|-2--------2-----------2-----0-----0-----0-----0--|----------2--0-----------------------2--------2--|
D|----0--4-----------------------------------------|-------------------------------------------------|
A|-------------------------------------------------|-------------------------------------------------|
E|-------------------------------------------------|-------------------------------------------------|


E|-------------0---1--0--1--0--1--0--1--0--|-1-----------------------1-----1-----1-----1-----|
B|-----------------------------------------|-------0--3-----------3-----1-----1-----1-----1--|
G|-1---------------------------------------|----0--------0-----0-----------------------------|
D|-----2-----------------------------------|----------------0--------------------------------|
A|-----------------------------------------|-------------------------------------------------|
E|-----------------------------------------|-------------------------------------------------|


E|-0--------0-----------0--------------------------|----------------1--0-------------------------|
B|-------1-----1-----1-----3--1--3--1--3--1--3--1--|-3--------0--3--------3--1--0-----0----------|
G|----2-----------2--------------------------------|-------1-----------------------2-----1----2--|
D|-------------------------------------------------|----2----------------------------------------|
A|-------------------------------------------------|---------------------------------------------|
E|-------------------------------------------------|---------------------------------------------|


E|---------0-------0---------|-0-------0-------0---------|-5-------5-------5---------|
B|---------------------------|---------------------------|---------------------------|
G|-2-------------------------|---------------------------|---------------------------|
D|---------------------------|---------------------------|---------------------------|
A|---------------------------|---------------------------|---------------------------|
E|---------------------------|---------------------------|---------------------------|


E|-5-------5-------5---------|-3-------3-------3---------|-3-------3-------3---------|
B|---------------------------|---------------------------|---------------------------|
G|---------------------------|---------------------------|---------------------------|
D|---------------------------|---------------------------|---------------------------|
A|---------------------------|---------------------------|---------------------------|
E|---------------------------|---------------------------|---------------------------|


E|--------|-------------0-----0-----0-----|-0---------------0-----0-----0-----|-0---------0---1--0----------|
B|--------|----------3-----3-----3-----3--|--------------3-----3-----3-----3--|---------------------3----1--|
G|--------|-------------------------------|-----------------------------------|-----------------------------|
D|--------|-------------------------------|-----------------------------------|-----------------------------|
A|--------|-------------------------------|-----------------------------------|-----------------------------|
E|--------|-------------------------------|-----------------------------------|-----------------------------|


E|--------|--------|--------|--------|-0----0----0----0-------|-0-------------------------|
B|-1------|--------|--------|--------|------------------------|---------0-----------------|
G|--------|--------|--------|--------|------------------------|-----5---------------------|
D|--------|--------|--------|--------|------------------------|-------------7---6----6----|
A|--------|--------|--------|--------|------------------------|---------------------------|
E|--------|--------|--------|--------|--------------------5---|---------------------------|


E|-----------8-----|-10------10--8---7---5---7----|-7----7----8-------8---6---|-5-------5-------8---------------|
B|-----------------|-----10-----------------------|---------------8-----------|-----8-------8-------8---6---5---|
G|-----------------|------------------------------|---------------------------|---------------------------------|
D|-6----7----------|------------------------------|---------------------------|---------------------------------|
A|-----------------|------------------------------|---------------------------|---------------------------------|
E|-----------------|------------------------------|---------------------------|---------------------------------|


E|-----0---1---0-----------------------|-----------------------------|------------------------|
B|-6---------------3---1---0--1--0--1--|-0--1--0---1----1---3---0----|-----1---1--------------|
G|-------------------------------------|-----------------------------|------------------------|
D|-------------------------------------|-----------------------------|------------------------|
A|-------------------------------------|-----------------------------|------------------------|
E|-------------------------------------|-----------------------------|------------------------|


E|------------------------------|-------------------0-------|-------------0---0---------------|
B|---------3---1---0-------0----|-----------------------2---|-1---0---------------3---3---1---|
G|-----2---------------2--------|---------------0-----------|---------2-----------------------|
D|------------------------------|---------------------------|---------------------------------|
A|------------------------------|---------------------------|---------------------------------|
E|------------------------------|---------------------------|---------------------------------|


E|----------------|----------------0----|------0----------|-0------0----|-0----0----0-------0-------|
B|-0------1---3---|-0-------------------|------------3----|-------------|---------------------------|
G|----------------|-------2---2---------|-----------------|-------------|-----------------------5---|
D|----------------|---------------------|-----------------|-------------|---------------------------|
A|----------------|---------------------|-----------------|-------------|---------------------------|
E|----------------|---------------------|-----------------|-------------|---------------5-----------|


E|------------------------|------8-----10------|-10--8---7---5---7----7----|-7----8-------8---6---5-------|
B|-0----------------------|----------------10--|---------------------------|----------8---------------8---|
G|------------------------|--------------------|---------------------------|------------------------------|
D|-----7---6----6----6----|-7------------------|---------------------------|------------------------------|
A|------------------------|--------------------|---------------------------|------------------------------|
E|------------------------|--------------------|---------------------------|------------------------------|


E|-5-------8-------------------0---|-1---0---------------------------------|------------------------|
B|-----8-------8---6---5---6-------|---------3---1---0--1--0--1--0--1--0---|-1----1---3---0-----1---|
G|---------------------------------|---------------------------------------|------------------------|
D|---------------------------------|---------------------------------------|------------------------|
A|---------------------------------|---------------------------------------|------------------------|
E|---------------------------------|---------------------------------------|------------------------|


E|------------------------|---------------------------|--------------0---------------|
B|-1----------------------|-3---1---0-------0---------|------------------2---1---0---|
G|--------------------2---|-------------2-------------|----------0-------------------|
D|------------------------|---------------------------|------------------------------|
A|------------------------|---------------------------|------------------------------|
E|------------------------|---------------------------|------------------------------|


E|-----0---0--------------------|--------------------|--------------0-----|-0----------0----|
B|-------------3---3---1---0----|-------1---3---0----|--------------------|-------3---------|
G|-2----------------------------|--------------------|-----2---2----------|-----------------|
D|------------------------------|--------------------|--------------------|-----------------|
A|------------------------------|--------------------|--------------------|-----------------|
E|------------------------------|--------------------|--------------------|-----------------|


E|-------------|-------------|--------0-------|-0------------0---------|-0-----------------------0---1---|
B|-------------|-------------|------------3---|------1---3--------3----|-------------0---1---3-----------|
G|-------------|-------------|----------------|------------------------|-----0---2-----------------------|
D|-------------|-------------|----------------|------------------------|---------------------------------|
A|-------------|-------------|----------------|------------------------|---------------------------------|
E|-------------|-------------|----------------|------------------------|---------------------------------|


E|-3----------------------------|------------------------|---------------------|---------------------|
B|------3---1---0---------------|-0----3---1---0---------|---------------------|---------------------|
G|------------------2---0---2---|-------------------0----|-0---------0---------|-0---------0---------|
D|------------------------------|------------------------|---------------------|---------------------|
A|------------------------------|------------------------|---------------------|---------------------|
E|------------------------------|------------------------|---------------------|---------------------|


E|---------------------|----------------3----|-2---3---5-----3----|-3----2---0---2----3----|
B|---------------------|---------------------|--------------------|------------------------|
G|---------------------|-0---------0---------|--------------------|------------------------|
D|-4---------4---------|------0--------------|--------------------|------------------------|
A|---------------------|---------------------|--------------------|------------------------|
E|---------------------|---------------------|--------------------|------------------------|


E|-2---3---5-----3----|-3----2-----3----|-3---------0---------------|---------------------|
B|--------------------|-----------------|---------------3---1---0---|------0----1---------|
G|--------------------|-----------------|---------------------------|-2--------------2----|
D|--------------------|-----------------|---------------------------|---------------------|
A|--------------------|-----------------|---------------------------|---------------------|
E|--------------------|-----------------|---------------------------|---------------------|


E|-----------------|--------|--------0-------|-0------------0---------|-0-----------------------0---1---|
B|-----------------|--------|------------3---|------1---3--------3----|-------------0---1---3-----------|
G|------0----------|-0------|-0--------------|------------------------|-----0---2-----------------------|
D|-4----------4----|--------|----------------|------------------------|---------------------------------|
A|-----------------|--------|----------------|------------------------|---------------------------------|
E|-----------------|--------|----------------|------------------------|---------------------------------|


E|-3----------------------------|------------------------|---------------------|---------------------|
B|------3---1---0---------------|-0----3---1---0---------|---------------------|---------------------|
G|------------------2---0---2---|-------------------0----|-0---------0---------|-0---------0---------|
D|------------------------------|------------------------|---------------------|---------------------|
A|------------------------------|------------------------|---------------------|---------------------|
E|------------------------------|------------------------|---------------------|---------------------|


E|---------------------|----------------3----|-2---3---5-----3----|-3----2---0---2----3----|
B|---------------------|---------------------|--------------------|------------------------|
G|---------------------|-0---------0---------|--------------------|------------------------|
D|-4---------4---------|------0--------------|--------------------|------------------------|
A|---------------------|---------------------|--------------------|------------------------|
E|---------------------|---------------------|--------------------|------------------------|


E|-2---3---5-----3----|-3----2-----3----|-3---------0---------------|---------------------|
B|--------------------|-----------------|---------------3---1---0---|------0----1---------|
G|--------------------|-----------------|---------------------------|-2--------------2----|
D|--------------------|-----------------|---------------------------|---------------------|
A|--------------------|-----------------|---------------------------|---------------------|
E|--------------------|-----------------|---------------------------|---------------------|


E|-----------------|--------|----------------|---------------------------------|-----------------|
B|-----------------|--------|----------------|-0-------0---3---0-------0---3---|-0---------------|
G|------0----------|-0------|-0------0---2---|-----0---------------0-----------|-----------------|
D|-4----------4----|--------|----------------|---------------------------------|-----------------|
A|-----------------|--------|----------------|---------------------------------|-----------------|
E|-----------------|--------|----------------|---------------------------------|-----------------|


E|-------0---------------|-----------------0-----------0---|-5--------------0----|
B|-----------3---1---3---|-0-----------0-----------1-------|---------------------|
G|-----------------------|---------1-----------2-----------|------2--------------|
D|-----------------------|-----2---------------------------|---------------------|
A|-----------------------|---------------------------------|---------------------|
E|-----------------------|---------------------------------|---------------------|


E|-5--------------0----|---------------------|-------------|--------|--------|--------|
B|---------------------|---------------------|-------------|--------|--------|--------|
G|------2--------------|-1----2----1-----2---|-2-----------|--------|--------|--------|
D|---------------------|---------------------|-------------|--------|--------|--------|
A|---------------------|---------------------|-------------|--------|--------|--------|
E|---------------------|---------------------|-------------|--------|--------|--------|


E|-----------------|---------------------|---------------------|-1----0--------------|
B|------------1----|-1---------1---------|-1---------1---------|-----------3-----1---|
G|-----------------|---------------------|---------------------|---------------------|
D|-----------------|---------------------|---------------------|---------------------|
A|-----------------|---------------------|---------------------|---------------------|
E|-----------------|---------------------|---------------------|---------------------|


E|----------------|---------------------------------|-----------------|-------0---------------|
B|-1--------------|-0-------0---3---0-------0---3---|-0---------------|-----------3---1---3---|
G|--------0---2---|-----0---------------0-----------|-----------------|-----------------------|
D|----------------|---------------------------------|-----------------|-----------------------|
A|----------------|---------------------------------|-----------------|-----------------------|
E|----------------|---------------------------------|-----------------|-----------------------|


E|-----------------0-----------0---|-5--------------0----|-5--------------0----|---------------------|
B|-0-----------0-----------1-------|---------------------|---------------------|---------------------|
G|---------1-----------2-----------|------2--------------|------2--------------|-1----2----1-----2---|
D|-----2---------------------------|---------------------|---------------------|---------------------|
A|---------------------------------|---------------------|---------------------|---------------------|
E|---------------------------------|---------------------|---------------------|---------------------|


E|-------------|--------|--------|--------|-----------------|---------------------|
B|-------------|--------|--------|--------|------------1----|-1---------1---------|
G|-2-----------|--------|--------|--------|-----------------|---------------------|
D|-------------|--------|--------|--------|-----------------|---------------------|
A|-------------|--------|--------|--------|-----------------|---------------------|
E|-------------|--------|--------|--------|-----------------|---------------------|


E|---------------------|-1----0--------------|-------------|
B|-1---------1---------|-----------3-----1---|-1-----------|
G|---------------------|---------------------|-------------|
D|---------------------|---------------------|-------------|
A|---------------------|---------------------|-------------|
E|---------------------|---------------------|-------------|





Track 2: Guitar

E|-------------------------------------------------|-------------------------------------------0--1--|
B|-1--0--1-----1--0--1-----5--3--1--0--1--------0--|-1--0--1-----1--0--1-----5--3--1--0--1--3--------|
G|----------0-----------0-----------------0--2-----|----------0-----------0--------------------------|
D|-------------------------------------------------|-------------------------------------------------|
A|-3-----------3-----------3-----------------------|-3-----------3-----------3-----------------------|
E|-------------------------------------------------|-------------------------------------------------|


E|----3-----3-----1-----0---------------|-0-------1---0---3---1--0--1-------|-0-------0---1---------3---|
B|-------------------------3--------3---|-----3-------------------------3---|-----3-----------3---------|
G|-----------------------------0--------|-----------------------------------|---------------------------|
D|-------------0------------------------|-----------------------------------|---------------------------|
A|-------------------3------------------|-----------------------------------|-3-------3-----------------|
E|-0-----0-----------------3--------3---|-3-----------3---3---------3-------|-----------------3-----0---|


E|-5--3--5--1--3--1--3--0--5--3--5--1--3--1--3--0--|-1---0-----------------------0---|
B|-------------------------------------------------|---------3----1--1---------------|
G|-------------------------------------------------|---------------------------------|
D|-------------------------------------------------|-0-------------------0-----------|
A|-------------------------------------------------|-----3-----------3-----------3---|
E|-1-----------0-----------1-----------0-----------|---------3---------------0-------|


E|-------------------0-----------------------------|----------------3-----3--2---0--2------3---|
B|-3-----3-----3-----------3--1--0-----------0--1--|----3-----3------------------------3-------|
G|----0-----0-----0-----0-----------2--0--2--------|-------------------------------------------|
D|-------------------------------------------------|-------------------------0-----------------|
A|-2-----------------3-----------------------------|-2-----0-----2-------------------------2---|
E|-------------------------3-----------------------|-------------------3-----------------------|


E|-------------------------------------------------|---------------------------------------------|
B|-5--3-----5--3--------3--1--0-----1--0--------0--|-----------1--0--1-----0---0--1--3--1--3--0--|
G|-------5--------5--4-----------2--------2--0-----|-2---2--4-----------2------------------------|
D|-------------------------------------------------|-0---------------------0---------------------|
A|-3-----------2-----------0-----------------------|---------------------------------------------|
E|-------------------------------------3-----------|---------------------------------------------|


E|---------------------------------------------|-----------------------------------|
B|-----------1--0--1-----0---0--1--3--1--3--0--|-----0--1--------------------------|
G|-2---2--4-----------2------------------------|-2---------2----0--0---0---0---0---|
D|-0---------------------0---------------------|-0---------0-------0---0---0---0---|
A|---------------------------------------------|-----------------------------------|
E|---------------------------------------------|-----3-------------3---3---3---3---|


E|-----------------------------0---|-------0---0---0-----------|-0-----------0---1---1---1---1---|
B|-----------------0---1---3-------|-3-----0---1---0-------0---|-0---------------3---3---3---3---|
G|-2---2---2---2---0---0---4---4---|-4-------------1---2-------|-1-----------2---2---2---2---2---|
D|-0---0---0---0-------------------|-------------------3---3---|-----0-----------0---0---0---0---|
A|---------------------0---2---3---|-----------0-----------5---|-------------3-------------------|
E|-2---2---2---2---3---------------|-3-----4-------0---1-------|-0-------0-----------------------|


E|-1----1----0---0---0---0---|-0----0--------------------|---------------------------------|
B|-3----3----0---0---0---0---|-----------3---3---3---3---|-3---3---3---3---1---0---0---0---|
G|-4----4--------------------|-2----2----2---2---2---2---|-1---1---4---4---2-------2---1---|
D|---------------------------|---------------------------|---------------------3-----------|
A|-----------3---3---3---3---|-----------2---2---2---2---|-----------------0---------------|
E|-3----3--------------------|-1----1--------------------|-0---0---4---4-------0---0---0---|


E|-------------------------------------------------|-------------------------------------------|
B|-------------0-----------1-----------------------|-------------0-----------1--0----------2---|
G|-2--------------------------4--2--1--2--------1--|-2-----------------------------2-----------|
D|----2--2--2-----2--2--2-----------------2--4-----|----2--2--2-----2--2--2--------------------|
A|-0-----------------------0-----------------------|-0-----------------------0-----------------|
E|-------------4-----------------------------------|-------------4---------------------3-------|


E|-------------0-----------1--0--------------------|-------------0-----------1--0--------------|
B|-3-----------------------------3--2--3-----0--2--|-3-----------------------------3-------0---|
G|----2--2--2-----2--2--2-----------------2--------|----2--2--2-----2--2--2--------------------|
D|-------------------------0-----------------------|-------------------------0-----------------|
A|-------------4-----------------------------------|-------------4-----------------------------|
E|-1-----------------------------------------------|-1---------------------------------1-------|


E|-------------------------0-----------------------|-------------------------0-----------3---|
B|-1--0--1-----3--1--3--------3--1--0--1--------0--|-1--0--1-----1--0--1---------1---1-------|
G|----------0-----------0-----------------0--2-----|----------------------0------------------|
D|-------------------------------------0-----------|----------2------------------0-----------|
A|-------------2-----------3-----------------------|-------------2-----------3-----------3---|
E|-0-----------------------------------------------|-0-------------------------------0-------|


E|-5-----0--1--3--------0--1--0--------------------|-----------------------------------------|
B|----3-----------1--3-----------3--1--0--------0--|-1---3--------1--1--0--1--0--1--0--1--0--|
G|----------------------------------------0--2-----|---------4-------------------------------|
D|-------------------------0-----------------------|-----------------------------------------|
A|-------------------------------------------------|-0---------------3-----------------------|
E|-1-----------0-----------------------3-----------|-----0---3-------------------------------|


E|-----------------------------------------|-----------------------------------------|
B|-1-----------0---1--------0--1--0--1--0--|-1--------0--1--------0--1---3--------1--|
G|-----0---2----------0--2-----------------|----0--2--------0--2-------------4-------|
D|-----------------------------------------|-----------------------------------------|
A|-3---------------------------3-----------|-3-----------------------0---------------|
E|-----------------------------------------|-----------------------------1---1-------|


E|--------|-------------------------------------------------|-------------------------------------------0--1--|
B|-1------|-1--0--1-----1--0--1-----5--3--1--0--1--------0--|-1--0--1-----1--0--1-----5--3--1--0--1--3--------|
G|-0------|----------0-----------0-----------------0--2-----|----------0-----------0--------------------------|
D|-2------|-------------------------------------------------|-------------------------------------------------|
A|-3------|-3-----------3-----------3-----------------------|-3-----------3-----------3-----------------------|
E|--------|-------------------------------------------------|-------------------------------------------------|


E|----3-----3-----1-----0---------------|-0-------1---0---3---1--0--1-------|-0-------0---1---------3---|
B|-------------------------3--------3---|-----3-------------------------3---|-----3-----------3---------|
G|-----------------------------0--------|-----------------------------------|---------------------------|
D|-------------0------------------------|-----------------------------------|---------------------------|
A|-------------------3------------------|-----------------------------------|-3-------3-----------------|
E|-0-----0-----------------3--------3---|-3-----------3---3---------3-------|-----------------3-----0---|


E|-5--3--5--1--3--1--3--0--5--3--5--1--3--1--3--0--|-1---0-----------------------0---|
B|-------------------------------------------------|---------3----1--1---------------|
G|-------------------------------------------------|---------------------------------|
D|-------------------------------------------------|-0-------------------0-----------|
A|-------------------------------------------------|-----3-----------3-----------3---|
E|-1-----------0-----------1-----------0-----------|---------3---------------0-------|


E|-------------------0-----------------------------|----------------3-----3--2---0--2------3---|
B|-3-----3-----3-----------3--1--0-----------0--1--|----3-----3------------------------3-------|
G|----0-----0-----0-----0-----------2--0--2--------|-------------------------------------------|
D|-------------------------------------------------|-------------------------0-----------------|
A|-2-----------------3-----------------------------|-2-----0-----2-------------------------2---|
E|-------------------------3-----------------------|-------------------3-----------------------|


E|-------------------------------------------------|---------------------------------------------|
B|-5--3-----5--3--------3--1--0-----1--0--------0--|-----------1--0--1-----0---0--1--3--1--3--0--|
G|-------5--------5--4-----------2--------2--0-----|-2---2--4-----------2------------------------|
D|-------------------------------------------------|-0---------------------0---------------------|
A|-3-----------2-----------0-----------------------|---------------------------------------------|
E|-------------------------------------3-----------|---------------------------------------------|


E|---------------------------------------------|-----------------------------------|
B|-----------1--0--1-----0---0--1--3--1--3--0--|-----0--1--------------------------|
G|-2---2--4-----------2------------------------|-2---------2----0--0---0---0---0---|
D|-0---------------------0---------------------|-0---------0-------0---0---0---0---|
A|---------------------------------------------|-----------------------------------|
E|---------------------------------------------|-----3-------------3---3---3---3---|


E|-----------------------------0---|-------0---0---0-----------|-0-----------0---1---1---1---1---|
B|-----------------0---1---3-------|-3-----0---1---0-------0---|-0---------------3---3---3---3---|
G|-2---2---2---2---0---0---4---4---|-4-------------1---2-------|-1-----------2---2---2---2---2---|
D|-0---0---0---0-------------------|-------------------3---3---|-----0-----------0---0---0---0---|
A|---------------------0---2---3---|-----------0-----------5---|-------------3-------------------|
E|-2---2---2---2---3---------------|-3-----4-------0---1-------|-0-------0-----------------------|


E|-1----1----0---0---0---0---|-0----0--------------------|---------------------------------|
B|-3----3----0---0---0---0---|-----------3---3---3---3---|-3---3---3---3---1---0---0---0---|
G|-4----4--------------------|-2----2----2---2---2---2---|-1---1---4---4---2-------2---1---|
D|---------------------------|---------------------------|---------------------3-----------|
A|-----------3---3---3---3---|-----------2---2---2---2---|-----------------0---------------|
E|-3----3--------------------|-1----1--------------------|-0---0---4---4-------0---0---0---|


E|-------------------------------------------------|-------------------------------------------|
B|-------------0-----------1-----------------------|-------------0-----------1--0----------2---|
G|-2--------------------------4--2--1--2--------1--|-2-----------------------------2-----------|
D|----2--2--2-----2--2--2-----------------2--4-----|----2--2--2-----2--2--2--------------------|
A|-0-----------------------0-----------------------|-0-----------------------0-----------------|
E|-------------4-----------------------------------|-------------4---------------------3-------|


E|-------------0-----------1--0--------------------|-------------0-----------1--0--------------|
B|-3-----------------------------3--2--3-----0--2--|-3-----------------------------3-------0---|
G|----2--2--2-----2--2--2-----------------2--------|----2--2--2-----2--2--2--------------------|
D|-------------------------0-----------------------|-------------------------0-----------------|
A|-------------4-----------------------------------|-------------4-----------------------------|
E|-1-----------------------------------------------|-1---------------------------------1-------|


E|-------------------------0-----------------------|-------------------------0-----------3---|
B|-1--0--1-----3--1--3--------3--1--0--1--------0--|-1--0--1-----1--0--1---------1---1-------|
G|----------0-----------0-----------------0--2-----|----------------------0------------------|
D|-------------------------------------0-----------|----------2------------------0-----------|
A|-------------2-----------3-----------------------|-------------2-----------3-----------3---|
E|-0-----------------------------------------------|-0-------------------------------0-------|


E|-5-----0--1--3--------0--1--0--------------------|-----------------------------------------|
B|----3-----------1--3-----------3--1--0--------0--|-1---3--------1--1--0--1--0--1--0--1--0--|
G|----------------------------------------0--2-----|---------4-------------------------------|
D|-------------------------0-----------------------|-----------------------------------------|
A|-------------------------------------------------|-0---------------3-----------------------|
E|-1-----------0-----------------------3-----------|-----0---3-------------------------------|


E|-----------------------------------------|-----------------------------------------|
B|-1-----------0---1--------0--1--0--1--0--|-1--------0--1--------0--1---3--------1--|
G|-----0---2----------0--2-----------------|----0--2--------0--2-------------4-------|
D|-----------------------------------------|-----------------------------------------|
A|-3---------------------------3-----------|-3-----------------------0---------------|
E|-----------------------------------------|-----------------------------1---1-------|


E|--------|--------|--------|--------|---------------------|----------------7----|
B|-1------|--------|--------|--------|-1----1----1----1----|---------------------|
G|-0------|--------|--------|--------|---------------------|---------------------|
D|-2------|--------|--------|--------|---------------------|------0--------------|
A|-3------|--------|--------|--------|-0----0----0----0----|-3-------------------|
E|--------|--------|--------|--------|---------------------|-----------0----0----|


E|-7----8-------5-----------0---|-1--------------3-------|-3---1-----------0---------|
B|----------5-------8---6-------|-3------------------3---|---------5---3-------------|
G|------------------------------|-2----------------------|---------------------------|
D|------------------------------|-0---------0------------|---------------------------|
A|------0---------------0-------|------------------------|-----------------3---------|
E|-0----------------------------|------1---------3-------|---------3------------0----|


E|------8---6---8---6---5---3---|-5---3---5---3---1---0---1---0---|-1---3---0----0---1--------|
B|------------------------------|---------------------------------|----------------------3----|
G|------------------------------|---------------------------------|---------------------------|
D|------3-----------------------|---------------------------------|---------------------------|
A|-3--------------------3-------|---------------------------------|---------0-----------------|
E|------1-----------------------|-1-----------------------3-------|-3------------1-------3----|


E|------------------------|-----------------|-----------0---------|------------------------------|
B|-----1---1----2----2----|-3---------------|-3----3--------------|----------1---1---------------|
G|---------0----2----2----|-2---------------|---------------------|------------------4---4---2---|
D|---------2--------------|-------0---------|---------------------|----------------------0-------|
A|---------3--------------|-----------------|-2---------3---------|-3----------------------------|
E|--------------3----3----|-1----------3----|------3---------0----|------1-----------------------|


E|----------------|---------------------|-----------------|-------------|---------------------|
B|------------0---|----------------0----|-----------------|--------1----|-1----1----1---------|
G|-1------2-------|-0-----2---2---------|------2-----2----|-1-----------|---------------------|
D|------------0---|---------------------|-----------------|-------------|---------------------|
A|--------0-------|-----------0---------|-----------------|--------0----|-0----0----0----3----|
E|-0--------------|-0--------------3----|------1----------|-0-----------|---------------------|


E|-----------7----7----|-8-------5-----------0---1----|-----------3-------3---1---|
B|---------------------|-----5-------8---6-------3----|---------------3-----------|
G|---------------------|-------------------------2----|---------------------------|
D|-0-------------------|-------------------------0----|------0--------------------|
A|---------------------|-0---------------0------------|---------------------------|
E|------0----0----0----|------------------------------|-1---------3---------------|


E|---------0--------------|-8---6---8---6---5---3---5---3---|-5---3---1---0---1---0---1---3---|
B|-5---3------------------|---------------------------------|---------------------------------|
G|------------------------|---------------------------------|---------------------------------|
D|------------------------|-3-------------------------------|---------------------------------|
A|---------3---------3----|-----------------3---------------|---------------------------------|
E|-3------------0---------|-1-----------------------1-------|-----------------3-------3-------|


E|-0----0---1-------------|---------------------|---------------------|------0--------------|
B|--------------3-----1---|-1----2----2----3----|----------------3----|-3-------------------|
G|------------------------|-0----2----2----2----|---------------------|---------------------|
D|------------------------|-2-------------------|------0--------------|---------------------|
A|-0----------------------|-3-------------------|----------------2----|------3---------3----|
E|------1-------3---------|------3----3----1----|-----------3---------|-3---------0---------|


E|------------------------------|--------------------|--------------------|-----------------|
B|-----1---1--------------------|-----------0--------|--------------0-----|-----------------|
G|-------------4---4---2---1----|-------2-------0----|-----2---2----------|-2-----2----1----|
D|-----------------0------------|-----------0--------|--------------------|-----------------|
A|------------------------------|-------0------------|---------0----------|-----------------|
E|-1-----------------------0----|---------------0----|--------------3-----|-1----------0----|


E|--------|--------|----------------|---------------------|---------------------|---------------------------|
B|--------|--------|--------1---0---|-1--------------0----|-1--------------1----|-3-----------------0---1---|
G|--------|--------|----------------|------0----0---------|------0----0---------|------0----0---2-----------|
D|--------|--------|----------------|---------------------|---------------------|---------------------------|
A|--------|--------|----------------|-3-------------------|-3--------------3----|-2-------------------------|
E|--------|--------|----------------|----------------3----|---------------------|---------------------------|


E|---------------------|-0---------------0-------0-------|---------------------------------|
B|-3--------------3----|-----1---0---1-------1-------1---|-3---0-------0---3---0---3---3---|
G|------0----0---------|---------------------------------|---------2-----------------------|
D|---------------------|---------------------------------|---------------------------------|
A|----------------2----|-3-----------------------3-------|-2-----------------------2-------|
E|-3-------------------|---------------------------------|---------------------------------|


E|---------------------------------|-----------------------|------------------------|
B|-3---------------1-------1-------|-0----------------0----|---------1----1----0----|
G|-----2---0---2-------2-------2---|-------2--4--0---------|-2---4------------------|
D|-------------------------0-------|-----------------------|-0----------------------|
A|-0-------------------------------|-----------------------|------------------------|
E|---------------------------------|-3----------------3----|-------------------3----|


E|---------------------|---------------------|------------------------|---------------------|
B|-0--------------0----|-0--------------0----|-----0---1----1----0----|-0--------------3----|
G|------2----2---------|------2----2---------|-2----------------------|------2----2---------|
D|-0-------------------|-0-------------------|-0----------------------|-0-------------------|
A|---------------------|---------------------|------------------------|----------------2----|
E|----------------3----|----------------3----|-------------------3----|---------------------|


E|-0-------------------------------|---------------------------------|------------------------|
B|-----3---1---0---1---0-----------|-------------------------0-------|-1-------0--------------|
G|-------------------------2---0---|---------0-------2---------------|-----2--------2---------|
D|---------------------------------|-4---0-------0-------0-------0---|-0-----------------4----|
A|-3-------------------------------|-5-------------------------------|--------------3----3----|
E|---------------------------------|-------------------------3-------|---------3--------------|


E|------------------------|---------------------|---------------------|---------------------------|
B|----------------1---0---|-1--------------0----|-1--------------1----|-3-----------------0---1---|
G|------------------------|------0----0---------|------0----0---------|------0----0---2-----------|
D|-5---------5------------|---------------------|---------------------|---------------------------|
A|-5---------5------------|-3-------------------|-3--------------3----|-2-------------------------|
E|------3-----------------|----------------3----|---------------------|---------------------------|


E|---------------------|-0---------------0-------0-------|---------------------------------|
B|-3--------------3----|-----1---0---1-------1-------1---|-3---0-------0---3---0---3---3---|
G|------0----0---------|---------------------------------|---------2-----------------------|
D|---------------------|---------------------------------|---------------------------------|
A|----------------2----|-3-----------------------3-------|-2-----------------------2-------|
E|-3-------------------|---------------------------------|---------------------------------|


E|---------------------------------|-----------------------|------------------------|
B|-3---------------1-------1-------|-0----------------0----|---------1----1----0----|
G|-----2---0---2-------2-------2---|-------2--4--0---------|-2---4------------------|
D|-------------------------0-------|-----------------------|-0----------------------|
A|-0-------------------------------|-----------------------|------------------------|
E|---------------------------------|-3----------------3----|-------------------3----|


E|---------------------|---------------------|------------------------|---------------------|
B|-0--------------0----|-0--------------0----|-----0---1----1----0----|-0--------------3----|
G|------2----2---------|------2----2---------|-2----------------------|------2----2---------|
D|-0-------------------|-0-------------------|-0----------------------|-0-------------------|
A|---------------------|---------------------|------------------------|----------------2----|
E|----------------3----|----------------3----|-------------------3----|---------------------|


E|-0-------------------------------|---------------------------------|------------------------|
B|-----3---1---0---1---0-----------|-------------------------0-------|-1-------0--------------|
G|-------------------------2---0---|---------0-------2---------------|-----2--------2---------|
D|---------------------------------|-4---0-------0-------0-------0---|-0-----------------4----|
A|-3-------------------------------|-5-------------------------------|--------------3----3----|
E|---------------------------------|-------------------------3-------|---------3--------------|


E|------------------------|---------------------|---------------------------------|
B|----------------0---1---|-3----3----3----3----|-3---0---3---0-------0---1---3---|
G|------------------------|---------------------|-----------------0---------------|
D|-5---------5------------|---------------------|---------------------------------|
A|-5---------5------------|---------------------|---------------------------------|
E|------3-----------------|-3----3----3----3----|-3-------------------------------|


E|-0---1---------------------------|----------------0----|-1---0-------1---0-----------0---|
B|---------5---3---1---0-------0---|---------------------|---------3---------------1-------|
G|-------------------------2-------|-1-------------------|---------------------2-----------|
D|-------------------------0-------|------2----2---------|-0-------------------------------|
A|-3-------------------------------|----------------3----|-----------------3---------------|
E|---------------------------------|-0-------------------|---------------------------------|


E|-1---0-------1---0-----------0---|---------------------------|---------------------|
B|---------3---------------1-------|-3---5---1---3-------------|---------------------|
G|---------------------2-----------|-----------------4-----2---|-2-------------------|
D|-0-------------------------------|---------------------------|-3-------------------|
A|-----------------3---------------|---------------------------|-0---------0----3----|
E|---------------------------------|---------------------------|------0--------------|


E|---------------------------------|-------------------------0---1---|-3----1---0-------------------|
B|-----3-------3-------3-------3---|-5---3---------------3-----------|--------------3---5---1---3---|
G|---------------------------------|---------5---4---5---------------|------------------------------|
D|---------------------------------|-----------------------------0---|------------------------------|
A|-2-------0-------2---------------|-3-----------------------3-------|------------------------------|
E|-------------------------3-------|---------------------------------|-0------------1---------------|


E|------------------------|---------------------------------|---------------------------------|
B|-0----------------------|-----1---0---1-------1---0---1---|-----1---0---1-------1---0---1---|
G|------2---4---0----0----|-2---------------2---------------|-0---------------0---------------|
D|------------------------|---------------------------------|---------------------------------|
A|------------------------|---------------------------------|---------------------------------|
E|-3-----------------0----|-1---------------1---------------|-0---------------0---------------|


E|---------------------|------------------------|---------------------|---------------------------------|
B|-3----1----------1---|-1--------------0---1---|-3----3----3----3----|-3---0---3---0-------0---1---3---|
G|-----------4---------|------------------------|---------------------|-----------------0---------------|
D|---------------------|------------------------|---------------------|---------------------------------|
A|-2----3--------------|-----------3------------|---------------------|---------------------------------|
E|-----------3---------|------3-----------------|-3----3----3----3----|-3-------------------------------|


E|-0---1---------------------------|----------------0----|-1---0-------1---0-----------0---|
B|---------5---3---1---0-------0---|---------------------|---------3---------------1-------|
G|-------------------------2-------|-1-------------------|---------------------2-----------|
D|-------------------------0-------|------2----2---------|-0-------------------------------|
A|-3-------------------------------|----------------3----|-----------------3---------------|
E|---------------------------------|-0-------------------|---------------------------------|


E|-1---0-------1---0-----------0---|---------------------------|---------------------|
B|---------3---------------1-------|-3---5---1---3-------------|---------------------|
G|---------------------2-----------|-----------------4-----2---|-2-------------------|
D|-0-------------------------------|---------------------------|-3-------------------|
A|-----------------3---------------|---------------------------|-0---------0----3----|
E|---------------------------------|---------------------------|------0--------------|


E|---------------------------------|-------------------------0---1---|-3----1---0-------------------|
B|-----3-------3-------3-------3---|-5---3---------------3-----------|--------------3---5---1---3---|
G|---------------------------------|---------5---4---5---------------|------------------------------|
D|---------------------------------|-----------------------------0---|------------------------------|
A|-2-------0-------2---------------|-3-----------------------3-------|------------------------------|
E|-------------------------3-------|---------------------------------|-0------------1---------------|


E|------------------------|---------------------------------|---------------------------------|
B|-0----------------------|-----1---0---1-------1---0---1---|-----1---0---1-------1---0---1---|
G|------2---4---0----0----|-2---------------2---------------|-0---------------0---------------|
D|------------------------|---------------------------------|---------------------------------|
A|------------------------|---------------------------------|---------------------------------|
E|-3-----------------0----|-1---------------1---------------|-0---------------0---------------|


E|---------------------|---------------------|
B|-3----1----------1---|-1-------------------|
G|-----------4---------|---------------------|
D|---------------------|---------------------|
A|-2----3--------------|-----------3---------|
E|-----------3---------|------3--------------|





Track 3: Contrabass

G|---------------------|---------------------|------------------------------|--------|
D|---------------------|-----------------0---|-2---2---0--------------------|--------|
A|-3----2----3---------|-3----2----3---------|-------------3----------------|--------|
E|---------------------|---------------------|-----------------3--------3---|-3------|


G|---------------------------|---------------------|---------0-----------------------|
D|---------------------------|---------------------|-0-------------------0---2-------|
A|-3----3--------------------|---------------------|-----3-----------3-----------3---|
E|-----------3---1---3---0---|-1----0----1----0----|-------------3-------------------|


G|---------------------------|------------------------------|---------------------|
D|---------------------------|-----------------0------------|---------------------|
A|-2--------3------------0---|-2---0---2--------------------|-3----2----0---------|
E|--------------3------------|-------------3------------3---|----------------3----|


G|--------|--------|-----0---------------------------|---------------------------------|
D|-0------|-0------|-0-------0---0-------------------|---------------------------------|
A|--------|--------|---------------------------------|---------------------0---2---3---|
E|--------|--------|-----------------3---3---3---3---|-2---2---2---2---3---------------|


G|------------------------------|---------------------------------|-0-------------------------|
D|------------------2---3---0---|-2---0---2-------0---0---0---0---|---------------------------|
A|--------------0---------------|-------------3-------------------|-----------3---3---3---3---|
E|-3--------4-------------------|---------------------------------|------3--------------------|


G|---------------------------|---------1---1---2---------------|---------------------|
D|-3-------------------------|-2---2---------------0---2-------|---------------------|
A|-----------2---2---2---2---|---------------------------------|-0---------0---------|
E|------1--------------------|-----------------------------0---|------4--------------|


G|---------------------|---------------------|---------------------|---------------------|
D|---------------------|-----------0---------|-3---------0----3----|-2---------------0---|
A|-0---------0---------|------4--------------|------4--------------|------2----3---------|
E|------4---------3----|-1-------------------|---------------------|---------------------|


G|---------------------------|---------------------|-------------0-------------|---------------------|
D|-2-------------0---2-------|-3----2----0---------|---------------------------|---------------------|
A|------2----3-----------3---|---------------------|-0---------------3---------|-3---------3---------|
E|---------------------------|----------------3----|-----1---3-----------------|---------------------|


G|-----------2-------0-------|--------|---------------------|---------------------|
D|---------------3-----------|--------|---------------------|-----------------0---|
A|-3-------------------------|-3------|-3----2----3---------|-3----2----3---------|
E|-----------------------3---|--------|---------------------|---------------------|


G|------------------------------|--------|---------------------------|---------------------|
D|-2---2---0--------------------|--------|---------------------------|---------------------|
A|-------------3----------------|--------|-3----3--------------------|---------------------|
E|-----------------3--------3---|-3------|-----------3---1---3---0---|-1----0----1----0----|


G|---------0-----------------------|---------------------------|------------------------------|
D|-0-------------------0---2-------|---------------------------|-----------------0------------|
A|-----3-----------3-----------3---|-2--------3------------0---|-2---0---2--------------------|
E|-------------3-------------------|--------------3------------|-------------3------------3---|


G|---------------------|--------|--------|-----0---------------------------|---------------------------------|
D|---------------------|-0------|-0------|-0-------0---0-------------------|---------------------------------|
A|-3----2----0---------|--------|--------|---------------------------------|---------------------0---2---3---|
E|----------------3----|--------|--------|-----------------3---3---3---3---|-2---2---2---2---3---------------|


G|------------------------------|---------------------------------|-0-------------------------|
D|------------------2---3---0---|-2---0---2-------0---0---0---0---|---------------------------|
A|--------------0---------------|-------------3-------------------|-----------3---3---3---3---|
E|-3--------4-------------------|---------------------------------|------3--------------------|


G|---------------------------|---------1---1---2---------------|---------------------|
D|-3-------------------------|-2---2---------------0---2-------|---------------------|
A|-----------2---2---2---2---|---------------------------------|-0---------0---------|
E|------1--------------------|-----------------------------0---|------4--------------|


G|---------------------|---------------------|---------------------|---------------------|
D|---------------------|-----------0---------|-3---------0----3----|-2---------------0---|
A|-0---------0---------|------4--------------|------4--------------|------2----3---------|
E|------4---------3----|-1-------------------|---------------------|---------------------|


G|---------------------------|---------------------|-------------0-------------|---------------------|
D|-2-------------0---2-------|-3----2----0---------|---------------------------|---------------------|
A|------2----3-----------3---|---------------------|-0---------------3---------|-3---------3---------|
E|---------------------------|----------------3----|-----1---3-----------------|---------------------|


G|-----------2-------0-------|--------|--------|--------|--------|-2----2----2----2----|
D|---------------3-----------|--------|--------|--------|--------|---------------------|
A|-3-------------------------|-3------|--------|--------|--------|---------------------|
E|-----------------------3---|--------|--------|--------|--------|---------------------|


G|---------------------|------2--------------|----------------0----|---------------------|
D|------0----2----2----|-2-------------------|-0----3----0---------|----------------2----|
A|-3-------------------|----------------0----|---------------------|-----------3---------|
E|---------------------|---------------------|---------------------|------3--------------|


G|---------------------|----------------0----|---------------------|---------------------|
D|------3--------------|-3-------------------|---------------------|---------------------|
A|-3-------------------|---------------------|------0--------------|------3--------------|
E|---------------------|---------------------|-3---------1----1----|-----------3----3----|


G|---------------------|---------------------|---------------------|--------2-------|
D|---------------------|----------------2----|------3---------0----|-2----------0---|
A|---------------------|-2---------3---------|-3-------------------|----------------|
E|-1--------------3----|------3--------------|---------------------|----------------|


G|---------------------|-------------|--------2----|-2----2----2---------|---------------------|
D|-2-------------------|-------------|-------------|---------------------|-0----2----2----2----|
A|-----------0---------|-------------|-------------|----------------3----|---------------------|
E|------0---------3----|------1------|-0-----------|---------------------|---------------------|


G|-2-------------------|-----------0---------|---------------------|---------------------|
D|----------------0----|-3----0--------------|-----------2---------|-3--------------3----|
A|-----------0---------|---------------------|------3---------3----|---------------------|
E|---------------------|---------------------|-3-------------------|---------------------|


G|-----------0---------|-----------------|---------------------|---------------------|
D|---------------------|-----------------|---------------------|---------------------|
A|---------------------|-0---------------|-3-------------------|----------------2----|
E|----------------3----|------1----1-----|------3----3----1----|-----------3---------|


G|---------------------|---------------------|-------2------------|-----------------|
D|-----------2---------|-3---------0----2----|-----------0---2----|-----------------|
A|------3---------3----|---------------------|--------------------|------0----------|
E|-3-------------------|---------------------|--------------------|-0---------3-----|


G|-------------|--------|--------|-------------|---------------------|---------------------|
D|-------------|--------|--------|-------------|---------------------|---------------------|
A|-------------|--------|--------|-------------|-3-------------------|-3--------------3----|
E|-1------0----|--------|--------|-------------|----------------3----|---------------------|


G|---------------------|---------------------|---------------------|---------------------|
D|---------------------|---------------------|---------------------|---------------------|
A|-2--------------0----|----------------2----|-3---------3---------|-2---------2---------|
E|---------------------|-3-------------------|---------------------|---------------------|


G|---------------------|---------------------|------------0----|------------0----|
D|-----------0---------|---------------------|-0---------------|-0---------------|
A|-0-------------------|---------------------|-----------------|-----------------|
E|---------------------|-3---------3---------|-----------------|-----------------|


G|------------0----|-----------------|-------------|-------------|------0--------------|
D|-0---------------|-0---------------|-------------|-0-----------|-0--------------0----|
A|-----------------|------------2----|-3-----------|-------------|-----------3---------|
E|-----------------|-----------------|-------------|-------------|---------------------|


G|--------|-------------|---------------------|---------------------|---------------------|
D|--------|-------------|---------------------|---------------------|---------------------|
A|--------|-------------|-3-------------------|-3--------------3----|-2--------------0----|
E|-3------|-3-----------|----------------3----|---------------------|---------------------|


G|---------------------|---------------------|---------------------|---------------------|
D|---------------------|---------------------|---------------------|-----------0---------|
A|----------------2----|-3---------3---------|-2---------2---------|-0-------------------|
E|-3-------------------|---------------------|---------------------|---------------------|


G|---------------------|------------0----|------------0----|------------0----|-----------------|
D|---------------------|-0---------------|-0---------------|-0---------------|-0---------------|
A|---------------------|-----------------|-----------------|-----------------|------------2----|
E|-3---------3---------|-----------------|-----------------|-----------------|-----------------|


G|-------------|-------------|------0--------------|--------|-------------|-------------|
D|-------------|-0-----------|-0--------------0----|--------|-------------|-------------|
A|-3-----------|-------------|-----------3---------|--------|-------------|-------------|
E|-------------|-------------|---------------------|-3------|-3-----------|-3------3----|


G|-------------|-------------|-------------|---------------------|---------------------|
D|-------------|--------0----|-2-----------|-0-------------------|-0-------------------|
A|-------------|-3-----------|--------3----|-----------3---------|-----------3---------|
E|-3-----------|-------------|-------------|---------------------|---------------------|


G|---------------------|-----------2----5----|-4----2----4----0----|-------------|
D|-----------2---------|------2--------------|---------------------|--------0----|
A|-2----0--------------|-0-------------------|---------------------|-3-----------|
E|----------------0----|---------------------|---------------------|-------------|


G|-------------|-------------|---------------------|---------------------|-----------0---------|
D|-2-----3-----|-------------|---------------------|---------------------|---------------------|
A|-------------|-------------|---------------------|---------------------|-2----3--------------|
E|-------------|-3------0----|-1---------1---------|-0---------0---------|----------------3----|


G|-------------|-------------|-------------|-------------|-------------|---------------------|
D|-------------|-------------|-------------|--------0----|-2-----------|-0-------------------|
A|-3-----------|-------------|-------------|-3-----------|--------3----|-----------3---------|
E|-------------|-3------3----|-3-----------|-------------|-------------|---------------------|


G|---------------------|---------------------|-----------2----5----|-4----2----4----0----|
D|-0-------------------|-----------2---------|------2--------------|---------------------|
A|-----------3---------|-2----0--------------|-0-------------------|---------------------|
E|---------------------|----------------0----|---------------------|---------------------|


G|-------------|-------------|-------------|---------------------|---------------------|
D|--------0----|-2-----3-----|-------------|---------------------|---------------------|
A|-3-----------|-------------|-------------|---------------------|---------------------|
E|-------------|-------------|-3------0----|-1---------1---------|-0---------0---------|


G|-----------0---------|-------------|
D|---------------------|-------------|
A|-2----3--------------|-3-----------|
E|----------------3----|-------------|





Track 4: Untitled

G|--------|--------|--------|--------|--------|--------|--------|--------|--------|
D|--------|--------|--------|--------|--------|--------|--------|--------|--------|
A|--------|--------|--------|--------|--------|--------|--------|--------|--------|
E|--------|--------|--------|--------|--------|--------|--------|--------|--------|


G|--------|--------|--------|--------|--------|--------|--------|--------|--------|
D|--------|--------|--------|--------|--------|--------|--------|--------|--------|
A|--------|--------|--------|--------|--------|--------|--------|--------|--------|
E|--------|--------|--------|--------|--------|--------|--------|--------|--------|


G|--------|--------|--------|--------|--------|--------|--------|--------|--------|
D|--------|--------|--------|--------|--------|--------|--------|--------|--------|
A|--------|--------|--------|--------|--------|--------|--------|--------|--------|
E|--------|--------|--------|--------|--------|--------|--------|--------|--------|


G|--------|--------|--------|--------|--------|--------|--------|--------|--------|
D|--------|--------|--------|--------|--------|--------|--------|--------|--------|
A|--------|--------|--------|--------|--------|--------|--------|--------|--------|
E|--------|--------|--------|--------|--------|--------|--------|--------|--------|


G|--------|--------|--------|--------|--------|--------|--------|--------|--------|
D|--------|--------|--------|--------|--------|--------|--------|--------|--------|
A|--------|--------|--------|--------|--------|--------|--------|--------|--------|
E|--------|--------|--------|--------|--------|--------|--------|--------|--------|


G|--------|--------|--------|--------|--------|--------|--------|--------|--------|
D|--------|--------|--------|--------|--------|--------|--------|--------|--------|
A|--------|--------|--------|--------|--------|--------|--------|--------|--------|
E|--------|--------|--------|--------|--------|--------|--------|--------|--------|


G|--------|--------|--------|--------|--------|--------|--------|--------|--------|
D|--------|--------|--------|--------|--------|--------|--------|--------|--------|
A|--------|--------|--------|--------|--------|--------|--------|--------|--------|
E|--------|--------|--------|--------|--------|--------|--------|--------|--------|


G|--------|--------|--------|--------|--------|--------|--------|--------|--------|
D|--------|--------|--------|--------|--------|--------|--------|--------|--------|
A|--------|--------|--------|--------|--------|--------|--------|--------|--------|
E|--------|--------|--------|--------|--------|--------|--------|--------|--------|


G|--------|--------|--------|--------|--------|--------|--------|--------|--------|
D|--------|--------|--------|--------|--------|--------|--------|--------|--------|
A|--------|--------|--------|--------|--------|--------|--------|--------|--------|
E|--------|--------|--------|--------|--------|--------|--------|--------|--------|


G|--------|--------|--------|--------|--------|--------|--------|--------|--------|
D|--------|--------|--------|--------|--------|--------|--------|--------|--------|
A|--------|--------|--------|--------|--------|--------|--------|--------|--------|
E|--------|--------|--------|--------|--------|--------|--------|--------|--------|


G|--------|--------|--------|--------|--------|--------|--------|--------|--------|
D|--------|--------|--------|--------|--------|--------|--------|--------|--------|
A|--------|--------|--------|--------|--------|--------|--------|--------|--------|
E|--------|--------|--------|--------|--------|--------|--------|--------|--------|


G|--------|--------|--------|--------|--------|--------|--------|--------|--------|
D|--------|--------|--------|--------|--------|--------|--------|--------|--------|
A|--------|--------|--------|--------|--------|--------|--------|--------|--------|
E|--------|--------|--------|--------|--------|--------|--------|--------|--------|


G|--------|--------|--------|--------|--------|--------|--------|--------|--------|
D|--------|--------|--------|--------|--------|--------|--------|--------|--------|
A|--------|--------|--------|--------|--------|--------|--------|--------|--------|
E|--------|--------|--------|--------|--------|--------|--------|--------|--------|


G|--------|--------|--------|--------|--------|--------|--------|--------|--------|
D|--------|--------|--------|--------|--------|--------|--------|--------|--------|
A|--------|--------|--------|--------|--------|--------|--------|--------|--------|
E|--------|--------|--------|--------|--------|--------|--------|--------|--------|


G|--------|--------|--------|--------|--------|--------|--------|--------|--------|
D|--------|--------|--------|--------|--------|--------|--------|--------|--------|
A|--------|--------|--------|--------|--------|--------|--------|--------|--------|
E|--------|--------|--------|--------|--------|--------|--------|--------|--------|


G|--------|--------|--------|--------|--------|--------|--------|--------|--------|
D|--------|--------|--------|--------|--------|--------|--------|--------|--------|
A|--------|--------|--------|--------|--------|--------|--------|--------|--------|
E|--------|--------|--------|--------|--------|--------|--------|--------|--------|


G|--------|--------|--------|--------|--------|--------|--------|--------|--------|
D|--------|--------|--------|--------|--------|--------|--------|--------|--------|
A|--------|--------|--------|--------|--------|--------|--------|--------|--------|
E|--------|--------|--------|--------|--------|--------|--------|--------|--------|


G|--------|--------|--------|--------|--------|--------|--------|--------|--------|
D|--------|--------|--------|--------|--------|--------|--------|--------|--------|
A|--------|--------|--------|--------|--------|--------|--------|--------|--------|
E|--------|--------|--------|--------|--------|--------|--------|--------|--------|


G|--------|
D|--------|
A|--------|
E|--------|