Site menu:

    

Browse: 0-9 A B C D E F G H I J K L N O P Q R S T U V W X Y Z

enanitos verdes - la muralla verde:



Title:  La Muralla Verde
Artist: 
Album: "Contrareloj"
Author: Enanitos Verdes


Track 1: PRIMER GUITARRA

E|-------------------------|-------------|-----------------------------|--------11------|
B|-------------------------|-11-----11---|-11--------------------------|-11---------12--|
G|------------------9------|-------------|----------------------9------|----------------|
D|------------9--11----11--|-------------|----------------9--11----11--|----------------|
A|-------------------------|-------------|-----------------------------|----------------|
E|-------------------------|-------------|-----------------------------|----------------|


E|----------------------------------|----------------|-----------------------------|
B|-11-------------------------------|-11-----11--11--|-11----11--11----------------|
G|------9--11-9--------------9------|----------------|----------------------9------|
D|---------------------9--11----11--|----------------|----------------9--11----11--|
A|----------------------------------|----------------|-----------------------------|
E|----------------------------------|----------------|-----------------------------|


E|--------11------|--------------------------|------4---4--4-------4---4--4--|------2---2--2-------2---2--2--|
B|-11---------12--|-11-----------------------|------5---5--5-------5---5--5--|------2---2--2-------2---2--2--|
G|----------------|------9--11-9---9----1----|------6---6--6-------6---6--6--|------3---3--3-------3---3--3--|
D|----------------|--------------------------|-------------------------------|-------------------------------|
A|----------------|--------------------------|-------------------------------|-------------------------------|
E|----------------|--------------------------|-------------------------------|-------------------------------|


E|------4---4--4-------4---4--4--|------2---2--2-------2---2--2--|------4---4--4-------4---4--4--|
B|------5---5--5-------5---5--5--|------2---2--2-------2---2--2--|------5---5--5-------5---5--5--|
G|------6---6--6-------6---6--6--|------3---3--3-------3---3--3--|------6---6--6-------6---6--6--|
D|-------------------------------|-------------------------------|-------------------------------|
A|-------------------------------|-------------------------------|-------------------------------|
E|-------------------------------|-------------------------------|-------------------------------|


E|------2---2--2-------2---2--2--|------4---4--4-------4---4--4--|------2---2--2-------2---2--2--|
B|------2---2--2-------2---2--2--|------5---5--5-------5---5--5--|------2---2--2-------2---2--2--|
G|------3---3--3-------3---3--3--|------6---6--6-------6---6--6--|------3---3--3-------3---3--3--|
D|-------------------------------|-------------------------------|-------------------------------|
A|-------------------------------|-------------------------------|-------------------------------|
E|-------------------------------|-------------------------------|-------------------------------|


E|------6---6--6-------6---6--6--|------4---4--4-------4---4--4--|------6---6--6-------6---6--6--|
B|------7---7--7-------7---7--7--|------4---4--4-------4---4--4--|------7---7--7-------7---7--7--|
G|------8---8--8-------8---8--8--|------4---4--4-------4---4--4--|------8---8--8-------8---8--8--|
D|-------------------------------|-------------------------------|-------------------------------|
A|-------------------------------|-------------------------------|-------------------------------|
E|-------------------------------|-------------------------------|-------------------------------|


E|------4---4--4-------4---4--4--|------6---6--6-------6---6--6--|------4---4--4-------4---4--4--|
B|------4---4--4-------4---4--4--|------7---7--7-------7---7--7--|------4---4--4-------4---4--4--|
G|------4---4--4-------4---4--4--|------8---8--8-------8---8--8--|------4---4--4-------4---4--4--|
D|-------------------------------|-------------------------------|-------------------------------|
A|-------------------------------|-------------------------------|-------------------------------|
E|-------------------------------|-------------------------------|-------------------------------|


E|-------------------------|-------------|-----------------------------|--------11------|
B|-------------------------|-11-----11---|-11--------------------------|-11---------12--|
G|------------------9------|-------------|----------------------9------|----------------|
D|------------9--11----11--|-------------|----------------9--11----11--|----------------|
A|-------------------------|-------------|-----------------------------|----------------|
E|-------------------------|-------------|-----------------------------|----------------|


E|----------------------------------|----------------|-----------------------------|
B|-11-------------------------------|-11-----11--11--|-11----11--11----------------|
G|------9--11-9--------------9------|----------------|----------------------9------|
D|---------------------9--11----11--|----------------|----------------9--11----11--|
A|----------------------------------|----------------|-----------------------------|
E|----------------------------------|----------------|-----------------------------|


E|----------------|-------------|------4---4--4-------4---4--4--|------2---2--2-------2---2--2--|
B|-11-----11--11--|-11-----11---|------5---5--5-------5---5--5--|------2---2--2-------2---2--2--|
G|----------------|-------------|------6---6--6-------6---6--6--|------3---3--3-------3---3--3--|
D|----------------|-------------|-------------------------------|-------------------------------|
A|----------------|-------------|-------------------------------|-------------------------------|
E|----------------|-------------|-------------------------------|-------------------------------|


E|------4---4--4-------4---4--4--|------2---2--2-------2---2--2--|------4---4--4-------4---4--4--|
B|------5---5--5-------5---5--5--|------2---2--2-------2---2--2--|------5---5--5-------5---5--5--|
G|------6---6--6-------6---6--6--|------3---3--3-------3---3--3--|------6---6--6-------6---6--6--|
D|-------------------------------|-------------------------------|-------------------------------|
A|-------------------------------|-------------------------------|-------------------------------|
E|-------------------------------|-------------------------------|-------------------------------|


E|------2---2--2-------2---2--2--|------4---4--4-------4---4--4--|------2---2--2-------2---2--2--|
B|------2---2--2-------2---2--2--|------5---5--5-------5---5--5--|------2---2--2-------2---2--2--|
G|------3---3--3-------3---3--3--|------6---6--6-------6---6--6--|------3---3--3-------3---3--3--|
D|-------------------------------|-------------------------------|-------------------------------|
A|-------------------------------|-------------------------------|-------------------------------|
E|-------------------------------|-------------------------------|-------------------------------|


E|------6---6--6-------6---6--6--|------4---4--4-------4---4--4--|------6---6--6-------6---6--6--|
B|------7---7--7-------7---7--7--|------4---4--4-------4---4--4--|------7---7--7-------7---7--7--|
G|------8---8--8-------8---8--8--|------4---4--4-------4---4--4--|------8---8--8-------8---8--8--|
D|-------------------------------|-------------------------------|-------------------------------|
A|-------------------------------|-------------------------------|-------------------------------|
E|-------------------------------|-------------------------------|-------------------------------|


E|------4---4--4-------4---4--4--|------6---6--6-------6---6--6--|------4---4--4-------4---4--4--|
B|------4---4--4-------4---4--4--|------7---7--7-------7---7--7--|------4---4--4-------4---4--4--|
G|------4---4--4-------4---4--4--|------8---8--8-------8---8--8--|------4---4--4-------4---4--4--|
D|-------------------------------|-------------------------------|-------------------------------|
A|-------------------------------|-------------------------------|-------------------------------|
E|-------------------------------|-------------------------------|-------------------------------|


E|-2----2--2---2---2----2--2---2---|-------------14--14---14--14--|-14--14-12----------------|
B|-2----2--2---2---2----2--2---2---|-12--12--12-------------------|-----------14---14--------|
G|-3----3--3---3---3----3--3---3---|------------------------------|----------------------6---|
D|-4----4--4---4---4----4--4---4---|------------------------------|--------------------------|
A|-4----4--4---4---4----4--4---4---|------------------------------|--------------------------|
E|-2----2--2---2---2----2--2---2---|------------------------------|--------------------------|


E|---------12--9-------9-----------|------------------12----------|-----------------|
B|-----9-----------12------12------|----------------------12------|-----------------|
G|-11--------------------------11--|-9----9---9---9-----------11--|-9-----1----1----|
D|---------------------------------|------------------------------|-----------------|
A|---------------------------------|------------------------------|-----------------|
E|---------------------------------|------------------------------|-----------------|


E|--------|-------------------------------------------------------------------------|
B|--------|-14-12-9--14-12-9--14-12-9--14-12-9--16-12-9--16-12-9--16-12-9--16-12-9--|
G|-11-----|-------------------------------------------------------------------------|
D|--------|-------------------------------------------------------------------------|
A|--------|-------------------------------------------------------------------------|
E|--------|-------------------------------------------------------------------------|


E|-----------------------------------------------|------4---4--4-------4---4--4--|
B|-17-12-9--17-12-9--17-12-9--17-12-9--19---12---|------5---5--5-------5---5--5--|
G|-----------------------------------------------|------6---6--6-------6---6--6--|
D|-----------------------------------------------|-------------------------------|
A|-----------------------------------------------|-------------------------------|
E|-----------------------------------------------|-------------------------------|


E|------2---2--2-------2---2--2--|------4---4--4-------4---4--4--|------2---2--2-------2---2--2--|
B|------2---2--2-------2---2--2--|------5---5--5-------5---5--5--|------2---2--2-------2---2--2--|
G|------3---3--3-------3---3--3--|------6---6--6-------6---6--6--|------3---3--3-------3---3--3--|
D|-------------------------------|-------------------------------|-------------------------------|
A|-------------------------------|-------------------------------|-------------------------------|
E|-------------------------------|-------------------------------|-------------------------------|


E|------4---4--4-------4---4--4--|------2---2--2-------2---2--2--|------4---4--4-------4---4--4--|
B|------5---5--5-------5---5--5--|------2---2--2-------2---2--2--|------5---5--5-------5---5--5--|
G|------6---6--6-------6---6--6--|------3---3--3-------3---3--3--|------6---6--6-------6---6--6--|
D|-------------------------------|-------------------------------|-------------------------------|
A|-------------------------------|-------------------------------|-------------------------------|
E|-------------------------------|-------------------------------|-------------------------------|


E|------2---2--2-------2---2--2--|------6---6--6-------6---6--6--|------4---4--4-------4---4--4--|
B|------2---2--2-------2---2--2--|------7---7--7-------7---7--7--|------4---4--4-------4---4--4--|
G|------3---3--3-------3---3--3--|------8---8--8-------8---8--8--|------4---4--4-------4---4--4--|
D|-------------------------------|-------------------------------|-------------------------------|
A|-------------------------------|-------------------------------|-------------------------------|
E|-------------------------------|-------------------------------|-------------------------------|


E|------6---6--6-------6---6--6--|------4---4--4-------4---4--4--|------6---6--6-------6---6--6--|
B|------7---7--7-------7---7--7--|------4---4--4-------4---4--4--|------7---7--7-------7---7--7--|
G|------8---8--8-------8---8--8--|------4---4--4-------4---4--4--|------8---8--8-------8---8--8--|
D|-------------------------------|-------------------------------|-------------------------------|
A|-------------------------------|-------------------------------|-------------------------------|
E|-------------------------------|-------------------------------|-------------------------------|


E|------4---4--4-------4---4--4--|--------|--------|--------|--------|--------|-0----4--4---4---4----4----|
B|------4---4--4-------4---4--4--|--------|--------|--------|--------|--------|-2----5--5---5---5----5----|
G|------4---4--4-------4---4--4--|--------|--------|--------|--------|--------|-1----6--6---6---6----6----|
D|-------------------------------|--------|--------|--------|--------|--------|-2----6--6---6---6----6----|
A|-------------------------------|--------|--------|--------|--------|--------|-4----4--4---4---4----4----|
E|-------------------------------|--------|--------|--------|--------|--------|---------------------------|


E|-2----2--2---2---2----2----|-0----4--4---4---4----4----|-2----2--2---2---2-----------------|
B|-2----2--2---2---2----2----|-2----5--5---5---5----5----|-2----2--2---2---2-----------------|
G|-3----3--3---3---3----3----|-1----6--6---6---6----6----|-3----3--3---3---3----------9------|
D|-4----4--4---4---4----4----|-2----6--6---6---6----6----|-4----4--4---4---4----9--11----11--|
A|-4----4--4---4---4----4----|-4----4--4---4---4----4----|-4----4--4---4---4-----------------|
E|-2----2--2---2---2----2----|---------------------------|-2----2--2---2---2-----------------|


E|-------------|---------------------|--------11------|-------------------------------------|
B|-11-----11---|-11------------------|-11---------12--|-11----------------------------------|
G|-------------|--------------9------|----------------|------9--11-9---9-------------9------|
D|-------------|--------9--11----11--|----------------|------------------------9--11----11--|
A|-------------|---------------------|----------------|-------------------------------------|
E|-------------|---------------------|----------------|-------------------------------------|


E|----------------|-----------------------------|--------11---|-----------------------|
B|-11-----11--11--|-11----11--11----------------|-11----------|-11--11--11--11--11----|
G|----------------|----------------------9------|-------------|-----------------------|
D|----------------|----------------9--11----11--|-------------|-----------------------|
A|----------------|-----------------------------|-------------|-----------------------|
E|----------------|-----------------------------|-------------|-----------------------|





Track 2: BAJO

G|--------|------------------------|------------------------|------------------------|
D|--------|--------------6----5----|-4--------4--------4----|------------------------|
A|--------|-4--------4-------------|--------------6---------|-4--------4-------------|
E|--------|------------------------|------------------------|--------------4----3----|


G|------------------------|------------------------|------------------------|------------------------|
D|------------------------|--------------6----5----|-4--------4--------4----|------------------------|
A|--------------1----2----|-4--------4-------------|--------------6---------|-4--------4-------------|
E|-2--------2-------------|------------------------|------------------------|--------------4----3----|


G|------------------------|------------------------|------------------------|------------------------|
D|------------------------|--------------6----5----|-4--------4--------4----|------------------------|
A|--------------1----2----|-4--------4-------------|--------------6---------|-4--------4-------------|
E|-2--------2-------------|------------------------|------------------------|--------------4----3----|


G|------------------------|------------------------|------------------------|------------------------|
D|------------------------|--------------6----5----|-4--------4--------4----|------------------------|
A|--------------1----2----|-4--------4-------------|--------------6---------|-4--------4-------------|
E|-2--------2-------------|------------------------|------------------------|--------------4----3----|


G|------------------------|-------------------3----|------------------------|------------------------|
D|------------------------|-1--------1---1---------|------------------------|-------------------8----|
A|--------------1----2----|------------------------|-------------------6----|-6--------6---6---------|
E|-2--------2-------------|------------------------|-4--------4---4---------|------------------------|


G|------------------------|------------------------|------------------------|---------------------------------|
D|------------------------|-------------------8----|------------------------|---------------------------------|
A|-------------------6----|-6--------6---6---------|-------------------6----|---------------------------------|
E|-4--------4---4---------|------------------------|-4--------4---4---------|-2----2--2---2---2----2--2---2---|


G|---------------------------|---------------------------|---------------------------|
D|-----------------6----5----|-4-----------4--------4----|---------------------------|
A|-4-----------4-------------|-----------------6---------|-4-----------4-------------|
E|---------------------------|---------------------------|-----------------4----3----|


G|---------------------------|---------------------------|---------------------------|
D|---------------------------|-----------------6----5----|-4-----------4--------4----|
A|-----------------1----2----|-4-----------4-------------|-----------------6---------|
E|-2-----------2-------------|---------------------------|---------------------------|


G|---------------------------|---------------------------|---------------------------|
D|---------------------------|---------------------------|-----------------6----5----|
A|-4-----------4-------------|-----------------1----2----|-4-----------4-------------|
E|-----------------4----3----|-2-----------2-------------|---------------------------|


G|---------------------------|---------------------------|---------------------------|
D|-4-----------4--------4----|---------------------------|---------------------------|
A|-----------------6---------|-4-----------4-------------|-----------------1----2----|
E|---------------------------|-----------------4----3----|-2-----------2-------------|


G|---------------------------|---------------------------|---------------------------|
D|-----------------6----5----|-4-----------4--------4----|---------------------------|
A|-4-----------4-------------|-----------------6---------|-4-----------4-------------|
E|---------------------------|---------------------------|-----------------4----3----|


G|---------------------------|-------------------3----|------------------------|------------------------|
D|---------------------------|-1--------1---1---------|------------------------|-------------------8----|
A|-----------------1----2----|------------------------|-------------------6----|-6--------6---6---------|
E|-2-----------2-------------|------------------------|-4--------4---4---------|------------------------|


G|------------------------|------------------------|------------------------|---------------------------------|
D|------------------------|-------------------8----|------------------------|---------------------------------|
A|-------------------6----|-6--------6---6---------|-------------------6----|---------------------------------|
E|-4--------4---4---------|------------------------|-4--------4---4---------|-2----2--2---2---2----2--2---2---|


G|------------------------|------------------------|------------------------|------------------------|
D|--------------6----5----|-4--------4--------4----|------------------------|------------------------|
A|-4--------4-------------|--------------6---------|-4--------4-------------|--------------1----2----|
E|------------------------|------------------------|--------------4----3----|-2--------2-------------|


G|------------------------|------------------------|------------------------|------------------------|
D|--------------6----5----|-4--------4--------4----|------------------------|------------------------|
A|-4--------4-------------|--------------6---------|-4--------4-------------|--------------1----2----|
E|------------------------|------------------------|--------------4----3----|-2--------2-------------|


G|------------------------|------------------------|------------------------|------------------------|
D|--------------6----5----|-4--------4--------4----|------------------------|------------------------|
A|-4--------4-------------|--------------6---------|-4--------4-------------|--------------1----2----|
E|------------------------|------------------------|--------------4----3----|-2--------2-------------|


G|------------------------|------------------------|------------------------|------------------------|
D|--------------6----5----|-4--------4--------4----|------------------------|------------------------|
A|-4--------4-------------|--------------6---------|-4--------4-------------|--------------1----2----|
E|------------------------|------------------------|--------------4----3----|-2--------2-------------|


G|-------------------3----|------------------------|------------------------|------------------------|
D|-1--------1---1---------|------------------------|-------------------8----|------------------------|
A|------------------------|-------------------6----|-6--------6---6---------|-------------------6----|
E|------------------------|-4--------4---4---------|------------------------|-4--------4---4---------|


G|------------------------|------------------------|---------------------------------|
D|-------------------8----|------------------------|---------------------------------|
A|-6--------6---6---------|-------------------6----|---------------------------------|
E|------------------------|-4--------4---4---------|-2----2--2---2---2----2--2---2---|


G|--------|--------|--------|--------|------------------------|------------------------|
D|--------|--------|--------|--------|--------------6----5----|-4--------4--------4----|
A|--------|--------|--------|--------|-4--------4-------------|--------------6---------|
E|--------|--------|--------|--------|------------------------|------------------------|


G|------------------------|------------------------|------------------------|------------------------|
D|------------------------|------------------------|--------------6----5----|-4--------4--------4----|
A|-4--------4-------------|--------------1----2----|-4--------4-------------|--------------6---------|
E|--------------4----3----|-2--------2-------------|------------------------|------------------------|


G|------------------------|-----------------------|--------|--------|--------|--------|
D|------------------------|-----------------------|--------|--------|--------|--------|
A|-4--------4-------------|-----------------------|--------|--------|--------|--------|
E|--------------4----3----|-2---2---2---2---2-----|--------|--------|--------|--------|