Site menu:

    

Browse: 0-9 A B C D E F G H I J K L N O P Q R S T U V W X Y Z

dream theater - necronomicon:



Title: Necronomicon
Artist: 
Album: 
Author: Dream Theater


Track 1: Guitar

E|---------------------------------------------------------------|-------------------------------------------------|
B|---------------------------------------------------------------|-------------------------------------------------|
G|-------------------------------------------------------10------|-------------------------------------------------|
D|-------------------8-----------------------10-0--7--8----------|-------------------------5--0--------------------|
A|----------7--5--6--------------8--0--7--8----------------------|-5--7-----5--7-----5--7--------7-----------5--7--|
E|-0--4--5--------------0--5--6----------------------------------|-------0--------0-----------------0--5--7--------|


E|-------------------------------------------------|-------------------------------------------------|
B|-------------------------------------------------|-------------------------------------------------|
G|-------------------------------------------------|-------------------------------------------------|
D|-------------------------8--0--------------------|-------------------------5--0--------------------|
A|-5--7-----5--7-----5--7--------7-----------5--7--|-5--7-----5--7-----5--7--------7-----------5--7--|
E|-------0--------0-----------------0--5--7--------|-------0--------0-----------------0--5--7--------|


E|-------------------------------------------------|-------------------------------------------------|
B|-------------------------------------------------|-------------------------------------------------|
G|-------------------------------------------------|-------------------------------------------------|
D|-------------------------------------------------|-------------------------5--0--------------------|
A|-7--8-----5--7-----3--5-----2--3-----------------|-5--7-----5--7-----5--7--------7-----------5--7--|
E|-------0--------0--------0--------0--1--3--1--0--|-------0--------0-----------------0--5--7--------|


E|-------------------------------------------------|-------------------------------------------------|
B|-------------------------------------------------|-------------------------------------------------|
G|-------------------------------------------------|-------------------------------------------------|
D|-------------------------8--0--------------------|-------------------------5--0--------------------|
A|-5--7-----5--7-----5--7--------7-----------5--7--|-5--7-----5--7-----5--7--------7-----------5--7--|
E|-------0--------0-----------------0--5--7--------|-------0--------0-----------------0--5--7--------|


E|-------------------------------------------------|-------------------------------------------------|
B|-------------------------------------------------|-------------------------------------------------|
G|-------------------------------------------------|-------------------------------------------------|
D|-------------------------------------------------|-------------------------------------------------|
A|-7--8-----5--7-----3--5-----2--3-----------------|-------------------------------------------------|
E|-------0--------0--------0--------0--7--8--7--0--|-8--10-0--7--8--0--5--7--0--3--5--0--1--3--1--0--|


E|-------------------------------------------------|-------------------------------------------------|
B|-------------------------------------------------|-------------------------------------------------|
G|-------------------------------------------------|-------------------------------------------------|
D|-------------------------------------------------|-------------------------------------------------|
A|-------------------------------------------------|-------------------------------------------------|
E|-0--0-----0--0-----0--0-----0-----0--1--3--1--0--|-0--0-----0--0-----0--0-----0-----0--1--3--1--0--|


E|-------------------------------------------------|-------------------------------------------------|
B|-------------------------------------------------|-------------------------------------------------|
G|-------------------------------------------------|-------------------------------------------------|
D|-------------------------------------------------|-------------------------------------------------|
A|-------------------------------------------------|-7--8-----5--7-----3--5-----2--3-----------------|
E|-0--0-----0--0-----0--0-----0-----0--1--3--1--0--|-------0--------0--------0--------0--1--3--1--0--|


E|-------------------------------------------------|-------------------------------------------------|
B|-------------------------------------------------|-------------------------------------------------|
G|-------------------------------------------------|-------------------------------------------------|
D|-------------------------------------------------|-------------------------------------------------|
A|-------------------------------------------------|-------------------------------------------------|
E|-0--0-----0--0-----0--0-----0-----0--1--3--1--0--|-0--0-----0--0-----0--0-----0-----0--1--3--1--0--|


E|-------------------------------------------------|-------------------------------------------------|
B|-------------------------------------------------|-------------------------------------------------|
G|-------------------------------------------------|-------------------------------------------------|
D|-------------------------------------------------|-------------------------------------------------|
A|-------------------------------------------------|-7--8-----5--7-----3--5-----2--3-----------------|
E|-0--0-----0--0-----0--0-----0-----0--1--3--1--0--|-------0--------0--------0--------0--1--3--1--0--|


E|-------------------------------------------------|-------------------------------------------------|
B|-------------------------------------------------|-------------------------------------------------|
G|-------------------------------------------------|-------------------------------------------------|
D|-------------------------5--0--------------------|-------------------------8--0--------------------|
A|-5--7-----5--7-----5--7--------7-----------5--7--|-5--7-----5--7-----5--7--------7-----------5--7--|
E|-------0--------0-----------------0--5--7--------|-------0--------0-----------------0--5--7--------|


E|-------------------------------------------------|-------------------------------------------------|
B|-------------------------------------------------|-------------------------------------------------|
G|-------------------------------------------------|-------------------------------------------------|
D|-------------------------5--0--------------------|-------------------------------------------------|
A|-5--7-----5--7-----5--7--------7-----------5--7--|-7--8-----5--7-----3--5-----2--3-----------------|
E|-------0--------0-----------------0--5--7--------|-------0--------0--------0--------0--1--3--1--0--|


E|-------------------------------------------------|-------------------------------------------------|
B|-------------------------------------------------|-------------------------------------------------|
G|-------------------------------------------------|-------------------------------------------------|
D|-------------------------------------------------|-------------------------------------------------|
A|-------------------------------------------------|-------------------------------------------------|
E|-0--0-----0--0-----0--0-----0-----0--0--0--0--0--|-0--0-----0--0-----0--0-----0-----0--0--0--0--0--|


E|-------------------------------------------------|-------------------------------------------------|
B|-------------------------------------------------|-------------------------------------------------|
G|-------------------------------------------------|-------------------------------------------------|
D|-------------------------------------------------|-------------------------------------------------|
A|-------------------------------------------------|-------------------------------------------------|
E|-0--0-----0--0-----0--0-----0-----0--0--0--0--0--|-0--0-----0--0-----0--0-----0-----0--1--3--1--0--|


E|-------------------------------------------------|-------------------------------------------------|
B|-------------------------------------------------|-------------------------------------------------|
G|-------------------------------------------------|-------------------------------------------------|
D|-------------------------------------------------|-------------------------------------------------|
A|-------------------------------------------------|-------------------------------------------------|
E|-0--0-----0--0-----0--0-----0-----0--0--0--0--0--|-0--0-----0--0-----0--0-----0-----0--0--0--0--0--|


E|-------------------------------------------------|-------------------------------------------------|
B|-------------------------------------------------|-------------------------------------------------|
G|-------------------------------------------------|-------------------------------------------------|
D|-------------------------------------------------|-------------------------------------------------|
A|-------------------------------------------------|-------------------------------------------------|
E|-0--0-----0--0-----0--0-----0-----0--0--0--0--0--|-0--0-----0--0-----0--0-----0-----0--1--3--1--0--|


E|-----------10-------|-----------10-------|-----------10-------|-----------10-------|
B|-------10------10---|-------10------10---|-------10------10---|-------9-------9----|
G|--------------------|--------------------|--------------------|--------------------|
D|-0------------------|-0------------------|-0------------------|-0------------------|
A|-0------------------|--------------------|--------------------|--------------------|
E|--------------------|--------------------|--------------------|--------------------|


E|-----------10-------|-----------10-------|-----------10-------|-----------10-------|
B|-------10------10---|-------10------10---|-------10------10---|-------9-------9----|
G|--------------------|--------------------|--------------------|--------------------|
D|-0------------------|-0------------------|-0------------------|-0------------------|
A|-0------------------|--------------------|--------------------|--------------------|
E|--------------------|--------------------|--------------------|--------------------|


E|-------------------------------------------------|-------------------------------------------------|
B|-------------------------------------------------|-------------------------------------------------|
G|-------------------------------------------------|-------------------------------------------------|
D|-------7--------5-----3--0--2--------7--------5--|-------7--------10-0--8--0--7--------7--------8--|
A|-0--4-----0--1-----1-----------0--4-----0--1-----|-0--4-----0--5-----------------0--4-----0--5-----|
E|-------------------------------------------------|-------------------------------------------------|


E|-------------------------------------------------|-------------------------------------------------|
B|-------------------------------------------------|-------------------------------------------------|
G|-------------------------------------------------|-------------------------------------------------|
D|-------7--------5-----3--0--2--------7--------5--|-------7--------10-0--8--0--7--------7--------8--|
A|-0--4-----0--1-----1-----------0--4-----0--1-----|-0--4-----0--5-----------------0--4-----0--5-----|
E|-------------------------------------------------|-------------------------------------------------|


E|-----------------------------------|--------------------|------------------------|
B|-----------------------------------|-17----17-----------|------------------------|
G|-----------------------------------|-16----16---14--16--|-16---14--16--14--------|
D|-------11-------12-------14---14---|--------------------|------------------16----|
A|-0--7-----0--8-----0--12-----------|--------------------|------------------------|
E|-----------------------------------|--------------------|------------------------|


E|-----14----------------------------------------|----------------------------------------|
B|-17-----14-17----14----------------------------|----------------------------------------|
G|--------------16----16-14----16----14----------|-------------------------------14--14---|
D|--------------------------16----16----16-14----|-------------------------14-16----------|
A|--------------------------------------------16-|-14-12----14----12-14-16----------------|
E|-----------------------------------------------|-------14----14-------------------------|


E|-15-12-15-12----12-15-12-15-12----12-15-12-15-12----12-15-12-15-12----12-|-17-12-17-12----12-17-12-17-12----12-17-12-17-12----12-17-12-17-12----12-|
B|-------------15----------------15----------------15----------------15----|-------------15----------------15----------------15----------------15----|
G|-------------------------------------------------------------------------|-------------------------------------------------------------------------|
D|-------------------------------------------------------------------------|-------------------------------------------------------------------------|
A|-------------------------------------------------------------------------|-------------------------------------------------------------------------|
E|-------------------------------------------------------------------------|-------------------------------------------------------------------------|


E|-20-22-20-17-------20-22-20-17-------20-22-20-17-------20-22-20-17-------|-20-17-------------19-16-------------18-15-------------17-14--------|
B|-------------20-17-------------20-17-------------20-17-------------20-17-|-------20-19-18-17-------19-18-17-16-------18-17-16-15-------17-14--|
G|-------------------------------------------------------------------------|--------------------------------------------------------------------|
D|-------------------------------------------------------------------------|--------------------------------------------------------------------|
A|-------------------------------------------------------------------------|--------------------------------------------------------------------|
E|-------------------------------------------------------------------------|--------------------------------------------------------------------|


E|-------------------------------------------|-------------------------------------------|
B|-------------------------------------------|-------------------------------------------|
G|-------------------------------------------|-------------------------------------------|
D|-------------------------------------------|---------------------------------------2---|
A|-4---4--4------------------------------2---|-4---4--4------------------------2--4------|
E|-----------0---0--2--2--2--3--3--3--4------|-----------0---0--2--2--2--3--3------------|


E|-------------------------------------------|-------------------------------------------|
B|-------------------------------------------|-------------------------------------------|
G|-------------------------------------------|-------------------------------------------|
D|-------------------------------------------|---------------------------------------2---|
A|-4---4--4------------------------------2---|-4---4--4------------------------2--4------|
E|-----------0---0--2--2--2--3--3--3--4------|-----------0---0--2--2--2--3--3------------|


E|-------------------------------------------------|-------------------------------------------------|
B|-------------------------------------------------|-------------------------------------------------|
G|-------------------------------------------------|-------------------------------------------------|
D|----------2--------4--2-----2--------------------|----------2--------4--2-----2--------------------|
A|-4--2--4-----4--2--------4-----4--2--4--2-----2--|-4--2--4-----4--2--------4-----4--2--4--2-----2--|
E|-------------------------------------------4-----|-------------------------------------------4-----|


E|-------------------------------------------------|-------------------------------------------------|
B|-------------------------------------------------|-------------------------------------------------|
G|-------------------------------------------------|-------------------------------------------------|
D|----------2--------4--2-----2--------------------|----------3--------6--4-----4--------------------|
A|-4--2--4-----4--2--------4-----4--2--4--2-----2--|-5--3--5-----5--3--------6-----6--4--6--4-----4--|
E|-------------------------------------------4-----|-------------------------------------------6-----|


E|-------------------------------------------------|-------------------------------------------------|
B|-------------------------------------------------|-------------------------------------------------|
G|-------------------------------------------------|-------------------------------------------------|
D|-------------------------5--0--------------------|-------------------------8--0--------------------|
A|-5--7-----5--7-----5--7--------7-----------5--7--|-5--7-----5--7-----5--7--------7-----------5--7--|
E|-------0--------0-----------------0--5--7--------|-------0--------0-----------------0--5--7--------|


E|-------------------------------------------------|-------------------------------------------------|
B|-------------------------------------------------|-------------------------------------------------|
G|-------------------------------------------------|-------------------------------------------------|
D|-------------------------5--0--------------------|-------------------------------------------------|
A|-5--7-----5--7-----5--7--------7-----------5--7--|-7--8-----5--7-----3--5-----2--3-----------------|
E|-------0--------0-----------------0--5--7--------|-------0--------0--------0--------0--7--8--7--0--|


E|-------------------------------------------------|--------------------------------------|
B|-------------------------------------------------|--------------------------------------|
G|-------------------------------------------------|--------------------------------------|
D|-------------------------------------------------|----------------------------2---------|
A|-------------------------------------------------|-2--2-----2--2-----2--2-----2---------|
E|-8--10-0--7--8--0--5--7--0--3--5--0--1--3--1--0--|-0--0-----0--0-----0--0-----0---------|





Track 2: Piano

E|--------|--------|--------|--------|--------|--------|--------|--------|--------|
B|--------|--------|--------|--------|--------|--------|--------|--------|--------|
G|--------|--------|--------|--------|--------|--------|--------|--------|--------|
D|--------|--------|--------|--------|--------|--------|--------|--------|--------|
A|--------|--------|--------|--------|--------|--------|--------|--------|--------|
E|--------|--------|--------|--------|--------|--------|--------|--------|--------|


E|--------|--------|--------|--------|--------|--------|--------|--------|--------|
B|--------|--------|--------|--------|--------|--------|--------|--------|--------|
G|--------|--------|--------|--------|--------|--------|--------|--------|--------|
D|--------|--------|--------|--------|--------|--------|--------|--------|--------|
A|--------|--------|--------|--------|--------|--------|--------|--------|--------|
E|--------|--------|--------|--------|--------|--------|--------|--------|--------|


E|--------|--------|--------|--------|--------|--------|--------|--------|--------|
B|--------|--------|--------|--------|--------|--------|--------|--------|--------|
G|--------|--------|--------|--------|--------|--------|--------|--------|--------|
D|--------|--------|--------|--------|--------|--------|--------|--------|--------|
A|--------|--------|--------|--------|--------|--------|--------|--------|--------|
E|--------|--------|--------|--------|--------|--------|--------|--------|--------|


E|--------|--------|--------|-----------10-------|-----------10-------|-----------10-------|
B|--------|--------|--------|-------10------10---|-------10------10---|-------10------10---|
G|--------|--------|--------|--------------------|--------------------|--------------------|
D|--------|--------|--------|-0------------------|-0------------------|-0------------------|
A|--------|--------|--------|-0------------------|--------------------|--------------------|
E|--------|--------|--------|--------------------|--------------------|--------------------|


E|-----------10-------|-----------10-------|-----------10-------|-----------10-------|
B|-------9-------9----|-------10------10---|-------10------10---|-------10------10---|
G|--------------------|--------------------|--------------------|--------------------|
D|-0------------------|-0------------------|-0------------------|-0------------------|
A|--------------------|-0------------------|--------------------|--------------------|
E|--------------------|--------------------|--------------------|--------------------|


E|-----------10-------|--------|--------|--------|--------|--------|--------|--------|
B|-------9-------9----|--------|--------|--------|--------|--------|--------|--------|
G|--------------------|--------|--------|--------|--------|--------|--------|--------|
D|-0------------------|--------|--------|--------|--------|--------|--------|--------|
A|--------------------|--------|--------|--------|--------|--------|--------|--------|
E|--------------------|--------|--------|--------|--------|--------|--------|--------|


E|--------|--------|--------|--------|--------|--------|--------|--------|--------|
B|--------|--------|--------|--------|--------|--------|--------|--------|--------|
G|--------|--------|--------|--------|--------|--------|--------|--------|--------|
D|--------|--------|--------|--------|--------|--------|--------|--------|--------|
A|--------|--------|--------|--------|--------|--------|--------|--------|--------|
E|--------|--------|--------|--------|--------|--------|--------|--------|--------|


E|--------|--------|--------|--------|--------|--------|--------|--------|--------|
B|--------|--------|--------|--------|--------|--------|--------|--------|--------|
G|--------|--------|--------|--------|--------|--------|--------|--------|--------|
D|--------|--------|--------|--------|--------|--------|--------|--------|--------|
A|--------|--------|--------|--------|--------|--------|--------|--------|--------|
E|--------|--------|--------|--------|--------|--------|--------|--------|--------|


E|--------|--------|
B|--------|--------|
G|--------|--------|
D|--------|--------|
A|--------|--------|
E|--------|--------|





Track 3: Bass

G|--------|-------------------------------------------------|-------------------------------------------------|
D|--------|-------------------------5-----------------------|-------------------------8-----------------------|
A|--------|-5--7-----5--7-----5--7-----5--7-----------5--7--|-5--7-----5--7-----5--7-----5--7-----------5--7--|
E|--------|-------0--------0-----------------0--5--7--------|-------0--------0-----------------0--5--7--------|


G|-------------------------------------------------|-------------------------------------------------|
D|-------------------------5-----------------------|-------------------------------------------------|
A|-5--7-----5--7-----5--7-----5--7-----------5--7--|-7--8-----5--7-----3--5-----2--3-----------------|
E|-------0--------0-----------------0--5--7--------|-------0--------0--------0--------0--1--3--1--0--|


G|-------------------------------------------------|-------------------------------------------------|
D|-------------------------5-----------------------|-------------------------8-----------------------|
A|-5--7-----5--7-----5--7-----5--7-----------5--7--|-5--7-----5--7-----5--7-----5--7-----------5--7--|
E|-------0--------0-----------------0--5--7--------|-------0--------0-----------------0--5--7--------|


G|-------------------------------------------------|-------------------------------------------------|
D|-------------------------5-----------------------|-------------------------------------------------|
A|-5--7-----5--7-----5--7-----5--7-----------5--7--|-7--8-----5--7-----3--5-----2--3-----------------|
E|-------0--------0-----------------0--5--7--------|-------0--------0--------0--------0--7--8--7--0--|


G|-------------------------------------------------|-------------------------------------------------|
D|-------------------------------------------------|-------------------------------------------------|
A|-------------------------------------------------|-------------------------------------------------|
E|-8--10-0--7--8--0--5--7--0--3--5--0--1--3--1--0--|-0--0-----0--0-----0--0-----0-----0--1--3--1--0--|


G|-------------------------------------------------|-------------------------------------------------|
D|-------------------------------------------------|-------------------------------------------------|
A|-------------------------------------------------|-------------------------------------------------|
E|-0--0-----0--0-----0--0-----0-----0--1--3--1--0--|-0--0-----0--0-----0--0-----0-----0--1--3--1--0--|


G|-------------------------------------------------|-------------------------------------------------|
D|-------------------------------------------------|-------------------------------------------------|
A|-7--8-----5--7-----3--5-----2--3-----------------|-------------------------------------------------|
E|-------0--------0--------0--------0--1--3--1--0--|-0--0-----0--0-----0--0-----0-----0--1--3--1--0--|


G|-------------------------------------------------|-------------------------------------------------|
D|-------------------------------------------------|-------------------------------------------------|
A|-------------------------------------------------|-------------------------------------------------|
E|-0--0-----0--0-----0--0-----0-----0--1--3--1--0--|-0--0-----0--0-----0--0-----0-----0--1--3--1--0--|


G|-------------------------------------------------|-------------------------------------------------|
D|-------------------------------------------------|-------------------------5-----------------------|
A|-7--8-----5--7-----3--5-----2--3-----------------|-5--7-----5--7-----5--7-----5--7-----------5--7--|
E|-------0--------0--------0--------0--1--3--1--0--|-------0--------0-----------------0--5--7--------|


G|-------------------------------------------------|-------------------------------------------------|
D|-------------------------8-----------------------|-------------------------5--0--------------------|
A|-5--7-----5--7-----5--7-----5--7-----------5--7--|-5--7-----5--7-----5--7--------7-----------5--7--|
E|-------0--------0-----------------0--5--7--------|-------0--------0-----------------0--5--7--------|


G|-------------------------------------------------|-------------------------------------------------|
D|-------------------------------------------------|-------------------------------------------------|
A|-7--8-----5--7-----3--5-----2--3-----------------|-------------------------------------------------|
E|-------0--------0--------0--------0--1--3--1--0--|-0--0-----0--0-----0--0-----0-----0--0--0--0--0--|


G|-------------------------------------------------|-------------------------------------------------|
D|-------------------------------------------------|-------------------------------------------------|
A|-------------------------------------------------|-------------------------------------------------|
E|-0--0-----0--0-----0--0-----0-----0--0--0--0--0--|-0--0-----0--0-----0--0-----0-----0--0--0--0--0--|


G|-------------------------------------------------|-------------------------------------------------|
D|-------------------------------------------------|-------------------------------------------------|
A|-------------------------------------------------|-------------------------------------------------|
E|-0--0-----0--0-----0--0-----0-----0--1--3--1--0--|-0--0-----0--0-----0--0-----0-----0--0--0--0--0--|


G|-------------------------------------------------|-------------------------------------------------|
D|-------------------------------------------------|-------------------------------------------------|
A|-------------------------------------------------|-------------------------------------------------|
E|-0--0-----0--0-----0--0-----0-----0--0--0--0--0--|-0--0-----0--0-----0--0-----0-----0--0--0--0--0--|


G|-------------------------------------------------|-------------------------------------------------|
D|-------------------------------------------------|-------------------------------------------------|
A|-------------------------------------------------|-0--0--0--0--0--0--0--0--0--0--0--0--0--0--0--0--|
E|-0--0-----0--0-----0--0-----0-----0--1--3--1--0--|-------------------------------------------------|


G|-------------------------------------------------|-------------------------------------------------|
D|-------------------------------------------------|-------------------------------------------------|
A|-0--0--0--0--0--0--0--0--0--0--0--0--0--0--0--0--|-0--0--0--0--0--0--0--0--0--0--0--0--0--0--0--0--|
E|-------------------------------------------------|-------------------------------------------------|


G|-------------------------------------------------|-------------------------------------------------|
D|-------------------------------------------------|-------------------------------------------------|
A|-0--0--0--0--0--0--0--0--0--0--0--0--0--0--0--0--|-0--0--0--0--0--0--0--0--0--0--0--0--0--0--0--0--|
E|-------------------------------------------------|-------------------------------------------------|


G|-------------------------------------------------|-------------------------------------------------|
D|-------------------------------------------------|-------------------------------------------------|
A|-0--0--0--0--0--0--0--0--0--0--0--0--0--0--0--0--|-0--0--0--0--0--0--0--0--0--0--0--0--0--0--0--0--|
E|-------------------------------------------------|-------------------------------------------------|


G|-------------------------------------------------|-------------------------------------------------|
D|-------------------------------------------------|-------7--------5-----3--0--2--------7--------5--|
A|-0--0--0--0--0--0--0--0--0--0--0--0--0--0--0--0--|-0--4-----0--1-----1-----------0--4-----0--1-----|
E|-------------------------------------------------|-------------------------------------------------|


G|-------------------------------------------------|-------------------------------------------------|
D|-------7--------10-0--8--0--7--------7--------8--|-------7--------5-----3--0--2--------7--------5--|
A|-0--4-----0--5-----------------0--4-----0--5-----|-0--4-----0--1-----1-----------0--4-----0--1-----|
E|-------------------------------------------------|-------------------------------------------------|


G|-------------------------------------------------|--------|-------------------------------------------|
D|-------7--------10-0--8--0--7--------7--------8--|--------|-------2--4--2------7-----7--4---2---------|
A|-0--4-----0--5-----------------0--4-----0--5-----|--------|----4------------4-----4------------4------|
E|-------------------------------------------------|--------|---------------------------------------2---|


G|-------------------------------------------|-------------------------------------------|
D|-------2--4--2------7-----7--4---2---------|-------2--4--2------7-----7--4---2---------|
A|----4------------4-----4------------4------|----4------------4-----4------------4------|
E|-2-------------------------------------2---|-2-------------------------------------2---|


G|-------------------------------------------|-------------------------------------------|
D|-------2--4--2------7-----7--4---2---------|-------5--7--5------10----10-7---5---------|
A|----4------------4-----4------------4------|----7------------7-----7------------7------|
E|-2-------------------------------------5---|-5-------------------------------------5---|


G|-------------------------------------------|-------------------------------------------|
D|-------5--7--5------10----10-7---5---------|-------5--7--5------10----10-7---5---------|
A|----7------------7-----7------------7------|----7------------7-----7------------7------|
E|-5-------------------------------------5---|-5-------------------------------------5---|


G|-----------------------------------------|-------------------------------------------|
D|-------5--7--5------10----10-7---5-------|-------------------------------------------|
A|----7------------7-----7------------7----|-4---4--4------------------------------2---|
E|-5---------------------------------------|-----------0---0--2--2--2--3--3--3--4------|


G|-------------------------------------------|-------------------------------------------|
D|---------------------------------------2---|-------------------------------------------|
A|-4---4--4------------------------2--4------|-4---4--4------------------------------2---|
E|-----------0---0--2--2--2--3--3------------|-----------0---0--2--2--2--3--3--3--4------|


G|-------------------------------------------|-------------------------------------------------|
D|---------------------------------------2---|----------2--------4--2-----2--------------------|
A|-4---4--4------------------------2--4------|-4--2--4-----4--2--------4-----4--2--4--2-----2--|
E|-----------0---0--2--2--2--3--3------------|-------------------------------------------4-----|


G|-------------------------------------------------|-------------------------------------------------|
D|----------2--------4--2-----2--------------------|----------2--------4--2-----2--------------------|
A|-4--2--4-----4--2--------4-----4--2--4--2-----2--|-4--2--4-----4--2--------4-----4--2--4--2-----2--|
E|-------------------------------------------4-----|-------------------------------------------4-----|


G|-------------------------------------------------|-------------------------------------------------|
D|----------3--------6--4-----4--------------------|-------------------------5-----------------------|
A|-5--3--5-----5--3--------6-----6--4--6--4-----4--|-5--7-----5--7-----5--7-----5--7-----------5--7--|
E|-------------------------------------------6-----|-------0--------0-----------------0--5--7--------|


G|-------------------------------------------------|-------------------------------------------------|
D|-------------------------8-----------------------|-------------------------5--0--------------------|
A|-5--7-----5--7-----5--7-----5--7-----------5--7--|-5--7-----5--7-----5--7--------7-----------5--7--|
E|-------0--------0-----------------0--5--7--------|-------0--------0-----------------0--5--7--------|


G|-------------------------------------------------|-------------------------------------------------|
D|-------------------------------------------------|-------------------------------------------------|
A|-7--8-----5--7-----3--5-----2--3-----------------|-------------------------------------------------|
E|-------0--------0--------0--------0--7--8--7--0--|-8--10-0--7--8--0--5--7--0--3--5--0--1--3--1--0--|


G|----------------------------0---------|
D|----------------------------0---------|
A|----------------------------0---------|
E|-0--0-----0--0-----0--0-----0---------|





Track 4: Strings

E|--------|--------|--------|--------|--------|--------|--------|--------|--------|
B|--------|--------|--------|--------|--------|--------|--------|--------|--------|
G|--------|--------|--------|--------|--------|--------|--------|--------|--------|
D|--------|--------|--------|--------|--------|--------|--------|--------|--------|
A|--------|--------|--------|--------|--------|--------|--------|--------|--------|
E|--------|--------|--------|--------|--------|--------|--------|--------|--------|


E|--------|--------|--------|--------|--------|--------|--------|--------|--------|
B|--------|--------|--------|--------|--------|--------|--------|--------|--------|
G|--------|--------|--------|--------|--------|--------|--------|--------|--------|
D|--------|--------|--------|--------|--------|--------|--------|--------|--------|
A|--------|--------|--------|--------|--------|--------|--------|--------|--------|
E|--------|--------|--------|--------|--------|--------|--------|--------|--------|


E|--------|--------|--------|--------|--------|-------------|-------------|-------------|
B|--------|--------|--------|--------|--------|-------------|-------------|-------------|
G|--------|--------|--------|--------|-21-----|-22----22----|-19----19----|-25----26----|
D|--------|--------|--------|--------|-14-----|-15----15----|-12----12----|-18----19----|
A|--------|--------|--------|--------|--------|-------------|-------------|-------------|
E|--------|--------|--------|--------|--------|-------------|-------------|-------------|


E|--------|-------------|-------------|-------------|-17-----|-18-----|-15-----|-16-----|
B|--------|-------------|-------------|-------------|-15-----|-15-----|-15-----|-15-----|
G|-21-----|-22----22----|-19----19----|-25----26----|-14-----|-14-----|-14-----|-14-----|
D|-14-----|-15----15----|-12----12----|-18----19----|-12-----|-12-----|-12-----|-12-----|
A|--------|-------------|-------------|-------------|-12-----|-12-----|-12-----|-12-----|
E|--------|-------------|-------------|-------------|-12-----|-12-----|-12-----|-12-----|


E|-17-----|-18-----|-15-----|-16-----|-------------------------------------------------|
B|-15-----|-15-----|-15-----|-15-----|-------------------------------------------------|
G|-14-----|-14-----|-14-----|-14-----|-------------------------------------------------|
D|-12-----|-12-----|-12-----|-12-----|-------19-------17----15-12-14-------19-------17-|
A|-12-----|-12-----|-12-----|-12-----|-12-16----12-13----13----------12-16----12-13----|
E|-12-----|-12-----|-12-----|-12-----|-------------------------------------------------|


E|-------------------------------------------------|-------------------------------------------------|
B|-------------------------------------------------|-------------------------------------------------|
G|-------------------------------------------------|-------------------------------------------------|
D|-------19-------22-12-20-12-19-------19-------20-|-------19-------17----15-12-14-------19-------17-|
A|-12-16----12-17----------------12-16----12-17----|-12-16----12-13----13----------12-16----12-13----|
E|-------------------------------------------------|-------------------------------------------------|


E|-------------------------------------------------|-------------------------------|
B|-------------------------------------------------|-------14-------15-------17----|
G|-------------------------------------------------|-2--9-----2--10----2--14-------|
D|-------19-------22-12-20-12-19-------19-------20-|-------------------------------|
A|-12-16----12-17----------------12-16----12-17----|-------------------------------|
E|-------------------------------------------------|-------------------------------|


E|--------|--------|--------|--------|--------|--------|--------|--------|--------|
B|--------|--------|--------|--------|--------|--------|--------|--------|--------|
G|--------|--------|--------|--------|--------|--------|--------|--------|--------|
D|--------|--------|--------|--------|--------|--------|--------|--------|--------|
A|--------|--------|--------|--------|--------|--------|--------|--------|--------|
E|--------|--------|--------|--------|--------|--------|--------|--------|--------|


E|--------|--------|--------|--------|--------|--------|--------|--------|--------|
B|--------|--------|--------|--------|--------|--------|--------|--------|--------|
G|--------|--------|--------|--------|--------|--------|--------|--------|--------|
D|--------|--------|--------|--------|--------|--------|--------|--------|--------|
A|--------|--------|--------|--------|--------|--------|--------|--------|--------|
E|--------|--------|--------|--------|--------|--------|--------|--------|--------|


E|--------|--------|--------|--------|
B|--------|--------|--------|--------|
G|--------|--------|--------|--------|
D|--------|--------|--------|--------|
A|--------|--------|--------|--------|
E|--------|--------|--------|--------|





Track 5: Synth

E|--------|--------|--------|--------|--------|--------|--------|--------|--------|
B|--------|--------|--------|--------|--------|--------|--------|--------|--------|
G|--------|--------|--------|--------|--------|--------|--------|--------|--------|
D|--------|--------|--------|--------|--------|--------|--------|--------|--------|
A|--------|--------|--------|--------|--------|--------|--------|--------|--------|
E|--------|--------|--------|--------|--------|--------|--------|--------|--------|


E|--------|--------|--------|--------|--------|--------|--------|--------|--------|
B|--------|--------|--------|--------|--------|--------|--------|--------|--------|
G|--------|--------|--------|--------|--------|--------|--------|--------|--------|
D|--------|--------|--------|--------|--------|--------|--------|--------|--------|
A|--------|--------|--------|--------|--------|--------|--------|--------|--------|
E|--------|--------|--------|--------|--------|--------|--------|--------|--------|


E|--------|--------|--------|--------|--------|--------|--------|--------|--------|
B|--------|--------|--------|--------|--------|--------|--------|--------|--------|
G|--------|--------|--------|--------|--------|--------|--------|--------|--------|
D|--------|--------|--------|--------|--------|--------|--------|--------|--------|
A|--------|--------|--------|--------|--------|--------|--------|--------|--------|
E|--------|--------|--------|--------|--------|--------|--------|--------|--------|


E|--------|--------|--------|-17-----|-18-----|-15-----|-16-----|-17-----|-18-----|
B|--------|--------|--------|-15-----|-15-----|-15-----|-15-----|-15-----|-15-----|
G|--------|--------|--------|-14-----|-14-----|-14-----|-14-----|-14-----|-14-----|
D|--------|--------|--------|--------|--------|--------|--------|--------|--------|
A|--------|--------|--------|--------|--------|--------|--------|--------|--------|
E|--------|--------|--------|--------|--------|--------|--------|--------|--------|


E|-15-----|-16-----|--------|--------|--------|--------|--------|--------|--------|
B|-15-----|-15-----|--------|--------|--------|--------|--------|--------|--------|
G|-14-----|-14-----|--------|--------|--------|--------|--------|--------|--------|
D|--------|--------|--------|--------|--------|--------|--------|--------|--------|
A|--------|--------|--------|--------|--------|--------|--------|--------|--------|
E|--------|--------|--------|--------|--------|--------|--------|--------|--------|


E|--------|--------|--------|--------|--------|--------|--------|--------|--------|
B|--------|--------|--------|--------|--------|--------|--------|--------|--------|
G|--------|--------|--------|--------|--------|--------|--------|--------|--------|
D|--------|--------|--------|--------|--------|--------|--------|--------|--------|
A|--------|--------|--------|--------|--------|--------|--------|--------|--------|
E|--------|--------|--------|--------|--------|--------|--------|--------|--------|


E|--------|--------|--------|--------|--------|--------|--------|--------|--------|
B|--------|--------|--------|--------|--------|--------|--------|--------|--------|
G|--------|--------|--------|--------|--------|--------|--------|--------|--------|
D|--------|--------|--------|--------|--------|--------|--------|--------|--------|
A|--------|--------|--------|--------|--------|--------|--------|--------|--------|
E|--------|--------|--------|--------|--------|--------|--------|--------|--------|


E|--------|--------|
B|--------|--------|
G|--------|--------|
D|--------|--------|
A|--------|--------|
E|--------|--------|