Site menu:

    

Browse: 0-9 A B C D E F G H I J K L N O P Q R S T U V W X Y Z

dream theater - disappear:



Title: Disappear
Artist: 
Album: Six Degrees of Inner Turbulence
Author: Dream Theater


Track 1: Lead (E-Bow)

E|--------|--------|-------------|-------------|--------|--------|-------------|-------------|
B|--------|--------|-------------|-------------|--------|--------|-------------|-------------|
G|--------|--------|-------------|-------------|--------|--------|-------------|-------------|
D|--------|--------|-------------|-------------|--------|--------|-------------|-------------|
A|--------|--------|-------------|-------------|--------|--------|-------------|-------------|
E|--------|--------|-------------|-------------|--------|--------|-------------|-------------|


E|-------------|--------|-------------|-------------|-------------|--------|--------|
B|-------------|--------|-------------|-------------|-------------|--------|--------|
G|-------------|--------|-------------|-------------|-------------|--------|--------|
D|-------------|--------|-------------|-------------|-------------|--------|--------|
A|-------------|--------|-------------|-------------|-------------|--------|--------|
E|-------------|--------|-------------|-------------|-------------|--------|--------|


E|-------------|-------------|-------------|--------|--------|-------------|-------------|
B|-------------|-------------|-------------|--------|--------|-------------|-------------|
G|-------------|-------------|-------------|--------|--------|-------------|-------------|
D|-------------|-------------|-------------|--------|--------|-------------|-------------|
A|-------------|-------------|-------------|--------|--------|-------------|-------------|
E|-------------|-------------|-------------|--------|--------|-------------|-------------|


E|-------------|--------|--------|-------------|-------------|-------------|--------|
B|-------------|--------|--------|-------------|-------------|-------------|--------|
G|-------------|--------|--------|-------------|-------------|-------------|--------|
D|-------------|--------|--------|-------------|-------------|-------------|--------|
A|-------------|--------|--------|-------------|-------------|-------------|--------|
E|-------------|--------|--------|-------------|-------------|-------------|--------|


E|--------|-------------|-------------|-------------|--------|--------|-------------|
B|--------|-------------|-------------|-------------|--------|--------|-------------|
G|--------|-------------|-------------|-------------|--------|--------|-------------|
D|--------|-------------|-------------|-------------|--------|--------|-------------|
A|--------|-------------|-------------|-------------|--------|--------|-------------|
E|--------|-------------|-------------|-------------|--------|--------|-------------|


E|-------------|-------------|--------|--------|-------------|-------------|-------------|
B|-------------|-------------|--------|--------|-------------|-------------|-------------|
G|-------------|-------------|--------|--------|-------------|-------------|-------------|
D|-------------|-------------|--------|--------|-------------|-------------|-------------|
A|-------------|-------------|--------|--------|-------------|-------------|-------------|
E|-------------|-------------|--------|--------|-------------|-------------|-------------|


E|--------|--------|-------------|-------------|-------------|--------|--------|-------------|
B|--------|--------|-------------|-------------|-------------|--------|--------|-------------|
G|--------|--------|-------------|-------------|-------------|--------|--------|-------------|
D|--------|--------|-------------|-------------|-------------|--------|--------|-------------|
A|--------|--------|-------------|-------------|-------------|--------|--------|-------------|
E|--------|--------|-------------|-------------|-------------|--------|--------|-------------|


E|--------|--------|--------|--------|--------|--------|--------|--------|--------|
B|--------|--------|--------|--------|--------|--------|--------|--------|--------|
G|--------|--------|--------|--------|--------|--------|--------|--------|--------|
D|--------|--------|--------|--------|--------|--------|--------|--------|--------|
A|--------|--------|--------|--------|--------|--------|--------|--------|--------|
E|--------|--------|--------|--------|--------|--------|--------|--------|--------|


E|--------|--------|--------|--------|--------|---------------------|---------------------|
B|--------|--------|--------|--------|--------|-5-----6---6----17---|------14----5---5----|
G|--------|--------|--------|--------|--------|---------------------|---------------------|
D|--------|--------|--------|--------|--------|---------------------|---------------------|
A|--------|--------|--------|--------|--------|---------------------|---------------------|
E|--------|--------|--------|--------|--------|---------------------|---------------------|


E|---------------------|---------------------|---------------------|-------------|
B|-6----8----5-----6---|-6----17---20---18---|-10----11--11---8----|------6------|
G|---------------------|---------------------|---------------------|-------------|
D|---------------------|---------------------|---------------------|-------------|
A|---------------------|---------------------|---------------------|-------------|
E|---------------------|---------------------|---------------------|-------------|


E|-------------|-------------|--------|--------|-------------|-------------|-------------|
B|-------------|-------------|--------|--------|-------------|-------------|-------------|
G|-------------|-------------|--------|--------|-------------|-------------|-------------|
D|-------------|-------------|--------|--------|-------------|-------------|-------------|
A|-------------|-------------|--------|--------|-------------|-------------|-------------|
E|-------------|-------------|--------|--------|-------------|-------------|-------------|


E|--------|--------|-------------|-------------|-------------|--------|--------|-------------|
B|--------|--------|-------------|-------------|-------------|--------|--------|-------------|
G|--------|--------|-------------|-------------|-------------|--------|--------|-------------|
D|--------|--------|-------------|-------------|-------------|--------|--------|-------------|
A|--------|--------|-------------|-------------|-------------|--------|--------|-------------|
E|--------|--------|-------------|-------------|-------------|--------|--------|-------------|


E|-------------|-------------|--------|--------|-------------|-------------|-------------|
B|-------------|-------------|--------|--------|-------------|-------------|-------------|
G|-------------|-------------|--------|--------|-------------|-------------|-------------|
D|-------------|-------------|--------|--------|-------------|-------------|-------------|
A|-------------|-------------|--------|--------|-------------|-------------|-------------|
E|-------------|-------------|--------|--------|-------------|-------------|-------------|


E|--------|--------|-------------|-------------|-------------|--------|--------|-------------|
B|--------|--------|-------------|-------------|-------------|--------|--------|-------------|
G|--------|--------|-------------|-------------|-------------|--------|--------|------10-----|
D|--------|--------|-------------|-------------|-------------|--------|--------|-------------|
A|--------|--------|-------------|-------------|-------------|--------|--------|-------------|
E|--------|--------|-------------|-------------|-------------|--------|--------|-------------|


E|-------------|-------------|-------------|-------------|-------------|-------------|
B|-------------|-------------|-------------|-------------|-------------|-------------|
G|-10-----9----|-------9-----|------14-----|-14-----12---|-------12----|------10-----|
D|-------------|-------------|-------------|-------------|-------------|-------------|
A|-------------|-------------|-------------|-------------|-------------|-------------|
E|-------------|-------------|-------------|-------------|-------------|-------------|


E|-------------|-------------|-------------|-------------|-------------|-------------|
B|-------------|-------------|-------------|-------------|-------------|-------------|
G|-10-----10---|-------10----|------9------|-1------2----|-------2-----|------4------|
D|-------------|-------------|-------------|-------------|-------------|-------------|
A|-------------|-------------|-------------|-------------|-------------|-------------|
E|-------------|-------------|-------------|-------------|-------------|-------------|


E|-------------|-----------------|-------------|---------------------|-----------------|
B|-------------|-----------------|-------------|---------------------|-----------------|
G|-5------6----|-------10---8----|-6----10-----|-10---8----6----10---|-------10---11---|
D|-------------|-----------------|-------------|---------------------|-----------------|
A|-------------|-----------------|-------------|---------------------|-----------------|
E|-------------|-----------------|-------------|---------------------|-----------------|


E|-------------|-------------|-----------------|-------------|---------------------|
B|-------------|-------------|-----------------|-------------|---------------------|
G|-10---10-----|-8------6----|-------10---8----|-6----10-----|-10---8----6----10---|
D|-------------|-------------|-----------------|-------------|---------------------|
A|-------------|-------------|-----------------|-------------|---------------------|
E|-------------|-------------|-----------------|-------------|---------------------|


E|-----------------|-------------|-------------|-----------------|-------------|---------------------|
B|-----------------|-------------|-------------|-----------------|-------------|---------------------|
G|-------10---11---|-10---10-----|-8------6----|-------10---8----|-6----10-----|-10---8----6----10---|
D|-----------------|-------------|-------------|-----------------|-------------|---------------------|
A|-----------------|-------------|-------------|-----------------|-------------|---------------------|
E|-----------------|-------------|-------------|-----------------|-------------|---------------------|


E|-----------------|-------------|-------------|-----------------|-------------|---------------------|
B|-----------------|-------------|-------------|-----------------|-------------|---------------------|
G|-------10---11---|-10---10-----|-8------6----|-------10---8----|-6----10-----|-10---8----6----10---|
D|-----------------|-------------|-------------|-----------------|-------------|---------------------|
A|-----------------|-------------|-------------|-----------------|-------------|---------------------|
E|-----------------|-------------|-------------|-----------------|-------------|---------------------|


E|-----------------|-------------|-------------|-------------|-------------|---------------------|
B|-----------------|-------------|-------------|-------------|-------------|---------------------|
G|-------10---11---|-10---2------|-2-----------|-------------|-------------|---------------------|
D|-----------------|-------------|-------------|-------------|-------------|-----------1----3----|
A|-----------------|-------------|-------------|-------------|-------------|------1--------------|
E|-----------------|-------------|-------------|-------------|-------------|---------------------|


E|-------------|-------------|-------------|-----------------|-----------------|------------------------|
B|-------------|-------------|-------------|-------5-----6---|-6----17----14---|-----5---5----6----8----|
G|-------------|------6------|-8------10---|-----------------|-----------------|------------------------|
D|-------3-----|-------------|-------------|-----------------|-----------------|------------------------|
A|-------------|-------------|-------------|-----------------|-----------------|------------------------|
E|-------------|-------------|-------------|-----------------|-----------------|------------------------|


E|---------------------|---------------------|---------------------|--------------------|
B|-5-----6---6----17---|-20---18---10----11--|-11---8----6----5----|-----6---6----17----|
G|---------------------|---------------------|---------------------|--------------------|
D|---------------------|---------------------|---------------------|--------------------|
A|---------------------|---------------------|---------------------|--------------------|
E|---------------------|---------------------|---------------------|--------------------|


E|---------------------|---------------------|---------------------|------------------------|
B|-14----5---5----6----|-8----5-----6---6----|-17---20---18---10---|-----11--11---8----6----|
G|---------------------|---------------------|---------------------|------------------------|
D|---------------------|---------------------|---------------------|------------------------|
A|---------------------|---------------------|---------------------|------------------------|
E|---------------------|---------------------|---------------------|------------------------|


E|---------------------|-------------|-------------|
B|-10----11--11---8----|-6----3------|-3-----------|
G|---------------------|-------------|-------------|
D|---------------------|-------------|-------------|
A|---------------------|-------------|-------------|
E|---------------------|-------------|-------------|





Track 2: Distortion Guitar

E|--------|--------|--------|--------|--------|--------|--------|--------|--------|
B|--------|--------|--------|--------|--------|--------|--------|--------|--------|
G|--------|--------|--------|--------|--------|--------|--------|--------|--------|
D|--------|--------|--------|--------|--------|--------|--------|--------|--------|
A|--------|--------|--------|--------|--------|--------|--------|--------|--------|
E|--------|--------|--------|--------|--------|--------|--------|--------|--------|


E|--------|--------|--------|--------|--------|--------|--------|--------|--------|
B|--------|--------|--------|--------|--------|--------|--------|--------|--------|
G|--------|--------|--------|--------|--------|--------|--------|--------|--------|
D|--------|--------|--------|--------|--------|--------|--------|--------|--------|
A|--------|--------|--------|--------|--------|--------|--------|--------|--------|
E|--------|--------|--------|--------|--------|--------|--------|--------|--------|


E|--------|--------|--------|--------|--------|--------|--------|--------|--------|
B|--------|--------|--------|--------|--------|--------|--------|--------|--------|
G|--------|--------|--------|--------|--------|--------|--------|--------|--------|
D|--------|--------|--------|--------|--------|--------|--------|--------|--------|
A|--------|--------|--------|--------|--------|--------|--------|--------|--------|
E|--------|--------|--------|--------|--------|--------|--------|--------|--------|


E|--------|--------|--------|--------|--------|--------|--------|--------|--------|
B|--------|--------|--------|--------|--------|--------|--------|--------|--------|
G|--------|--------|--------|--------|--------|--------|--------|--------|--------|
D|--------|--------|--------|--------|--------|--------|--------|--------|--------|
A|--------|--------|--------|--------|--------|--------|--------|--------|--------|
E|--------|--------|--------|--------|--------|--------|--------|--------|--------|


E|--------|--------|--------|--------|--------|--------|--------|--------|--------|
B|--------|--------|--------|--------|--------|--------|--------|--------|--------|
G|--------|--------|--------|--------|--------|--------|--------|--------|--------|
D|--------|--------|--------|--------|--------|--------|--------|--------|--------|
A|--------|--------|--------|--------|--------|--------|--------|--------|--------|
E|--------|--------|--------|--------|--------|--------|--------|--------|--------|


E|--------|--------|--------|--------|--------|--------|--------|--------|--------|
B|--------|--------|--------|--------|--------|--------|--------|--------|--------|
G|--------|--------|--------|--------|--------|--------|--------|--------|--------|
D|--------|--------|--------|--------|--------|--------|--------|--------|--------|
A|--------|--------|--------|--------|--------|--------|--------|--------|--------|
E|--------|--------|--------|--------|--------|--------|--------|--------|--------|


E|--------|--------|--------|--------|--------|--------|--------|--------|--------|
B|--------|--------|--------|--------|--------|--------|--------|--------|--------|
G|--------|--------|--------|--------|--------|--------|--------|--------|--------|
D|--------|--------|--------|--------|--------|--------|--------|--------|--------|
A|--------|--------|--------|--------|--------|--------|--------|--------|--------|
E|--------|--------|--------|--------|--------|--------|--------|--------|--------|


E|--------|--------|--------|--------|--------|--------|--------|--------|--------|
B|--------|--------|--------|--------|--------|--------|--------|--------|--------|
G|--------|--------|--------|--------|--------|--------|--------|--------|--------|
D|--------|--------|--------|--------|--------|--------|--------|--------|--------|
A|--------|--------|--------|--------|--------|--------|--------|--------|--------|
E|--------|--------|--------|--------|--------|--------|--------|--------|--------|


E|--------|--------|--------|--------|--------|--------|--------|--------|--------|
B|--------|--------|--------|--------|--------|--------|--------|--------|--------|
G|--------|--------|--------|--------|--------|--------|--------|--------|--------|
D|--------|--------|--------|--------|--------|--------|--------|--------|--------|
A|--------|--------|--------|--------|--------|--------|--------|--------|--------|
E|--------|--------|--------|--------|--------|--------|--------|--------|--------|


E|--------|--------|--------|--------|--------|--------|--------|--------|--------|
B|--------|--------|--------|--------|--------|--------|--------|--------|--------|
G|--------|--------|--------|--------|--------|--------|--------|--------|--------|
D|--------|--------|--------|--------|--------|--------|--------|--------|--------|
A|--------|--------|--------|--------|--------|--------|--------|--------|--------|
E|--------|--------|--------|--------|--------|--------|--------|--------|--------|


E|--------|--------|--------|--------|--------|--------|--------|--------|--------|
B|--------|--------|--------|--------|--------|--------|--------|--------|--------|
G|--------|--------|--------|--------|--------|--------|--------|--------|--------|
D|--------|--------|--------|--------|--------|--------|--------|--------|--------|
A|--------|--------|--------|--------|--------|--------|--------|--------|--------|
E|--------|--------|--------|--------|--------|--------|--------|--------|--------|


E|--------|--------|--------|--------|--------|--------|--------|--------|--------|
B|--------|--------|--------|--------|--------|--------|--------|--------|--------|
G|--------|--------|--------|--------|--------|--------|--------|--------|--------|
D|--------|--------|--------|--------|--------|--------|--------|--------|--------|
A|--------|--------|--------|--------|--------|--------|--------|--------|--------|
E|--------|--------|--------|--------|--------|--------|--------|--------|--------|


E|--------|--------|--------|--------|--------|-------------|-------------|-------------|
B|--------|--------|--------|--------|--------|-------------|-------------|-------------|
G|--------|--------|--------|--------|--------|-------------|-------------|-------------|
D|--------|--------|--------|--------|--------|--------3----|-------3-----|-------------|
A|--------|--------|--------|--------|--------|--------1----|-------1-----|------4------|
E|--------|--------|--------|--------|--------|-------------|-------------|------2------|


E|-------------|-------------|-------------|-------------|-------------|-------------|
B|-------------|-------------|-------------|-------------|-------------|-------------|
G|-------------|-------------|-------------|-------------|-------------|-------------|
D|--------6----|-------6-----|-------------|--------3----|-------3-----|-------------|
A|-4------4----|-------4-----|------3------|-6------1----|-------1-----|------4------|
E|-2-----------|-------------|------1------|-4-----------|-------------|------2------|


E|-------------|-------------|-------------|-------------|-------------|-------------|
B|-------------|-------------|-------------|-------------|-------------|-------------|
G|-------------|-------------|-------------|-------------|-------------|-------------|
D|--------6----|-------6-----|-------------|--------3----|-------3-----|-------------|
A|-4------4----|-------4-----|------3------|-6------1----|-------1-----|------4------|
E|-2-----------|-------------|------1------|-4-----------|-------------|------2------|


E|-------------|-------------|-------------|-------------|-------------|-------------|
B|-------------|-------------|-------------|-------------|-------------|-------------|
G|-------------|-------------|-------------|-------------|-------------|-------------|
D|--------6----|-------6-----|-------------|--------3----|-------3-----|-------------|
A|-4------4----|-------4-----|------3------|-6------1----|-------1-----|------4------|
E|-2-----------|-------------|------1------|-4-----------|-------------|------2------|


E|-------------|-------------|-------------|-------------|-------------|-------------|
B|-------------|-------------|-------------|-------------|-------------|-------------|
G|-------------|-------------|------10-----|-8------6----|-------6-----|-------------|
D|--------6----|-------6-----|-------------|--------6----|-------6-----|-------------|
A|-4------4----|-------4-----|-------------|--------4----|-------4-----|------4------|
E|-2-----------|-------------|-------------|--------4----|-------4-----|------2------|


E|-------------|-------------|-------------|-------------|-------------|-------------|
B|-------------|-------------|-------------|-------------|-------------|-------------|
G|-------------|-------------|------6------|-8------5----|-------------|-------------|
D|-4------3----|-------3-----|-------------|-------------|-------------|-------------|
A|--------3----|-------3-----|-------------|-------------|-------------|-------------|
E|--------1----|-------1-----|-------------|-------------|-------------|-------------|


E|--------|--------|--------|-------------|--------|--------|--------|--------|--------|
B|--------|--------|--------|-------------|--------|--------|--------|--------|--------|
G|--------|--------|--------|-------------|--------|--------|--------|--------|--------|
D|--------|--------|--------|-------------|--------|--------|--------|--------|--------|
A|--------|--------|--------|-------------|--------|--------|--------|--------|--------|
E|--------|--------|--------|-------------|--------|--------|--------|--------|--------|


E|--------|--------|--------|
B|--------|--------|--------|
G|--------|--------|--------|
D|--------|--------|--------|
A|--------|--------|--------|
E|--------|--------|--------|





Track 3: Untitled

G|--------|--------|--------|--------|--------|--------|--------|--------|--------|
D|--------|--------|--------|--------|--------|--------|--------|--------|--------|
A|--------|--------|--------|--------|--------|--------|--------|--------|--------|
E|--------|--------|--------|--------|--------|--------|--------|--------|--------|


G|--------|--------|--------|--------|--------|--------|--------|--------|--------|
D|--------|--------|--------|--------|--------|--------|--------|--------|--------|
A|--------|--------|--------|--------|--------|--------|--------|--------|--------|
E|--------|--------|--------|--------|--------|--------|--------|--------|--------|


G|--------|--------|--------|--------|--------|--------|--------|--------|--------|
D|--------|--------|--------|--------|--------|--------|--------|--------|--------|
A|--------|--------|--------|--------|--------|--------|--------|--------|--------|
E|--------|--------|--------|--------|--------|--------|--------|--------|--------|


G|--------|--------|--------|--------|--------|--------|--------|--------|--------|
D|--------|--------|--------|--------|--------|--------|--------|--------|--------|
A|--------|--------|--------|--------|--------|--------|--------|--------|--------|
E|--------|--------|--------|--------|--------|--------|--------|--------|--------|


G|--------|--------|--------|--------|--------|--------|--------|--------|--------|
D|--------|--------|--------|--------|--------|--------|--------|--------|--------|
A|--------|--------|--------|--------|--------|--------|--------|--------|--------|
E|--------|--------|--------|--------|--------|--------|--------|--------|--------|


G|--------|--------|--------|--------|--------|--------|--------|--------|--------|
D|--------|--------|--------|--------|--------|--------|--------|--------|--------|
A|--------|--------|--------|--------|--------|--------|--------|--------|--------|
E|--------|--------|--------|--------|--------|--------|--------|--------|--------|


G|--------|--------|--------|--------|--------|--------|--------|--------|--------|
D|--------|--------|--------|--------|--------|--------|--------|--------|--------|
A|--------|--------|--------|--------|--------|--------|--------|--------|--------|
E|--------|--------|--------|--------|--------|--------|--------|--------|--------|


G|--------|--------|--------|--------|--------|--------|--------|--------|--------|
D|--------|--------|--------|--------|--------|--------|--------|--------|--------|
A|--------|--------|--------|--------|--------|--------|--------|--------|--------|
E|--------|--------|--------|--------|--------|--------|--------|--------|--------|


G|--------|--------|--------|--------|--------|--------|--------|--------|--------|
D|--------|--------|--------|--------|--------|--------|--------|--------|--------|
A|--------|--------|--------|--------|--------|--------|--------|--------|--------|
E|--------|--------|--------|--------|--------|--------|--------|--------|--------|


G|--------|--------|--------|--------|--------|--------|--------|--------|--------|
D|--------|--------|--------|--------|--------|--------|--------|--------|--------|
A|--------|--------|--------|--------|--------|--------|--------|--------|--------|
E|--------|--------|--------|--------|--------|--------|--------|--------|--------|


G|--------|--------|--------|--------|--------|--------|--------|--------|--------|
D|--------|--------|--------|--------|--------|--------|--------|--------|--------|
A|--------|--------|--------|--------|--------|--------|--------|--------|--------|
E|--------|--------|--------|--------|--------|--------|--------|--------|--------|


G|--------|--------|--------|--------|--------|--------|--------|--------|--------|
D|--------|--------|--------|--------|--------|--------|--------|--------|--------|
A|--------|--------|--------|--------|--------|--------|--------|--------|--------|
E|--------|--------|--------|--------|--------|--------|--------|--------|--------|


G|--------|--------|--------|--------|--------|--------|--------|--------|--------|
D|--------|--------|--------|--------|--------|--------|--------|--------|--------|
A|--------|--------|--------|--------|--------|--------|--------|--------|--------|
E|--------|--------|--------|--------|--------|--------|--------|--------|--------|


G|--------|--------|--------|--------|--------|--------|--------|--------|--------|
D|--------|--------|--------|--------|--------|--------|--------|--------|--------|
A|--------|--------|--------|--------|--------|--------|--------|--------|--------|
E|--------|--------|--------|--------|--------|--------|--------|--------|--------|


G|--------|--------|--------|--------|--------|--------|--------|--------|--------|
D|--------|--------|--------|--------|--------|--------|--------|--------|--------|
A|--------|--------|--------|--------|--------|--------|--------|--------|--------|
E|--------|--------|--------|--------|--------|--------|--------|--------|--------|


G|--------|--------|--------|--------|--------|--------|--------|--------|--------|
D|--------|--------|--------|--------|--------|--------|--------|--------|--------|
A|--------|--------|--------|--------|--------|--------|--------|--------|--------|
E|--------|--------|--------|--------|--------|--------|--------|--------|--------|


G|--------|--------|--------|--------|--------|--------|--------|--------|--------|
D|--------|--------|--------|--------|--------|--------|--------|--------|--------|
A|--------|--------|--------|--------|--------|--------|--------|--------|--------|
E|--------|--------|--------|--------|--------|--------|--------|--------|--------|


G|--------|--------|--------|--------|--------|
D|--------|--------|--------|--------|--------|
A|--------|--------|--------|--------|--------|
E|--------|--------|--------|--------|--------|