Site menu:

    

Browse: 0-9 A B C D E F G H I J K L N O P Q R S T U V W X Y Z

dream theater - afterlife:



Title: Afterlife
Artist: 
Album: When Dream and Day Unite
Author: Dream Theater


Track 1: Distortion 1

E|-------------------------------------------------|-------------------------------------------------|
B|-------------------------------------------------|-------------------------------------------------|
G|-------------------------------------------------|-------------------------------------------------|
D|-------------------------------------6--6--------|-------------------------7--7--------6--6--------|
A|-4--4--4--4--4--4--7--7--4--4--4--4--------5--5--|-5--5--7--7--5--5--5--5--------5--5--------5--5--|
E|-------------------------------------------------|-------------------------------------------------|


E|-------------------------------------------------|------------------------|-------------------------------------------------|
B|-------------------------------------------------|------------------------|-------------------------------------------------|
G|-------------------------------------------------|-4----4---2---2---------|-------------------------------------------------|
D|-------------------------------------6--6--------|-4----4---2---2---------|-------------------------------------6--6--------|
A|-4--4--4--4--4--4--7--7--4--4--4--4--------4--4--|-2----2---0---0---------|-4--4--4--4--4--4--7--7--4--4--4--4--------5--5--|
E|-------------------------------------------------|-------------------4----|-------------------------------------------------|


E|-------------------------------------------------|-------------------------------------------------|
B|-------------------------------------------------|-------------------------------------------------|
G|-------------------------------------------------|-------------------------------------------------|
D|-------------------------7--7--------6--6--------|-------------------------------------6--6--------|
A|-5--5--7--7--5--5--5--5--------5--5--------5--5--|-4--4--4--4--4--4--7--7--4--4--4--4--------4--4--|
E|-------------------------------------------------|-------------------------------------------------|


E|------------------------|---------------------------------|------------------------|
B|------------------------|---------------------------------|------------------------|
G|-4----4---2---2---------|-------------4-------4-------4---|-4------------7----9----|
D|-4----4---2---2---------|-------------4-------4-------4---|-4---4--------7----9----|
A|-2----2---0---0---------|-4---5---4---2-------2-------2---|-2---4--------5----7----|
E|-------------------4----|---------------------------------|-----2----0-------------|


E|-------------------------------------------------|-------------------------------------------------|
B|-------------------------------------------------|-------------------------------------------------|
G|-------------------------------------------------|-------------------------------------------------|
D|-------------------------------------6--6--------|-------------------------7--7--------6--6--------|
A|-4--4--4--4--4--4--7--7--4--4--4--4--------5--5--|-5--5--7--7--5--5--5--5--------5--5--------5--5--|
E|-------------------------------------------------|-------------------------------------------------|


E|-------------------------------------------------|-------------------------------------------------|
B|-------------------------------------------------|-------------------------------------------------|
G|-------------------------------------------------|-------------------------------------------------|
D|-------------------------------------6--6--------|-------------------------7--7--------6--6--------|
A|-4--4--4--4--4--4--7--7--4--4--4--4--------5--5--|-5--5--7--7--5--5--5--5--------5--5--------5--5--|
E|-------------------------------------------------|-------------------------------------------------|


E|-------------------------------------------------|-------------------------------------------------|
B|-------------------------------------------------|-------------------------------------------------|
G|-------------------------------------------------|-------------------------------------------------|
D|-------------------------------------6--6--------|-------------------------7--7--------6--6--------|
A|-4--4--4--4--4--4--7--7--4--4--4--4--------5--5--|-5--5--7--7--5--5--5--5--------5--5--------5--5--|
E|-------------------------------------------------|-------------------------------------------------|


E|-----------------------------------|---------------------------------|-----------------------------|
B|-----------------------------------|---------------------------------|------5---5---5--------------|
G|-------------4---------------------|-----------------7-------7-------|------4---4---4--------------|
D|-------------4---------------------|---------4---5---7-------7-------|------6---6---6--------------|
A|-4---5---4---2-------0--2----------|-----------------5-------5-------|------4---4---4----4---4--4--|
E|---------------------------5---4---|-2---0---------------------------|-----------------------------|


E|-------------------------------|--------------------------------|-------------------------------|
B|-5--------------5--------------|-5---5---5---5---5--------------|-5--------------5--------------|
G|-4--------------4--------------|-4---4---4---4---4--------------|-4--------------4--------------|
D|-6--------------6--------------|-6---2---2---2---2--------------|-2--------------2--------------|
A|-4----4---4--4--4----4---4--4--|-4---2---2---2---2----2---2--2--|-2----2---2--2--2----2---2--2--|
E|-------------------------------|--------------------------------|-------------------------------|


E|--------------------------------|--------------------------------------|--------------------------------|
B|-5---5---5---5---5--------------|-5----------------------------5-------|-----4---4---4---4--------------|
G|-4---4---4---4---4--------------|-4----------------------------4-------|-----4---4---4---4--------------|
D|-2---6---6---6---6--------------|-6----------------------------6-------|-----4---4---4---4--------------|
A|-2---4---4---4---4----4---4--4--|-4----4--4--4--4--4--4--4--4--4-------|--------------------------------|
E|--------------------------------|--------------------------------------|-----4---4---4---4----4---4--4--|


E|------------------------------------|--------------------------------|-------------------------------|
B|-4----------------------------------|-----5---5---5---5--------------|-5--------------5--------------|
G|-4----------------------------------|-----4---4---4---4--------------|-4--------------4--------------|
D|-4----------------------------------|-----6---6---6---6--------------|-6--------------6--------------|
A|------------------------------------|-----4---4---4---4----4---4--4--|-4----4---4--4--4----4---4--4--|
E|-4----4--4--4---4---2--4--2---4--2--|-0------------------------------|-------------------------------|


E|--------------------------------|-------------------------------|--------------------------------|
B|-5---------------4--------------|-4--------------4--------------|-4---------------5--------------|
G|-4---8---8---6---4--------------|-4--------------4--------------|-4---9---9---6---4--------------|
D|-6---9-----------4--------------|-4--------------4--------------|-4---9---9---6---6--------------|
A|-4---6---6---4---4----4---4--4--|-4----4---4--4--4----4---4--4--|-4---7---7---4---4----4---4--4--|
E|--------------------------------|-------------------------------|--------------------------------|


E|-------------------------------|--------------------------------|-------------------------------|
B|-5--------------5--------------|-5---------------4--------------|-4--------------4--------------|
G|-4--------------4--------------|-4---11--11--6---4--------------|-4--------------4--------------|
D|-6--------------6--------------|-6---11--11--6---4--------------|-4--------------4--------------|
A|-4----4---4--4--4----4---4--4--|-4---9---9---4---4----4---4--4--|-4----4---4--4--4----4---4--4--|
E|-------------------------------|--------------------------------|-------------------------------|


E|--------------------------------|-------------------------------|--------------------------------|
B|-4---5---5---5---5--------------|-------------------------------|-----0---0---0---0--------------|
G|-4---4---4---4---4--------------|-4--------------4--------------|-4---2---2---2---2--------------|
D|-4---2---2---2---2--------------|-2--------------2--------------|-2---2---2---2---2--------------|
A|-4---2---2---2---2----2---2--2--|-2----2---2--2--2----2---2--2--|-2---0---0---0---0----0---0--0--|
E|--------------------------------|-------------------------------|--------------------------------|


E|------------------------------|--------------------------------|-------------------------------|
B|-0--------0-------0-------0---|-----5---5---5---5--------------|-5--------------5--------------|
G|-2--------2-------2-------2---|-----4---4---4---4--------------|-4--------------4--------------|
D|-2--------2-------2-------2---|-----6---6---6---6--------------|-6--------------6--------------|
A|-0----0---0---0---0---0---0---|-0---4---4---4---4----4---4--4--|-4----4---4--4--4----4---4--4--|
E|------------------------------|--------------------------------|-------------------------------|


E|--------------------------------|-------------------------------|--------------------------------|
B|-5------------------------------|-------------------------------|-----5---5---5---5--------------|
G|-4---4---4---4---4--------------|-4--------------4--------------|-4---4---4---4---4--------------|
D|-6---2---2---2---2--------------|-2--------------2--------------|-2---6---6---6---6--------------|
A|-4---2---2---2---2----2---2--2--|-2----2---2--2--2----2---2--2--|-2---4---4---4---4----4---4--4--|
E|--------------------------------|-------------------------------|--------------------------------|


E|--------------------------------------|--------------------------------|------------------------------------|
B|-5----------------------------5-------|-----4---4---4---4--------------|-4----------------------------------|
G|-4----------------------------4-------|-----4---4---4---4--------------|-4----------------------------------|
D|-6----------------------------6-------|-----4---4---4---4--------------|-4----------------------------------|
A|-4----4--4--4--4--4--4--4--4--4-------|--------------------------------|------------------------------------|
E|--------------------------------------|-----4---4---4---4----4---4--4--|-4----4--4--4---4---2--4--2---4--2--|


E|--------------------------------|-------------------------------|--------------------------------|
B|-----5---5---5---5--------------|-5--------------5--------------|-5---------------4--------------|
G|-----4---4---4---4--------------|-4--------------4--------------|-4---8---8---6---4--------------|
D|-----6---6---6---6--------------|-6--------------6--------------|-6---9-----------4--------------|
A|-----4---4---4---4----4---4--4--|-4----4---4--4--4----4---4--4--|-4---6---6---4---4----4---4--4--|
E|-0------------------------------|-------------------------------|--------------------------------|


E|-------------------------------|--------------------------------|-------------------------------|
B|-4--------------4--------------|-4---------------5--------------|-5--------------5--------------|
G|-4--------------4--------------|-4---9---9---6---4--------------|-4--------------4--------------|
D|-4--------------4--------------|-4---9---9---6---6--------------|-6--------------6--------------|
A|-4----4---4--4--4----4---4--4--|-4---7---7---4---4----4---4--4--|-4----4---4--4--4----4---4--4--|
E|-------------------------------|--------------------------------|-------------------------------|


E|--------------------------------|-------------------------------|--------------------------------|
B|-5---------------4--------------|-4--------------4--------------|-4---5---5---5---5--------------|
G|-4---11--11--6---4--------------|-4--------------4--------------|-4---4---4---4---4--------------|
D|-6---11--11--6---4--------------|-4--------------4--------------|-4---2---2---2---2--------------|
A|-4---9---9---4---4----4---4--4--|-4----4---4--4--4----4---4--4--|-4---2---2---2---2----2---2--2--|
E|--------------------------------|-------------------------------|--------------------------------|


E|-------------------------------|--------------------------------|------------------------------|
B|-------------------------------|-----0---0---0---0--------------|-0--------0-------0-------0---|
G|-4--------------4--------------|-4---2---2---2---2--------------|-2--------2-------2-------2---|
D|-2--------------2--------------|-2---2---2---2---2--------------|-2--------2-------2-------2---|
A|-2----2---2--2--2----2---2--2--|-2---0---0---0---0----0---0--0--|-0----0---0---0---0---0---0---|
E|-------------------------------|--------------------------------|------------------------------|


E|---------------------------------------------|-------------------------------------------------|
B|---------------------------------------------|-------------------------------------------------|
G|---------------------------------------------|-------------------------------------------------|
D|---------------------------------------------|-6--6--------------------------------7--7--------|
A|-0---0---4--4--4--4--4--4--7--7--4--4--4--4--|-------5--5--5--5--7--7--5--5--5--5--------5--5--|
E|---------------------------------------------|-------------------------------------------------|


E|-------------------------------------------------|-------------------------------------------------|
B|-------------------------------------------------|-------------------------------------------------|
G|-------------------------------------------------|-------------------------------------------------|
D|-6--6--------------------------------------------|-6--6--------------------------------7--7--------|
A|-------5--5--4--4--4--4--4--4--7--7--4--4--4--4--|-------5--5--5--5--7--7--5--5--5--5--------5--5--|
E|-------------------------------------------------|-------------------------------------------------|


E|-------------------------------------------------|-------------------------------------------------|
B|-------------------------------------------------|-------------------------------------------------|
G|-------------------------------------------------|-------------------------------------------------|
D|-6--6--------------------------------------------|-6--6--------------------------------7--7--------|
A|-------5--5--4--4--4--4--4--4--7--7--4--4--4--4--|-------5--5--5--5--7--7--5--5--5--5--------5--5--|
E|-------------------------------------------------|-------------------------------------------------|


E|-------------------------------------------------|-------------------------------------------------|
B|-------------------------------------------------|-------------------------------------------------|
G|-------------------------------------------------|-------------------------------------------------|
D|-6--6--------------------------------------------|-------------------------------------------------|
A|-------5--5--4--4--4--4--4--4--2--2--2--2--2--2--|-0--0--0--0--0--0--------------------------------|
E|-------------------------------------------------|-------------------4--4--4--4--4--4--2--2--2--2--|


E|------------------------------------|-----------------------------------|----------------------------------|
B|-----------5---5---5----------------|-5----------------5----------------|-5---------------4----------------|
G|-----------4---4---4----------------|-4----------------4----------------|-4---8---8---6---4----------------|
D|-----------6---6---6----------------|-6----------------6----------------|-6---9-----------4----------------|
A|-----------4---4---4----4--4--4--4--|-4----4--4--4--4--4----4--4--4--4--|-4---6---6---4---4----4--4--4--4--|
E|-0---0--0---------------------------|-----------------------------------|----------------------------------|


E|---------------------------------|----------------------------------|-----------------------------------|
B|-4----------------4----------4---|-----------------5----------------|-5----------------5----------------|
G|-4----------------4----------4---|-----9---9---6---4----------------|-4----------------4----------------|
D|-4----------------4----------4---|-----9---9---6---6----------------|-6----------------6----------------|
A|-4----4--4--4--4--4----4--4--4---|-4---7---7---4---4----4--4--4--4--|-4----4--4--4--4--4----4--4--4--4--|
E|---------------------------------|----------------------------------|-----------------------------------|


E|----------------------------------|-------------------------------------------------|
B|-5---------------4----5--4--2--0--|-7--5--4--0--7--5--4--0--5--4--2--0--4-----------|
G|-4---11--11--6---4----------------|----------------------------------------4--------|
D|-6---11--11--6---4----------------|-------------------------------------------4-----|
A|-4---9---9---4---4----------------|----------------------------------------------7--|
E|----------------------------------|-------------------------------------------------|


E|------------------------------------|-----------------------------------|----------------------------------|
B|------------------------------------|-----------------------------------|-----0---0---0---0----------------|
G|-------4---4---4---4----------------|-4----------------4----------------|-4---2---2---2---2----------------|
D|------------------------------------|-2----------------2----------------|-2---2---2---2---2----------------|
A|-6--4--2---2---2---2----2--2--2--2--|-2----2--2--2--2--2----2--2--2--2--|-2---0---0---0---0----0--0--0--0--|
E|------------------------------------|-----------------------------------|----------------------------------|


E|------------------------------|----------------|----------------|----------------|
B|-0--------0-------0-------0---|----------------|----------------|----------------|
G|-2--------2-------2-------2---|-----6---6------|-----4---4------|-----2---2------|
D|-2--------2-------2-------2---|-----6---6------|-----4---4------|-----2---2------|
A|-0----0---0---0---0---0---0---|-0---4---4------|-----2---2------|-----0---0------|
E|------------------------------|----------------|----------------|----------------|


E|----------------|------------------------------|---------------------------------|
B|----------------|------------------------------|---------------------------------|
G|----------------|------------------------------|---------------------------------|
D|----------------|--------------11----------9---|---------12----------11------9---|
A|----------------|------9---9---9---9---9---9---|-9---9---9---9---9---9---9---9---|
E|----------------|------------------------------|---------------------------------|


E|---------------------------------|---------------------------------|---------------------------------|
B|---------------------------------|---------------------------------|---------------------------------|
G|---------------------------------|---------------------------------|-----9---9---9---9---------------|
D|-----11--11------11----------9---|---------12----------11------9---|-----9---9---9---9-----------9---|
A|-9---8---8---8---8---8---8---8---|-8---8---8---8---8---8---8---8---|-8---7---7---7---7---7---7---7---|
E|---------------------------------|---------------------------------|---------------------------------|


E|---------------------------------|------------------------------|-------------|----------------------------------|
B|---------------------------------|------------------------------|-------------|----------------------------------|
G|---------------------------------|-----8---8---8---8------------|-------------|----------------------------------|
D|---------------------------------|-----9---9---9---9------------|-------------|--------------11--------------9---|
A|-7---9---11--7---7---9-------7---|-----6---6---6---6------------|-------------|----------9-------9--9--9--9------|
E|---------------------------------|------------------------------|-------------|----------------------------------|


E|-------------------------------------------------|-------------------------------------|
B|-------------------------------------------------|-------------------------------------|
G|-------------------------------------------------|-------------------------------------|
D|-------------12----------11----------9-----------|-11--11--11------11--------------9---|
A|-9--9--9--9-----9--9--9-----9--9--9-----9--9--9--|-----8---8---8-------8--8--8--8------|
E|-------------------------------------------------|-------------------------------------|


E|-------------------------------------------|---------------------------------|---------------------------------|
B|-------------------------------------------|---------------------------------|---------------------------------|
G|-------------------------------------------|-----9---9---9---9-----------9---|---------9-----------9-------9---|
D|-------------12--------------11--------9---|-----9---9---9---9-----------9---|---------9-----------9-------9---|
A|-8--8--8--8------8--8--8--8------8--8------|-8---7---7---7---7---7---7---7---|-7---7---7---7---7---7---7---7---|
E|-------------------------------------------|---------------------------------|---------------------------------|


E|------------------------------|---------------------------------|---------------------------------------------|
B|------------------------------|---------------------------------|---------------------------------------------|
G|-----8---8---8---8---8---8----|---------------------------------|---------------------------------------------|
D|-----9---9---9---9---9---9----|---------------------7---6-------|---------------------------------------------|
A|-7---6---6---6---6---6---6----|-----5---5---7---9-----------7---|-9---5---4--4--4--4--4--4--7--7--4--4--4--4--|
E|------------------------------|---------------------------------|---------------------------------------------|


E|-------------------------------------------------|-------------------------------------------------|
B|-------------------------------------------------|-------------------------------------------------|
G|-------------------------------------------------|-------------------------------------------------|
D|-6--6--------------------------------7--7--------|-6--6--------------------------------------------|
A|-------5--5--5--5--7--7--5--5--5--5--------5--5--|-------5--5--4--4--4--4--4--4--7--7--4--4--4--4--|
E|-------------------------------------------------|-------------------------------------------------|


E|-------------------------------------------------|-------------------------------------------------|
B|-------------------------------------------------|-------------------------------------------------|
G|-------------------------------------------------|-------------------------------------------------|
D|-6--6--------------------------------7--7--------|-6--6--------------------------------------------|
A|-------5--5--5--5--7--7--5--5--5--5--------5--5--|-------5--5--4--4--4--4--4--4--7--7--4--4--4--4--|
E|-------------------------------------------------|-------------------------------------------------|


E|-------------------------------------------------|---------------------------------------|
B|-------------------------------------------------|---------------------------------------|
G|-------------------------------------------------|-------------------------4-------------|
D|-6--6--------------------------------7--7--------|-6--6--------------------4-------------|
A|-------5--5--5--5--7--7--5--5--5--5--------5--5--|-------5--5--4---5---4---2-------0--2--|
E|-------------------------------------------------|---------------------------------------|


E|---------------------------------|------------------------|-----------------------------------|
B|---------------------------------|-----------5---5---5----|-------------5----------------5----|
G|-------------------------7-------|-7---------4---4---4----|-------------4----------------4----|
D|-----------------4---5---7-------|-7---------6---6---6----|-------------6----------------6----|
A|-------------------------5-------|-5---------4---4---4----|-4--4--4--4--4----4--4--4--4--4----|
E|-5---4---2---0-------------------|------------------------|-----------------------------------|


E|----------------------------------|-----------------------------------|--------------------------------|
B|-------------5---------------4----|-------------4----------------4----|-------4-------------------5----|
G|-------------4---8---8---6---4----|-------------4----------------4----|-------4-------9---9---6---4----|
D|-------------6---9-----------4----|-------------4----------------4----|-------4-------9---9---6---6----|
A|-4--4--4--4--4---6---6---4---4----|-4--4--4--4--4----4--4--4--4--4----|-4--4--4---4---7---7---4---4----|
E|----------------------------------|-----------------------------------|--------------------------------|


E|-----------------------------------|----------------------------------|-----------------------------------|
B|-------------5----------------5----|-------------5---------------4----|-------------4----------------4----|
G|-------------4----------------4----|-------------4---11--11--6---4----|-------------4----------------4----|
D|-------------6----------------6----|-------------6---11--11--6---4----|-------------4----------------4----|
A|-4--4--4--4--4----4--4--4--4--4----|-4--4--4--4--4---9---9---4---4----|-4--4--4--4--4----4--4--4--4--4----|
E|-----------------------------------|----------------------------------|-----------------------------------|


E|----------------------------------|-----------------------------------|----------------------------------|
B|-------------4--------------------|-----------------------------------|-----------------0---0---0---0----|
G|-------------4---4---4---4---4----|-------------4----------------4----|-------------4---2---2---2---2----|
D|-------------4---2---2---2---2----|-------------2----------------2----|-------------2---2---2---2---2----|
A|-4--4--4--4--4---2---2---2---2----|-2--2--2--2--2----2--2--2--2--2----|-2--2--2--2--2---0---0---0---0----|
E|----------------------------------|-----------------------------------|----------------------------------|


E|----------------------------------|-----------------------|-----------------|-----------------|
B|-------------0--------0-------0---|-----0-----------------|-----------------|-----------------|
G|-------------2--------2-------2---|-----2-------6---6-----|-------4---4-----|-------2---2-----|
D|-------------2--------2-------2---|-----2-------6---6-----|-------4---4-----|-------2---2-----|
A|-0--0--0--0--0----0---0---0---0---|-0---0---0---4---4-----|-------2---2-----|-------0---0-----|
E|----------------------------------|-----------------------|-----------------|-----------------|


E|-----------------|-----------------------|---------------------------------|---------------------------------|
B|-----------------|-----------------------|---------------------------------|---------------------------------|
G|-----------------|-----------------------|---------------------------------|---------------------------------|
D|-----------------|---------------11------|-----9-----------12----------11--|-----9-------11--11------11------|
A|-----------------|-------9---9---9---9---|-9---9---9---9---9---9---9---9---|-9---9---9---8---8---8---8---8---|
E|-----------------|-----------------------|---------------------------------|---------------------------------|


E|---------------------------------|---------------------------------|---------------------------------|
B|---------------------------------|---------------------------------|---------------------------------|
G|---------------------------------|-------------9---9---9---9-------|---------------------------------|
D|-----9-----------12----------11--|-----9-------9---9---9---9-------|-----9---------------------------|
A|-8---8---8---8---8---8---8---8---|-8---8---8---7---7---7---7---7---|-7---7---7---9---11--7---7---9---|
E|---------------------------------|---------------------------------|---------------------------------|


E|---------------------------------|-------------|-------------------------|-----------------------------------------------|
B|---------------------------------|-------------|-------------------------|-----------------------------------------------|
G|-------------8---8---8---8-------|-------------|-------------------------|-----------------------------------------------|
D|-------------9---9---9---9-------|-------------|---------------11--------|-------9---------------12----------11----------|
A|-----7-------6---6---6---6-------|-------------|-----------9-------9--9--|-9--9------9--9--9--9-----9--9--9-----9--9--9--|
E|---------------------------------|-------------|-------------------------|-----------------------------------------------|


E|---------------------------------------|-------------------------------------------|
B|---------------------------------------|-------------------------------------------|
G|---------------------------------------|-------------------------------------------|
D|-9-----------11--11--11------11--------|-------9---------------12--------------11--|
A|----9--9--9------8---8---8-------8--8--|-8--8------8--8--8--8------8--8--8--8------|
E|---------------------------------------|-------------------------------------------|


E|-----------------------------------|---------------------------------|---------------------------------|
B|-----------------------------------|---------------------------------|---------------------------------|
G|---------------9---9---9---9-------|-----9-----------9-----------9---|-----9-------8---8---8---8---8---|
D|-------9-------9---9---9---9-------|-----9-----------9-----------9---|-----9-------9---9---9---9---9---|
A|-8--8------8---7---7---7---7---7---|-7---7---7---7---7---7---7---7---|-7---7---7---6---6---6---6---6---|
E|-----------------------------------|---------------------------------|---------------------------------|


E|---------------------------|---------------------------|--------------|--------------------|
B|---------------------------|---------------------------|--------------|--------------------|
G|-8-------------------------|---------------------------|--------------|--------------------|
D|-9---------------------7---|-6-------------------------|--------------|--------------------|
A|-6-----5---5---7---9-------|-----7---9---5---4---4-----|-------4------|--------------------|
E|---------------------------|---------------------------|--------------|--------------------|


E|--------|--------|--------|--------|--------|--------|--------|------------------|
B|--------|--------|--------|--------|--------|--------|--------|------------------|
G|--------|--------|--------|--------|--------|--------|--------|-------8-----9----|
D|--------|--------|--------|--------|--------|--------|--------|------------------|
A|--------|--------|--------|--------|--------|--------|--------|------------------|
E|--------|--------|--------|--------|--------|--------|--------|------------------|


E|-----------------|------------------|---------------------|------------------|---------------------------|
B|-----12---12-----|------------------|---------------------|------------------|--------------12--12---12--|
G|-----------------|-------11---------|---------------------|------------------|-8----9---9---9---9--------|
D|-----------------|-------------11---|-11--9----9----9-----|-------9----------|---------------------------|
A|-----------------|------------------|-11--9----9----------|-------------11---|---------------------------|
E|-----------------|------------------|---------------------|------------------|---------------------------|


E|---------------------|---------------------|--------------------------|--------19--------------------------|
B|---------------------|---------------------|-------------14--------17-|-----------------------19-17--17----|
G|-------11----9-------|-----8----8----8-----|-----8---13--------16-----|----16------16--16--16--------------|
D|---------------------|-----9----9----9-----|-----9--------------------|------------------------------------|
A|---------------------|-----9----9----9-----|-----9--------------------|------------------------------------|
E|---------------------|---------------------|--------------------------|------------------------------------|


E|-------------------------------------------|------------------------------------|
B|-----17------------------------------------|------------------------------------|
G|------------141616--14-13-11-13---11-9--8--|-11--11--11-9--8--------------------|
D|-------------------------------------------|------------------11-9--7-----------|
A|-------------------------------------------|---------------------------11-9-----|
E|-------------------------------------------|------------------------------------|


E|----------14-14---14---14-----|------------19------19----19--|-----16--14-16-19-16-14-14-16-19-16-14-14-16-19-16-14-14-16-19-16-14|
B|---------------------------16-|----15--16------16------------|--------------------------------------------------------------------|
G|------------------------------|------------------------------|--------------------------------------------------------------------|
D|------------------------------|------------------------------|--------------------------------------------------------------------|
A|-----9------------------------|------------------------------|--------------------------------------------------------------------|
E|------------------------------|------------------------------|--------------------------------------------------------------------|


E|---------14-16--14----14-16-19-16-14-------14-16--14----14-16-19-16-14----|-14---------14-16-14------------------------|
B|---16-17-----------17----------------16-17-----------17----------------17-|-----17-17-----------14-14-14--14--14---14--|
G|--------------------------------------------------------------------------|--------------------------------------------|
D|--------------------------------------------------------------------------|--------------------------------------------|
A|--------------------------------------------------------------------------|--------------------------------------------|
E|--------------------------------------------------------------------------|--------------------------------------------|


E|---------------------------------------|--------------------------------------|----------------------------------------12--14--|
B|-12------------------------------------|--------------------------------------|----------------12------12------14--------------|
G|----13---------------------------------|--------------------------------------|--------11--8-------9-------11------11----------|
D|-------14-13---------------------------|-----------------------------------11-|----9-------------------------------------------|
A|---------------11--9---7---6-----------|-------------------9-------11--9------|------------------------------------------------|
E|-------------------------------7---4---|-----------9---7-------9--------------|------------------------------------------------|


E|-14------0--9--11-0--11-12-0--9--11-0--11-12-0-|----9--11-0--11-12-0--12-14-0--11-12-0--12-14-0--14-16-0-|
B|-----------------------------------------------|---------------------------------------------------------|
G|-----------------------------------------------|---------------------------------------------------------|
D|-----------------------------------------------|---------------------------------------------------------|
A|-----------------------------------------------|---------------------------------------------------------|
E|-----------------------------------------------|---------------------------------------------------------|


E|----12-14-0--14-16-0--16-17-0--14-16-0--16-17-0--19-19-17|----19-17-16-17-19-19-17-16-16-16-16-14-16-17-16-14-16-17-16|
B|---------------------------------------------------------|------------------------------------------------------------|
G|---------------------------------------------------------|------------------------------------------------------------|
D|---------------------------------------------------------|------------------------------------------------------------|
A|---------------------------------------------------------|------------------------------------------------------------|
E|---------------------------------------------------------|------------------------------------------------------------|


E|---14-16-17------17-14----14-17-14----14-17-14-|----14-17-14----14-19-14----14-17-14----14-19-14-|
B|-----------------------14----------14----------|-14----------14----------14----------14----------|
G|-----------------------------------------------|-------------------------------------------------|
D|-----------------------------------------------|-------------------------------------------------|
A|-----------------------------------------------|-------------------------------------------------|
E|-----------------------------------------------|-------------------------------------------------|


E|----14-17-14----14-16-13----13-16-13----13-16-13-|----13-16-13----13-17-13----13-16-13----13-17-13-|
B|-14----------14----------14----------14----------|-14----------14----------14----------14----------|
G|-------------------------------------------------|-------------------------------------------------|
D|-------------------------------------------------|-------------------------------------------------|
A|-------------------------------------------------|-------------------------------------------------|
E|-------------------------------------------------|-------------------------------------------------|


E|----13-16-13----13-16-12----12-16-12----12-16-12-|----12-16-12----12-17-12----12-16-12----12-17-12-|
B|-14----------14----------12----------12----------|-12----------12----------12----------12----------|
G|-------------------------------------------------|-------------------------------------------------|
D|-------------------------------------------------|-------------------------------------------------|
A|-------------------------------------------------|-------------------------------------------------|
E|-------------------------------------------------|-------------------------------------------------|


E|----12-16-12----12-14-11----11-14-11----11-14-11-|----11-14-11----11----------16-------16-17-16-17-|
B|-12----------12----------12----------12----------|-12----------12----15-17-19----17-19-------------|
G|-------------------------------------------------|-------------------------------------------------|
D|-------------------------------------------------|-------------------------------------------------|
A|-------------------------------------------------|-------------------------------------------------|
E|-------------------------------------------------|-------------------------------------------------|


E|-19-21----------16-21-17----17-21-17----17-21-17-|----17-21-17----17-22-17----17-21-17----17-22-17-|
B|-------15-17-19----------19----------19----------|-19----------19----------19----------19----------|
G|-------------------------------------------------|-------------------------------------------------|
D|-------------------------------------------------|-------------------------------------------------|
A|-------------------------------------------------|-------------------------------------------------|
E|-------------------------------------------------|-------------------------------------------------|


E|----17-21-17----17-21-16----16-21-16----16-21-16-|----16-21-16----16-22-16----16-21-16----16-22-16-|
B|-19----------19----------18----------18----------|-18----------18----------18----------18----------|
G|-------------------------------------------------|-------------------------------------------------|
D|-------------------------------------------------|-------------------------------------------------|
A|-------------------------------------------------|-------------------------------------------------|
E|-------------------------------------------------|-------------------------------------------------|


E|----16-21-16----16-19-16----16-19-16-19-16----16-|-19-16-19-16----16-21-16----16-19-16----16-21-16-|
B|-18----------18----------17----------------17----|-------------17----------17----------17----------|
G|-------------------------------------------------|-------------------------------------------------|
D|-------------------------------------------------|-------------------------------------------------|
A|-------------------------------------------------|-------------------------------------------------|
E|-------------------------------------------------|-------------------------------------------------|


E|----16-19-16----16-19-14----14-19-14----14-19-14-|----14-19-14-----------------17--17--|
B|-17----------17----------16----------16----------|-16----------15--15--17--19----------|
G|-------------------------------------------------|-------------------------------------|
D|-------------------------------------------------|-------------------------------------|
A|-------------------------------------------------|-------------------------------------|
E|-------------------------------------------------|-------------------------------------|


E|-16-----------------|--------------|--------------|---------------------------|---------------------------------|
B|-----17--19--19-----|-------19-----|--------------|---------------------------|---------------------------------|
G|--------------------|--------------|--------------|---------------------------|---------9---9---9---9-----------|
D|--------------------|--------------|--------------|-------12----------11------|-9-------9---9---9---9-----------|
A|--------------------|--------------|--------------|-------8---8---8---8---8---|-8---8---7---7---7---7---7---7---|
E|--------------------|--------------|--------------|---------------------------|---------------------------------|


E|---------------------------------|---------------------------------|------------------------------|
B|---------------------------------|---------------------------------|------------------------------|
G|---------------------------------|---------8---8---8---8-----------|---------7---7---7-------9----|
D|-9-------------------------------|---------9---9---9---9-----------|---------7---7---7-------9----|
A|-7---7---9---11--7---7---9-------|-7-------6---6---6---6-----------|---------5---5---5-------7----|
E|---------------------------------|-------------------------7---7---|------------------------------|


E|---------------------------------------|-------------------------------------------|
B|---------------------------------------|-------------------------------------------|
G|-9-------11--11--------9---------------|-9---------------9---------------9---------|
D|-9-------11--11--------9---------------|-9---------------9---------------9---------|
A|-7-------9---9---9--9--7---9--9--9--9--|-7---9--9--9--9--7---9--9--9--9--7---9--9--|
E|---------------------------------------|-------------------------------------------|


E|---------------------------------------|---------------------------------------------|
B|---------------------------------------|---------------------------------------------|
G|-11--------6---6-------6---------------|-6---------------6---------------------------|
D|-11--------6---6-------6---------------|-6---------------6---------------------------|
A|-9---9--9--4---4---4---4---4--4--4--4--|-4---4--4--4--4--4---4--4--4--4--4--4--4--4--|
E|---------------------------------------|---------------------------------------------|


E|-----------------------------------------|-------------------------------------------|
B|-----------------------------------------|-------------------------------------------|
G|-------------9---9---9---9---------------|-9---------------9---------------9---------|
D|-------------9---9---9---9---------------|-9---------------9---------------9---------|
A|-4--4--4--4--7---7---7---7---7--7--7--7--|-7---7--7--7--7--7---7--7--7--7--7---7--7--|
E|-----------------------------------------|-------------------------------------------|


E|---------------------------------|---------------------------------|-------------------------------------------|
B|---------------------------------|---------------------------------|-------------------------------------------|
G|-9-------8---8---8---8---8---8---|-8---8---------------------------|-------------------------------------------|
D|-9-------9---9---9---9---9---9---|-9---9-------------------7---6---|-------------------------------------------|
A|-7---7---6---6---6---6---6---6---|-6---6---5---5---7---9-----------|-9---7---5---4--4--4--4--4--4--7--7--4--4--|
E|---------------------------------|---------------------------------|-------------------------------------------|


E|-------------------------------------------------|-------------------------------------------------|
B|-------------------------------------------------|-------------------------------------------------|
G|-------------------------------------------------|-------------------------------------------------|
D|-------6--6--------------------------------7--7--|-------6--6--------------------------------------|
A|-4--4--------5--5--5--5--7--7--5--5--5--5--------|-5--5--------5--5--4--4--4--4--4--4--7--7--4--4--|
E|-------------------------------------------------|-------------------------------------------------|


E|-------------------------------------------------|-------------------------------------------------|
B|-------------------------------------------------|-------------------------------------------------|
G|-------------------------------------------------|-------------------------------------------------|
D|-------6--6--------------------------------7--7--|-------6--6--------------------------------------|
A|-4--4--------5--5--5--5--7--7--5--5--5--5--------|-5--5--------5--5--4--4--4--4--4--4--7--7--4--4--|
E|-------------------------------------------------|-------------------------------------------------|


E|-------------------------------------------------|-------------------------------------------------|
B|-------------------------------------------------|-------------------------------------------------|
G|-------------------------------------------------|-------------------------------------------------|
D|-------6--6--------------------------------7--7--|-------6--6--------------------------------7--7--|
A|-4--4--------5--5--5--5--7--7--5--5--5--5--------|-5--5--------5--5--5--5--7--7--5--5--5--5--------|
E|-------------------------------------------------|-------------------------------------------------|


E|------------------|--------|
B|------------------|--------|
G|------------------|--------|
D|------------------|--------|
A|-5--5-------------|--------|
E|------------------|--------|





Track 2: Synth2

E|--------|--------|--------|--------|--------|--------|--------|--------|--------|
B|--------|--------|--------|--------|--------|--------|--------|--------|--------|
G|--------|--------|--------|--------|--------|--------|--------|--------|--------|
D|--------|--------|--------|--------|--------|--------|--------|--------|--------|
A|--------|--------|--------|--------|--------|--------|--------|--------|--------|
E|--------|--------|--------|--------|--------|--------|--------|--------|--------|


E|--------|--------|--------|--------|--------|--------|--------|---------------------------------|
B|--------|--------|--------|--------|--------|--------|--------|---------------------------------|
G|--------|--------|--------|--------|--------|--------|--------|-6---7---6-----------------------|
D|--------|--------|--------|--------|--------|--------|--------|-------------9-------9---7---6---|
A|--------|--------|--------|--------|--------|--------|--------|---------------------------------|
E|--------|--------|--------|--------|--------|--------|--------|---------------------------------|


E|---------------------------------|-------------|-------------|-------------|--------|
B|---------7---8-------------------|-------------|-------------|-------------|--------|
G|-----------------7-------7-------|-------------|-------------|-------------|--------|
D|---------------------------------|-------------|-------------|-------------|--------|
A|-9---7---------------------------|-------------|-------------|-------------|--------|
E|---------------------------------|-------------|-------------|-------------|--------|


E|--------|--------|--------|--------|--------|--------|--------|--------|--------|
B|--------|--------|--------|--------|--------|--------|--------|--------|--------|
G|--------|--------|--------|--------|--------|--------|--------|--------|--------|
D|--------|--------|--------|--------|--------|--------|--------|--------|--------|
A|--------|--------|--------|--------|--------|--------|--------|--------|--------|
E|--------|--------|--------|--------|--------|--------|--------|--------|--------|


E|--------|--------|--------|--------|--------|--------|--------|--------|--------|
B|--------|--------|--------|--------|--------|--------|--------|--------|--------|
G|--------|--------|--------|--------|--------|--------|--------|--------|--------|
D|--------|--------|--------|--------|--------|--------|--------|--------|--------|
A|--------|--------|--------|--------|--------|--------|--------|--------|--------|
E|--------|--------|--------|--------|--------|--------|--------|--------|--------|


E|--------|--------|--------|--------|--------|--------|--------|--------|--------|
B|--------|--------|--------|--------|--------|--------|--------|--------|--------|
G|--------|--------|--------|--------|--------|--------|--------|--------|--------|
D|--------|--------|--------|--------|--------|--------|--------|--------|--------|
A|--------|--------|--------|--------|--------|--------|--------|--------|--------|
E|--------|--------|--------|--------|--------|--------|--------|--------|--------|


E|--------|--------|--------|--------|--------|--------|--------|--------|--------|
B|--------|--------|--------|--------|--------|--------|--------|--------|--------|
G|--------|--------|--------|--------|--------|--------|--------|--------|--------|
D|--------|--------|--------|--------|--------|--------|--------|--------|--------|
A|--------|--------|--------|--------|--------|--------|--------|--------|--------|
E|--------|--------|--------|--------|--------|--------|--------|--------|--------|


E|--------|--------|--------|--------|--------|--------|--------|--------|--------|
B|--------|--------|--------|--------|--------|--------|--------|--------|--------|
G|--------|--------|--------|--------|--------|--------|--------|--------|--------|
D|--------|--------|--------|--------|--------|--------|--------|--------|--------|
A|--------|--------|--------|--------|--------|--------|--------|--------|--------|
E|--------|--------|--------|--------|--------|--------|--------|--------|--------|


E|--------|--------|--------|--------|--------|--------|--------|--------|--------|
B|--------|--------|--------|--------|--------|--------|--------|--------|--------|
G|--------|--------|--------|--------|--------|--------|--------|--------|--------|
D|--------|--------|--------|--------|--------|--------|--------|--------|--------|
A|--------|--------|--------|--------|--------|--------|--------|--------|--------|
E|--------|--------|--------|--------|--------|--------|--------|--------|--------|


E|--------|--------|--------|--------|--------|--------|--------|--------|--------|
B|--------|--------|--------|--------|--------|--------|--------|--------|--------|
G|--------|--------|--------|--------|--------|--------|--------|--------|--------|
D|--------|--------|--------|--------|--------|--------|--------|--------|--------|
A|--------|--------|--------|--------|--------|--------|--------|--------|--------|
E|--------|--------|--------|--------|--------|--------|--------|--------|--------|


E|--------|--------|--------|--------|--------|--------|--------|--------|--------|
B|--------|--------|--------|--------|--------|--------|--------|--------|--------|
G|--------|--------|--------|--------|--------|--------|--------|--------|--------|
D|--------|--------|--------|--------|--------|--------|--------|--------|--------|
A|--------|--------|--------|--------|--------|--------|--------|--------|--------|
E|--------|--------|--------|--------|--------|--------|--------|--------|--------|


E|--------|--------|--------|--------|-------------|-------------|-------------|-------------|
B|--------|--------|--------|--------|-------------|-------------|-------------|-------------|
G|--------|--------|--------|--------|-------------|-------------|-------------|-------------|
D|--------|--------|--------|--------|-------------|-------------|-------------|-------------|
A|--------|--------|--------|--------|-------------|-------------|-------------|-------------|
E|--------|--------|--------|--------|-------------|-------------|-------------|-------------|


E|-------------|-------------|------------------------------|---------------------------------|
B|-------------|-------------|------------------------------|-----------------7---8-----------|
G|-------------|-------------|------6---7---6---------------|-------------------------7-------|
D|-------------|-------------|------------------9-------9---|-7---6---------------------------|
A|-------------|-------------|------------------------------|---------9---7-------------------|
E|-------------|-------------|------------------------------|---------------------------------|


E|-----------------|--------|--------|--------|--------|--------|--------|--------|
B|-----------------|--------|--------|--------|--------|--------|--------|--------|
G|-7---------------|--------|--------|--------|--------|--------|--------|--------|
D|-----------------|--------|--------|--------|--------|--------|--------|--------|
A|-----------------|--------|--------|--------|--------|--------|--------|--------|
E|-----------------|--------|--------|--------|--------|--------|--------|--------|


E|--------|--------|--------|--------|--------|--------|--------|--------|--------|
B|--------|--------|--------|--------|--------|--------|--------|--------|--------|
G|--------|--------|--------|--------|--------|--------|--------|--------|--------|
D|--------|--------|--------|--------|--------|--------|--------|--------|--------|
A|--------|--------|--------|--------|--------|--------|--------|--------|--------|
E|--------|--------|--------|--------|--------|--------|--------|--------|--------|


E|--------|--------|--------|--------|--------|--------|--------|--------|--------|
B|--------|--------|--------|--------|--------|--------|--------|--------|--------|
G|--------|--------|--------|--------|--------|--------|--------|--------|--------|
D|--------|--------|--------|--------|--------|--------|--------|--------|--------|
A|--------|--------|--------|--------|--------|--------|--------|--------|--------|
E|--------|--------|--------|--------|--------|--------|--------|--------|--------|


E|--------|--------|--------|--------|--------|--------|--------|--------|--------|
B|--------|--------|--------|--------|--------|--------|--------|--------|--------|
G|--------|--------|--------|--------|--------|--------|--------|--------|--------|
D|--------|--------|--------|--------|--------|--------|--------|--------|--------|
A|--------|--------|--------|--------|--------|--------|--------|--------|--------|
E|--------|--------|--------|--------|--------|--------|--------|--------|--------|


E|--------|--------|--------|--------|--------|--------|--------|--------|--------|
B|--------|--------|--------|--------|--------|--------|--------|--------|--------|
G|--------|--------|--------|--------|--------|--------|--------|--------|--------|
D|--------|--------|--------|--------|--------|--------|--------|--------|--------|
A|--------|--------|--------|--------|--------|--------|--------|--------|--------|
E|--------|--------|--------|--------|--------|--------|--------|--------|--------|


E|--------|--------|--------|--------|--------|--------|--------|--------|--------|
B|--------|--------|--------|--------|--------|--------|--------|--------|--------|
G|--------|--------|--------|--------|--------|--------|--------|--------|--------|
D|--------|--------|--------|--------|--------|--------|--------|--------|--------|
A|--------|--------|--------|--------|--------|--------|--------|--------|--------|
E|--------|--------|--------|--------|--------|--------|--------|--------|--------|


E|--------|--------|--------|--------|--------|--------|--------|--------|--------|
B|--------|--------|--------|--------|--------|--------|--------|--------|--------|
G|--------|--------|--------|--------|--------|--------|--------|--------|--------|
D|--------|--------|--------|--------|--------|--------|--------|--------|--------|
A|--------|--------|--------|--------|--------|--------|--------|--------|--------|
E|--------|--------|--------|--------|--------|--------|--------|--------|--------|


E|--------|--------|--------|--------|-------------------------------------|-------------------------------------------------|
B|--------|--------|--------|--------|-------------------------------------|-------------------------------------------------|
G|--------|--------|--------|--------|-------14-11----11-14-11----11-14-11-|----11-14-11----11-14-11----11-14-11----11-14-11-|
D|--------|--------|--------|--------|-------------11----------11----------|-11----------11----------11----------11----------|
A|--------|--------|--------|--------|-------------------------------------|-------------------------------------------------|
E|--------|--------|--------|--------|-------------------------------------|-------------------------------------------------|


E|-------------------------------------------------|-------------------------------------------------|
B|-------------------------------------------------|-------------------------------------------------|
G|----11-14-11----11-13-10----10-13-10----10-13-10-|----10-13-10----10-13-10----10-13-10----10-13-10-|
D|-11----------11----------11----------11----------|-11----------11----------11----------11----------|
A|-------------------------------------------------|-------------------------------------------------|
E|-------------------------------------------------|-------------------------------------------------|


E|-------------------------------------------------|-------------------------------------------------|
B|-------------------------------------------------|-------------------------------------------------|
G|----10-13-10----10-13-9-----9--13-9-----9--13-9--|----9--13-9-----9--13-9-----9--13-9-----9--13-9--|
D|-11----------11----------9-----------9-----------|-9-----------9-----------9-----------9-----------|
A|-------------------------------------------------|-------------------------------------------------|
E|-------------------------------------------------|-------------------------------------------------|


E|-------------------------------------------------|-------------------------------------------------|
B|-------------------------------------------------|----------------------------12-------12-14-12-14-|
G|----9--13-9-----9--11-8-----8--11-8-----8--11-8--|----8--11-8-----8--11-13-14----13-14-------------|
D|-9-----------9-----------9-----------9-----------|-9-----------9-----------------------------------|
A|-------------------------------------------------|-------------------------------------------------|
E|-------------------------------------------------|-------------------------------------------------|


E|-------------------14----------14----------14----|-------14----------16----------14----------16----|
B|-15-17----------12----14----14----14----14----14-|----14----14----14----14----14----14----14----14-|
G|-------11-13-14----------14----------14----------|-14----------14----------14----------14----------|
D|-------------------------------------------------|-------------------------------------------------|
A|-------------------------------------------------|-------------------------------------------------|
E|-------------------------------------------------|-------------------------------------------------|


E|-------14----------13----------13----------13----|-------13----------14----------13----------14----|
B|----14----14----14----14----14----14----14----14-|----14----14----13----14----14----14----14----14-|
G|-14----------14----------13----------13----------|-13----------13----------13----------13----------|
D|-------------------------------------------------|-------------------------------------------------|
A|-------------------------------------------------|-------------------------------------------------|
E|-------------------------------------------------|-------------------------------------------------|


E|-------13----------12----------12----12----------|-12----12----------14----------12----------14----|
B|----14----14----14----12----12----12----12----12-|----12----12----12----12----12----12----12----12-|
G|-13----------13----------13----------------13----|-------------13----------13----------13----------|
D|-------------------------------------------------|-------------------------------------------------|
A|-------------------------------------------------|-------------------------------------------------|
E|-------------------------------------------------|-------------------------------------------------|


E|-------12----------11----------11----------11----|-------11----------------------------|
B|----12----12----12----12----12----12----12----12-|----12----12-------------------------|
G|-13----------13----------11----------11----------|-11--------------------------14--14--|
D|-------------------------------------------------|-------------12--12--14--16----------|
A|-------------------------------------------------|-------------------------------------|
E|-------------------------------------------------|-------------------------------------|


E|--------------------|--------------|--------------|--------|--------|--------|--------|
B|--------------------|--------------|--------------|--------|--------|--------|--------|
G|-13-----------------|--------------|--------------|--------|--------|--------|--------|
D|-----14--16--16-----|-------16-----|--------------|--------|--------|--------|--------|
A|--------------------|--------------|--------------|--------|--------|--------|--------|
E|--------------------|--------------|--------------|--------|--------|--------|--------|


E|--------|--------|--------|--------|--------|--------|--------|--------|--------|
B|--------|--------|--------|--------|--------|--------|--------|--------|--------|
G|--------|--------|--------|--------|--------|--------|--------|--------|--------|
D|--------|--------|--------|--------|--------|--------|--------|--------|--------|
A|--------|--------|--------|--------|--------|--------|--------|--------|--------|
E|--------|--------|--------|--------|--------|--------|--------|--------|--------|


E|--------|--------|--------|--------|--------|--------|--------|--------|--------|
B|--------|--------|--------|--------|--------|--------|--------|--------|--------|
G|--------|--------|--------|--------|--------|--------|--------|--------|--------|
D|--------|--------|--------|--------|--------|--------|--------|--------|--------|
A|--------|--------|--------|--------|--------|--------|--------|--------|--------|
E|--------|--------|--------|--------|--------|--------|--------|--------|--------|





Track 3: Clean

E|--------|--------|--------|--------|--------|--------|--------|--------|--------|
B|--------|--------|--------|--------|--------|--------|--------|--------|--------|
G|--------|--------|--------|--------|--------|--------|--------|--------|--------|
D|--------|--------|--------|--------|--------|--------|--------|--------|--------|
A|--------|--------|--------|--------|--------|--------|--------|--------|--------|
E|--------|--------|--------|--------|--------|--------|--------|--------|--------|


E|--------|--------|--------|--------|--------|--------|--------|--------|--------|
B|--------|--------|--------|--------|--------|--------|--------|--------|--------|
G|--------|--------|--------|--------|--------|--------|--------|--------|--------|
D|--------|--------|--------|--------|--------|--------|--------|--------|--------|
A|--------|--------|--------|--------|--------|--------|--------|--------|--------|
E|--------|--------|--------|--------|--------|--------|--------|--------|--------|


E|---------------------|------2----------|-------------|------2----------|-------------|
B|------5---------5----|------------5----|------5------|------------5----|------5------|
G|-----------4---------|-4---------------|-------------|-----------------|-------------|
D|---------------------|-----------------|-------------|-----------------|-------------|
A|---------------------|-----------------|-------------|-----------------|-------------|
E|---------------------|-----------------|-------------|-----------------|-------------|


E|------2----------|----------------|--------|--------|--------|--------|--------|
B|------------5----|-5---4---4------|--------|--------|--------|--------|--------|
G|-----------------|-----4---4------|--------|--------|--------|--------|--------|
D|-----------------|----------------|--------|--------|--------|--------|--------|
A|-----------------|----------------|--------|--------|--------|--------|--------|
E|-----------------|----------------|--------|--------|--------|--------|--------|


E|--------|--------|--------|-------------|------0------------0-------|------2----------|
B|--------|--------|--------|-------------|----------4------------4---|------------5----|
G|--------|--------|--------|-------------|--------------4------------|-4---------------|
D|--------|--------|--------|-------------|---------------------------|-----------------|
A|--------|--------|--------|-------------|---------------------------|-----------------|
E|--------|--------|--------|-------------|---------------------------|-----------------|


E|---------------------|-----2---2-----------------|-------------|-------------|-------------|
B|------5---------5----|-------------4---------4---|-------------|-------------|-------------|
G|-----------4---------|-4----------------4--------|-------------|-------------|-------------|
D|---------------------|---------------------------|-------------|-------------|-------------|
A|---------------------|---------------------------|-------------|-------------|-------------|
E|---------------------|---------------------------|-------------|-------------|-------------|


E|--------|--------|--------|--------|--------|--------|--------|--------|--------|
B|--------|--------|--------|--------|--------|--------|--------|--------|--------|
G|--------|--------|--------|--------|--------|--------|--------|--------|--------|
D|--------|--------|--------|--------|--------|--------|--------|--------|--------|
A|--------|--------|--------|--------|--------|--------|--------|--------|--------|
E|--------|--------|--------|--------|--------|--------|--------|--------|--------|


E|--------|--------|--------|-------------|------------------------------|-------------|
B|--------|--------|--------|-------------|---------------------5---5----|------5------|
G|--------|--------|--------|-------------|-----------------4------------|-------------|
D|--------|--------|--------|-------------|-------------2----------------|-------------|
A|--------|--------|--------|-------------|-----2---2--------------------|-------------|
E|--------|--------|--------|-------------|------------------------------|-------------|


E|------------------------------|-----2---2-----------------|-------------|-------------|
B|---------------------5---5----|-------------5---------5---|-------------|-------------|
G|-----------------4------------|-4----------------4--------|-------------|-------------|
D|-------------2----------------|---------------------------|-------------|-------------|
A|-----0---0--------------------|---------------------------|-------------|-------------|
E|------------------------------|---------------------------|-------------|-------------|


E|-------------|-------------|-------------|-------------|--------|--------|--------|
B|-------------|-------------|-------------|-------------|--------|--------|--------|
G|-------------|-------------|-------------|-------------|--------|--------|--------|
D|-------------|-------------|-------------|-------------|--------|--------|--------|
A|-------------|-------------|-------------|-------------|--------|--------|--------|
E|-------------|-------------|-------------|-------------|--------|--------|--------|


E|--------|--------|--------|--------|--------|--------|--------|--------|--------|
B|--------|--------|--------|--------|--------|--------|--------|--------|--------|
G|--------|--------|--------|--------|--------|--------|--------|--------|--------|
D|--------|--------|--------|--------|--------|--------|--------|--------|--------|
A|--------|--------|--------|--------|--------|--------|--------|--------|--------|
E|--------|--------|--------|--------|--------|--------|--------|--------|--------|


E|-------------|-------------|-----0---0------|-----0---0------|-----0---0------|----------------|
B|-------------|-------------|-----0---0------|-----0---0------|-----0---0------|----------------|
G|-------------|-------------|-----6---6------|-----4---4------|-----2---2------|----------------|
D|-------------|-------------|-----6---6------|-----4---4------|-----2---2------|----------------|
A|-------------|-------------|-----4---4------|-----2---2------|-----0---0------|----------------|
E|-------------|-------------|----------------|----------------|----------------|----------------|


E|--------|--------|--------|--------|--------|--------|--------|--------|--------|
B|--------|--------|--------|--------|--------|--------|--------|--------|--------|
G|--------|--------|--------|--------|--------|--------|--------|--------|--------|
D|--------|--------|--------|--------|--------|--------|--------|--------|--------|
A|--------|--------|--------|--------|--------|--------|--------|--------|--------|
E|--------|--------|--------|--------|--------|--------|--------|--------|--------|


E|--------|--------|--------|--------|--------|--------|--------|--------|--------|
B|--------|--------|--------|--------|--------|--------|--------|--------|--------|
G|--------|--------|--------|--------|--------|--------|--------|--------|--------|
D|--------|--------|--------|--------|--------|--------|--------|--------|--------|
A|--------|--------|--------|--------|--------|--------|--------|--------|--------|
E|--------|--------|--------|--------|--------|--------|--------|--------|--------|


E|--------|--------|--------|--------|--------|--------|-------0------------|-0------------4----4---0---|
B|--------|--------|--------|--------|--------|--------|-----------4--------|-----4---------------------|
G|--------|--------|--------|--------|--------|--------|---------------4----|---------4-----------------|
D|--------|--------|--------|--------|--------|--------|--------------------|---------------------------|
A|--------|--------|--------|--------|--------|--------|--------------------|---------------------------|
E|--------|--------|--------|--------|--------|--------|--------------------|---------------------------|


E|-0-----0------------|----------2---2----2-------|-------0------------|-0-----4-----0---|
B|----------------4---|-----------------------4---|-4---------4--------|-----------------|
G|------------4-------|-----4---------------------|---------------6----|-----------------|
D|--------------------|---------------------------|--------------------|-----------------|
A|--------------------|---------------------------|--------------------|-----------------|
E|--------------------|---------------------------|--------------------|-----------------|


E|------------------------|----------0---0------------|-------------0----------------|
B|-------4---4--------4---|----------------------4----|-----4-----------4-------4----|
G|---------------4--------|-----4------------4--------|-4-------4-----------4--------|
D|------------------------|---------------------------|------------------------------|
A|------------------------|---------------------------|------------------------------|
E|------------------------|---------------------------|------------------------------|


E|-----0------------------------|------------------------------|----------0---0------------|
B|--------------4-------4-------|-4-------4----------------0---|-----------------------0---|
G|-4--------4-------4-------4---|-----4------------------------|-----2------------2--------|
D|------------------------------|---------------------2--------|---------------------------|
A|------------------------------|-------------0---0------------|---------------------------|
E|------------------------------|------------------------------|---------------------------|


E|-------------0---0-----|-------0---0-----|-------0---0-----|-----------------|--------|
B|-------------0---0-----|-------0---0-----|-------0---0-----|-----------------|--------|
G|-----2-------6---6-----|-------4---4-----|-------2---2-----|-----------------|--------|
D|-------------6---6-----|-------4---4-----|-------2---2-----|-----------------|--------|
A|-------------4---4-----|-------2---2-----|-------0---0-----|-----------------|--------|
E|-----------------------|-----------------|-----------------|-----------------|--------|


E|--------|--------|--------|--------|--------|--------|--------|--------|--------|
B|--------|--------|--------|--------|--------|--------|--------|--------|--------|
G|--------|--------|--------|--------|--------|--------|--------|--------|--------|
D|--------|--------|--------|--------|--------|--------|--------|--------|--------|
A|--------|--------|--------|--------|--------|--------|--------|--------|--------|
E|--------|--------|--------|--------|--------|--------|--------|--------|--------|


E|--------|--------|--------|--------|--------|--------|--------|--------|--------|
B|--------|--------|--------|--------|--------|--------|--------|--------|--------|
G|--------|--------|--------|--------|--------|--------|--------|--------|--------|
D|--------|--------|--------|--------|--------|--------|--------|--------|--------|
A|--------|--------|--------|--------|--------|--------|--------|--------|--------|
E|--------|--------|--------|--------|--------|--------|--------|--------|--------|


E|--------|--------|--------|--------|--------|--------|--------|--------|--------|
B|--------|--------|--------|--------|--------|--------|--------|--------|--------|
G|--------|--------|--------|--------|--------|--------|--------|--------|--------|
D|--------|--------|--------|--------|--------|--------|--------|--------|--------|
A|--------|--------|--------|--------|--------|--------|--------|--------|--------|
E|--------|--------|--------|--------|--------|--------|--------|--------|--------|


E|--------|--------|--------|--------|--------|--------|--------|--------|--------|
B|--------|--------|--------|--------|--------|--------|--------|--------|--------|
G|--------|--------|--------|--------|--------|--------|--------|--------|--------|
D|--------|--------|--------|--------|--------|--------|--------|--------|--------|
A|--------|--------|--------|--------|--------|--------|--------|--------|--------|
E|--------|--------|--------|--------|--------|--------|--------|--------|--------|


E|--------|--------|--------|--------|--------|--------|--------|--------|--------|
B|--------|--------|--------|--------|--------|--------|--------|--------|--------|
G|--------|--------|--------|--------|--------|--------|--------|--------|--------|
D|--------|--------|--------|--------|--------|--------|--------|--------|--------|
A|--------|--------|--------|--------|--------|--------|--------|--------|--------|
E|--------|--------|--------|--------|--------|--------|--------|--------|--------|


E|--------|--------|--------|--------|--------|--------|--------|--------|--------|
B|--------|--------|--------|--------|--------|--------|--------|--------|--------|
G|--------|--------|--------|--------|--------|--------|--------|--------|--------|
D|--------|--------|--------|--------|--------|--------|--------|--------|--------|
A|--------|--------|--------|--------|--------|--------|--------|--------|--------|
E|--------|--------|--------|--------|--------|--------|--------|--------|--------|


E|--------|--------|--------|--------|--------|--------|--------|--------|--------|
B|--------|--------|--------|--------|--------|--------|--------|--------|--------|
G|--------|--------|--------|--------|--------|--------|--------|--------|--------|
D|--------|--------|--------|--------|--------|--------|--------|--------|--------|
A|--------|--------|--------|--------|--------|--------|--------|--------|--------|
E|--------|--------|--------|--------|--------|--------|--------|--------|--------|


E|--------|--------|--------|--------|--------|--------|--------|--------|--------|
B|--------|--------|--------|--------|--------|--------|--------|--------|--------|
G|--------|--------|--------|--------|--------|--------|--------|--------|--------|
D|--------|--------|--------|--------|--------|--------|--------|--------|--------|
A|--------|--------|--------|--------|--------|--------|--------|--------|--------|
E|--------|--------|--------|--------|--------|--------|--------|--------|--------|


E|--------|--------|--------|--------|--------|--------|--------|--------|--------|
B|--------|--------|--------|--------|--------|--------|--------|--------|--------|
G|--------|--------|--------|--------|--------|--------|--------|--------|--------|
D|--------|--------|--------|--------|--------|--------|--------|--------|--------|
A|--------|--------|--------|--------|--------|--------|--------|--------|--------|
E|--------|--------|--------|--------|--------|--------|--------|--------|--------|


E|--------|--------|--------|--------|--------|--------|--------|--------|--------|
B|--------|--------|--------|--------|--------|--------|--------|--------|--------|
G|--------|--------|--------|--------|--------|--------|--------|--------|--------|
D|--------|--------|--------|--------|--------|--------|--------|--------|--------|
A|--------|--------|--------|--------|--------|--------|--------|--------|--------|
E|--------|--------|--------|--------|--------|--------|--------|--------|--------|





Track 4: Distortion 2

E|--------|--------|--------|--------|--------|--------|--------|--------|--------|
B|--------|--------|--------|--------|--------|--------|--------|--------|--------|
G|--------|--------|--------|--------|--------|--------|--------|--------|--------|
D|--------|--------|--------|--------|--------|--------|--------|--------|--------|
A|--------|--------|--------|--------|--------|--------|--------|--------|--------|
E|--------|--------|--------|--------|--------|--------|--------|--------|--------|


E|--------|--------|--------|--------|--------|--------|--------|--------|--------|
B|--------|--------|--------|--------|--------|--------|--------|--------|--------|
G|--------|--------|--------|--------|--------|--------|--------|--------|--------|
D|--------|--------|--------|--------|--------|--------|--------|--------|--------|
A|--------|--------|--------|--------|--------|--------|--------|--------|--------|
E|--------|--------|--------|--------|--------|--------|--------|--------|--------|


E|--------|--------|--------|--------|--------|--------|--------|--------|--------|
B|--------|--------|--------|--------|--------|--------|--------|--------|--------|
G|--------|--------|--------|--------|--------|--------|--------|--------|--------|
D|--------|--------|--------|--------|--------|--------|--------|--------|--------|
A|--------|--------|--------|--------|--------|--------|--------|--------|--------|
E|--------|--------|--------|--------|--------|--------|--------|--------|--------|


E|--------|--------|--------|--------|--------|--------|--------|--------|--------|
B|--------|--------|--------|--------|--------|--------|--------|--------|--------|
G|--------|--------|--------|--------|--------|--------|--------|--------|--------|
D|--------|--------|--------|--------|--------|--------|--------|--------|--------|
A|--------|--------|--------|--------|--------|--------|--------|--------|--------|
E|--------|--------|--------|--------|--------|--------|--------|--------|--------|


E|--------|-------------|-------------------------|----------------------------------|
B|--------|-------------|-------------------------|-----12---------------------16-17-|
G|--------|-------------|-----16-13-13----13--14--|-14------11--11-11-11---11--------|
D|--------|-------------|-------------------------|----------------------------------|
A|--------|-------------|-------------------------|----------------------------------|
E|--------|-------------|-------------------------|----------------------------------|


E|-------------------------------|-----------------------------|------------------------------|
B|-16----------------------------|--------------17---17---17---|-17------------------12--12---|
G|-------------------------------|-----------16----------------|-----8---8---9---9------------|
D|-------------------------------|--------18-------------------|------------------------------|
A|------14-----------------------|-----18----------------------|------------------------------|
E|-----------14---11---11--9--11-|-9---------------------------|------------------------------|


E|-----------0---11--0---12--0---14--16-16-16-16-14----|-14-------------------|----------------|
B|-12-12--------------------------------------------17-|-------17--17---------|----------------|
G|-----------------------------------------------------|-----------------0----|-----5---5------|
D|-----------------------------------------------------|----------------------|----------------|
A|-----------------------------------------------------|----------------------|----------------|
E|-----------------------------------------------------|----------------------|----------------|


E|-----------------|-------------|----------------|--------|--------|--------|--------|
B|-----------------|-------------|----------------|--------|--------|--------|--------|
G|------5----5-----|------5------|-----5----------|--------|--------|--------|--------|
D|-----------------|-------------|----------------|--------|--------|--------|--------|
A|-----------------|-------------|----------------|--------|--------|--------|--------|
E|-----------------|-------------|----------------|--------|--------|--------|--------|


E|--------|--------|--------|--------|--------|--------|--------|--------|--------|
B|--------|--------|--------|--------|--------|--------|--------|--------|--------|
G|--------|--------|--------|--------|--------|--------|--------|--------|--------|
D|--------|--------|--------|--------|--------|--------|--------|--------|--------|
A|--------|--------|--------|--------|--------|--------|--------|--------|--------|
E|--------|--------|--------|--------|--------|--------|--------|--------|--------|


E|--------|--------|--------|--------|--------|--------|--------|--------|--------|
B|--------|--------|--------|--------|--------|--------|--------|--------|--------|
G|--------|--------|--------|--------|--------|--------|--------|--------|--------|
D|--------|--------|--------|--------|--------|--------|--------|--------|--------|
A|--------|--------|--------|--------|--------|--------|--------|--------|--------|
E|--------|--------|--------|--------|--------|--------|--------|--------|--------|


E|--------|--------|--------|--------|--------|-------------|-------------|----------------|
B|--------|--------|--------|--------|--------|-------------|-------------|----------------|
G|--------|--------|--------|--------|--------|-------------|-------------|----------------|
D|--------|--------|--------|--------|--------|-------------|-------------|----------------|
A|--------|--------|--------|--------|--------|-------------|-------------|-----4---4------|
E|--------|--------|--------|--------|--------|-------------|-------------|----------------|


E|----------------|----------------|---------------------------------|--------------------|
B|----------------|----------------|---------------------------------|--------------------|
G|----------------|----------------|---------------------------------|--------------------|
D|----------------|----------------|---------------------7---7---6---|-----4---4----------|
A|-----6---6------|-----7---7------|-----5---5---7---9---------------|-7------------------|
E|----------------|----------------|---------------------------------|--------------------|


E|-------------|--------------------|-------------|------------------------------|
B|-------------|--------------------|-------------|------------------------------|
G|-------------|--------------------|-------------|-----9---9---9---9------------|
D|-------------|-----3---3----------|-------------|-----9---9---9---9------------|
A|-------------|--------------------|-------------|-----7---7---7---7------------|
E|-------------|--------------------|-------------|------------------------------|


E|-------------|---------------------------|---------------------------------|--------------------|
B|-------------|---------------------------|---------------------------------|--------------------|
G|-------------|---------------------------|---------------------------------|--------------------|
D|-------------|---------------------------|---------------------7---7---6---|-----4---4----------|
A|-------------|-----6---6----6------------|-----5---5---7---9---------------|-7------------------|
E|-------------|------------------7---7----|---------------------------------|--------------------|


E|-------------|--------------------|-------------|------------------------------|
B|-------------|--------------------|-------------|------------------------------|
G|-------------|--------------------|-------------|-----9---9---9---9------------|
D|-------------|-----3---3----------|-------------|-----9---9---9---9------------|
A|-------------|--------------------|-------------|-----7---7---7---7------------|
E|-------------|--------------------|-------------|------------------------------|


E|-------------|-------------|-------------|--------|--------|--------|--------|--------|
B|-------------|-------------|-------------|--------|--------|--------|--------|--------|
G|-------------|-------------|-------------|--------|--------|--------|--------|--------|
D|-------------|-------------|-------------|--------|--------|--------|--------|--------|
A|-------------|-------------|-------------|--------|--------|--------|--------|--------|
E|-------------|-------------|-------------|--------|--------|--------|--------|--------|


E|--------|--------|--------|--------|--------|--------|--------|--------|--------|
B|--------|--------|--------|--------|--------|--------|--------|--------|--------|
G|--------|--------|--------|--------|--------|--------|--------|--------|--------|
D|--------|--------|--------|--------|--------|--------|--------|--------|--------|
A|--------|--------|--------|--------|--------|--------|--------|--------|--------|
E|--------|--------|--------|--------|--------|--------|--------|--------|--------|


E|--------|--------|-------------|-------------|-------------|-------------|-----------------|
B|--------|--------|-------------|-------------|-------------|-------------|-----------------|
G|--------|--------|-------------|-------------|-------------|-------------|-----------------|
D|--------|--------|-------------|-------------|-------------|-------------|-----------------|
A|--------|--------|-------------|-------------|-------------|-------------|-------4---4-----|
E|--------|--------|-------------|-------------|-------------|-------------|-----------------|


E|-----------------|-----------------|---------------------------|---------------------------|
B|-----------------|-----------------|---------------------------|---------------------------|
G|-----------------|-----------------|---------------------------|---------------------------|
D|-----------------|-----------------|-----------------------7---|-7---6-------4---4---------|
A|-------6---6-----|-------7---7-----|-------5---5---7---9-------|---------7-----------------|
E|-----------------|-----------------|---------------------------|---------------------------|


E|-------------|---------------------|-------------|---------------------------|-------------|
B|-------------|---------------------|-------------|---------------------------|-------------|
G|-------------|---------------------|-------------|-------9---9---9---9-------|-------------|
D|-------------|-------3---3---------|-------------|-------9---9---9---9-------|-------------|
A|-------------|---------------------|-------------|-------7---7---7---7-------|-------------|
E|-------------|---------------------|-------------|---------------------------|-------------|


E|------------------------|------------------------------|---------------------------|
B|------------------------|------------------------------|---------------------------|
G|------------------------|------------------------------|---------------------------|
D|------------------------|--------------------------7---|-7---6-------4---4---------|
A|-------6---6----6-------|----------5---5---7---9-------|---------7-----------------|
E|--------------------7---|-7----------------------------|---------------------------|


E|-------------|---------------------|-------------|---------------------------|-------------|
B|-------------|---------------------|-------------|---------------------------|-------------|
G|-------------|---------------------|-------------|-------9---9---9---9-------|-------------|
D|-------------|-------3---3---------|-------------|-------9---9---9---9-------|-------------|
A|-------------|---------------------|-------------|-------7---7---7---7-------|-------------|
E|-------------|---------------------|-------------|---------------------------|-------------|


E|-------------|-------------|--------|--------|--------|--------|--------|--------|
B|-------------|-------------|--------|--------|--------|--------|--------|--------|
G|-------------|-------------|--------|--------|--------|--------|--------|--------|
D|-------------|-------------|--------|--------|--------|--------|--------|--------|
A|-------------|-------------|--------|--------|--------|--------|--------|--------|
E|-------------|-------------|--------|--------|--------|--------|--------|--------|


E|--------|--------|--------|--------|--------|--------|--------|--------|--------------|
B|--------|--------|--------|--------|--------|--------|--------|--------|--------------|
G|--------|--------|--------|--------|--------|--------|--------|--------|--------------|
D|--------|--------|--------|--------|--------|--------|--------|--------|--------------|
A|--------|--------|--------|--------|--------|--------|--------|--------|--------------|
E|--------|--------|--------|--------|--------|--------|--------|--------|--------------|


E|--------------|---------------------|--------------|------------------------|-------------------------------|
B|--------------|---------------------|--------------|------------------------|-------------------------------|
G|--------------|---------------------|--------------|-------6---6---6--------|-------6--------------6--------|
D|--------------|---------------------|--------------|-------6---6---6--------|-------6--------------6--------|
A|--------------|---------------------|--------------|-------4---4---4----4---|-4--4--4----4---4--4--4----4---|
E|--------------|-------2-----0-------|--------------|------------------------|-------------------------------|


E|--------------------------------|-------------------------------|--------------------------------|
B|--------------------------------|-------------------------------|--------------------------------|
G|-------6---4---4---4---4--------|-------4--------------4--------|-------4---4---4---4---4--------|
D|-------6---4---4---4---4--------|-------4--------------4--------|-------4---2---2---2---2--------|
A|-4--4--4---4---4---4---4----4---|-4--4--4----4---4--4--4----4---|-4--4--4---2---2---2---2----2---|
E|--------------------------------|-------------------------------|--------------------------------|


E|-------------------------------|--------------------------------|----------------------------------------|
B|-------------------------------|-----------0---0---0---0--------|-------0--------------------------------|
G|-------4--------------4--------|-------4---2---2---2---2--------|-------2----------------7---------------|
D|-------2--------------2--------|-------2---2---2---2---2--------|-------2----------------7---------------|
A|-2--2--2----2---2--2--2----2---|-2--2--2---0---0---0---0----0---|-0--0--0----5--5--5--5--5---5--5--5--5--|
E|-------------------------------|--------------------------------|----------------------------------------|


E|----------------------------------|-------------------------------|--------------------------------|
B|----------------------------------|-------------------------------|--------------------------------|
G|-------------6---6---6---6--------|-------6--------------6--------|-------6---4---4---4---4--------|
D|-------------6---6---6---6--------|-------6--------------6--------|-------6---4---4---4---4--------|
A|-5--5--5--5--4---4---4---4----4---|-4--4--4----4---4--4--4----4---|-4--4--4---4---4---4---4----4---|
E|----------------------------------|-------------------------------|--------------------------------|


E|----------------------------------------|---------------------------|-------------------------------|
B|----------------------------------------|---------------------------|-------------------------------|
G|-------4----------------------------4---|------4---4---4---4--------|-------4--------------4--------|
D|-------4----------------------------4---|------2---2---2---2--------|-------2--------------2--------|
A|-4--4--4----4---4---4---4---4---4---4---|------2---2---2---2----2---|-2--2--2----2---2--2--2----2---|
E|----------------------------------------|---------------------------|-------------------------------|


E|--------------------------------|----------------------------------------|-------------------------------------|
B|-----------0---0---0---0--------|-------0--------------------------------|-------------------------------------|
G|-------4---2---2---2---2--------|-------2----------------7---------------|-------7-----------------------------|
D|-------2---2---2---2---2--------|-------2----------------7---------------|-------7-----------------11----------|
A|-2--2--2---0---0---0---0----0---|-0--0--0----5--5--5--5--5---5--5--5--5--|-5--5--5---5--5--9---9---9---9---9---|
E|--------------------------------|----------------------------------------|-------------------------------------|


E|---------------------------------|---------------------------------|---------------------------------|
B|---------------------------------|---------------------------------|---------------------------------|
G|---------------------------------|---------------------------------|---------------------------------|
D|-9-----------12----------11------|-9-------------------11----------|-9-----------12----------11------|
A|-9---9---9---9---9---9---9---9---|-9---9---8---8---8---8---8---8---|-8---8---8---8---8---8---8---8---|
E|---------------------------------|---------------------------------|---------------------------------|


E|---------------------------------|---------------------------------|---------------------------------|
B|---------------------------------|---------------------------------|---------------------------------|
G|---------9---9---9---9-----------|---------------------------------|---------8---8---8---8-----------|
D|-9-------9---9---9---9-----------|-9-------------------------------|---------9---9---9---9-----------|
A|-8---8---7---7---7---7---7---7---|-7---7---9---11--7---7---9-------|-7-------6---6---6---6-----------|
E|---------------------------------|---------------------------------|-------------------------7---7---|


E|------------------------------|-------------------------------------|-----------------------------------------------|
B|------------------------------|-------------------------------------|-----------------------------------------------|
G|---------7---7---7-------9----|-9-----------------------------------|-----------------------------------------------|
D|---------7---7---7-------9----|-9-------11--11------11--------------|-9---------------12----------11----------9-----|
A|---------5---5---5-------7----|-7-------9---9---9-------9--9--9--9--|-----9--9--9--9-----9--9--9-----9--9--9-----9--|
E|------------------------------|-------------------------------------|-----------------------------------------------|


E|---------------------------------------|-------------------------------------------|
B|---------------------------------------|-------------------------------------------|
G|---------------------------------------|-------------------------------------------|
D|-------11--11--11------11--------------|-9---------------12--------------11--------|
A|-9--9------8---8---8-------8--8--8--8--|-----8--8--8--8------8--8--8--8------8--8--|
E|---------------------------------------|-------------------------------------------|


E|---------------------------------|---------------------------------|---------------------------------|
B|---------------------------------|---------------------------------|---------------------------------|
G|---------9---9---9---9-----------|-9-----------9-----------9-------|-9-------8---8---8---8---8---8---|
D|-9-------9---9---9---9-----------|-9-----------9-----------9-------|-9-------9---9---9---9---9---9---|
A|-----8---7---7---7---7---7---7---|-7---7---7---7---7---7---7---7---|-7---7---6---6---6---6---6---6---|
E|---------------------------------|---------------------------------|---------------------------------|


E|------------------------------|---------------------------------|---------------------------------|
B|------------------------------|---------------------------------|---------------------------------|
G|------------------------------|---------------------------------|---------------------------------|
D|----------------------7---7---|-6-------------------11----------|-9-----------12----------11------|
A|------5---5---7---9-----------|-----7---9---9---9---9---9---9---|-9---9---9---9---9---9---9---9---|
E|------------------------------|---------------------------------|---------------------------------|


E|---------------------------------|-----------------------|--------|--------|--------|
B|---------------------------------|-----------------------|--------|--------|--------|
G|---------------------------------|-----------------------|--------|--------|--------|
D|-9-------------------11----------|-9---------------------|--------|--------|--------|
A|-9---9---8---8---8---8---8---8---|-8---8---8-------------|--------|--------|--------|
E|---------------------------------|-----------------------|--------|--------|--------|


E|--------|--------|--------|--------|--------|--------|--------|--------|--------|
B|--------|--------|--------|--------|--------|--------|--------|--------|--------|
G|--------|--------|--------|--------|--------|--------|--------|--------|--------|
D|--------|--------|--------|--------|--------|--------|--------|--------|--------|
A|--------|--------|--------|--------|--------|--------|--------|--------|--------|
E|--------|--------|--------|--------|--------|--------|--------|--------|--------|


E|--------|--------|--------|--------|--------|--------|--------|--------|--------|
B|--------|--------|--------|--------|--------|--------|--------|--------|--------|
G|--------|--------|--------|--------|--------|--------|--------|--------|--------|
D|--------|--------|--------|--------|--------|--------|--------|--------|--------|
A|--------|--------|--------|--------|--------|--------|--------|--------|--------|
E|--------|--------|--------|--------|--------|--------|--------|--------|--------|





Track 5: Synth1

E|--------|--------|--------|--------|--------|--------|--------|--------|--------|
B|--------|--------|--------|--------|--------|--------|--------|--------|--------|
G|--------|--------|--------|--------|--------|--------|--------|--------|--------|
D|--------|--------|--------|--------|--------|--------|--------|--------|--------|
A|--------|--------|--------|--------|--------|--------|--------|--------|--------|
E|--------|--------|--------|--------|--------|--------|--------|--------|--------|


E|--------|--------|--------|--------|--------|--------|--------|--------|--------|
B|--------|--------|--------|--------|--------|--------|--------|--------|--------|
G|--------|--------|--------|--------|--------|--------|--------|--------|--------|
D|--------|--------|--------|--------|--------|--------|--------|--------|--------|
A|--------|--------|--------|--------|--------|--------|--------|--------|--------|
E|--------|--------|--------|--------|--------|--------|--------|--------|--------|


E|--------|--------|--------|--------|--------|--------|--------|--------|--------|
B|--------|--------|--------|--------|--------|--------|--------|--------|--------|
G|--------|--------|--------|--------|--------|--------|--------|--------|--------|
D|--------|--------|--------|--------|--------|--------|--------|--------|--------|
A|--------|--------|--------|--------|--------|--------|--------|--------|--------|
E|--------|--------|--------|--------|--------|--------|--------|--------|--------|


E|--------|--------|--------|--------|--------|--------|--------|--------|--------|
B|--------|--------|--------|--------|--------|--------|--------|--------|--------|
G|--------|--------|--------|--------|--------|--------|--------|--------|--------|
D|--------|--------|--------|--------|--------|--------|--------|--------|--------|
A|--------|--------|--------|--------|--------|--------|--------|--------|--------|
E|--------|--------|--------|--------|--------|--------|--------|--------|--------|


E|--------|--------|--------|--------|--------|--------|--------|--------|--------|
B|--------|--------|--------|--------|--------|--------|--------|--------|--------|
G|--------|--------|--------|--------|--------|--------|--------|--------|--------|
D|--------|--------|--------|--------|--------|--------|--------|--------|--------|
A|--------|--------|--------|--------|--------|--------|--------|--------|--------|
E|--------|--------|--------|--------|--------|--------|--------|--------|--------|


E|--------|--------|--------|--------|--------|--------|--------|--------|--------|
B|--------|--------|--------|--------|--------|--------|--------|--------|--------|
G|--------|--------|--------|--------|--------|--------|--------|--------|--------|
D|--------|--------|--------|--------|--------|--------|--------|--------|--------|
A|--------|--------|--------|--------|--------|--------|--------|--------|--------|
E|--------|--------|--------|--------|--------|--------|--------|--------|--------|


E|--------|--------|--------|--------|--------|--------|--------|--------|--------|
B|--------|--------|--------|--------|--------|--------|--------|--------|--------|
G|--------|--------|--------|--------|--------|--------|--------|--------|--------|
D|--------|--------|--------|--------|--------|--------|--------|--------|--------|
A|--------|--------|--------|--------|--------|--------|--------|--------|--------|
E|--------|--------|--------|--------|--------|--------|--------|--------|--------|


E|--------|--------|--------|--------|--------|--------|--------|--------|--------|
B|--------|--------|--------|--------|--------|--------|--------|--------|--------|
G|--------|--------|--------|--------|--------|--------|--------|--------|--------|
D|--------|--------|--------|--------|--------|--------|--------|--------|--------|
A|--------|--------|--------|--------|--------|--------|--------|--------|--------|
E|--------|--------|--------|--------|--------|--------|--------|--------|--------|


E|--------|--------|--------|--------|--------|--------|--------|--------|--------|
B|--------|--------|--------|--------|--------|--------|--------|--------|--------|
G|--------|--------|--------|--------|--------|--------|--------|--------|--------|
D|--------|--------|--------|--------|--------|--------|--------|--------|--------|
A|--------|--------|--------|--------|--------|--------|--------|--------|--------|
E|--------|--------|--------|--------|--------|--------|--------|--------|--------|


E|--------|--------|--------|--------|--------|--------|--------|--------|--------|
B|--------|--------|--------|--------|--------|--------|--------|--------|--------|
G|--------|--------|--------|--------|--------|--------|--------|--------|--------|
D|--------|--------|--------|--------|--------|--------|--------|--------|--------|
A|--------|--------|--------|--------|--------|--------|--------|--------|--------|
E|--------|--------|--------|--------|--------|--------|--------|--------|--------|


E|--------|--------|--------|--------|--------|--------|--------|--------|--------|
B|--------|--------|--------|--------|--------|--------|--------|--------|--------|
G|--------|--------|--------|--------|--------|--------|--------|--------|--------|
D|--------|--------|--------|--------|--------|--------|--------|--------|--------|
A|--------|--------|--------|--------|--------|--------|--------|--------|--------|
E|--------|--------|--------|--------|--------|--------|--------|--------|--------|


E|--------|--------|--------|--------|--------|--------|--------|--------|--------|
B|--------|--------|--------|--------|--------|--------|--------|--------|--------|
G|--------|--------|--------|--------|--------|--------|--------|--------|--------|
D|--------|--------|--------|--------|--------|--------|--------|--------|--------|
A|--------|--------|--------|--------|--------|--------|--------|--------|--------|
E|--------|--------|--------|--------|--------|--------|--------|--------|--------|


E|--------|--------|--------|--------|--------|--------|--------|--------|--------|
B|--------|--------|--------|--------|--------|--------|--------|--------|--------|
G|--------|--------|--------|--------|--------|--------|--------|--------|--------|
D|--------|--------|--------|--------|--------|--------|--------|--------|--------|
A|--------|--------|--------|--------|--------|--------|--------|--------|--------|
E|--------|--------|--------|--------|--------|--------|--------|--------|--------|


E|--------|--------|--------|--------|--------|--------|--------|--------|--------|
B|--------|--------|--------|--------|--------|--------|--------|--------|--------|
G|--------|--------|--------|--------|--------|--------|--------|--------|--------|
D|--------|--------|--------|--------|--------|--------|--------|--------|--------|
A|--------|--------|--------|--------|--------|--------|--------|--------|--------|
E|--------|--------|--------|--------|--------|--------|--------|--------|--------|


E|--------|--------|--------|--------|--------|--------|--------|--------|--------|
B|--------|--------|--------|--------|--------|--------|--------|--------|--------|
G|--------|--------|--------|--------|--------|--------|--------|--------|--------|
D|--------|--------|--------|--------|--------|--------|--------|--------|--------|
A|--------|--------|--------|--------|--------|--------|--------|--------|--------|
E|--------|--------|--------|--------|--------|--------|--------|--------|--------|


E|--------|--------|--------|--------|--------|------------------------|-------16-----|
B|--------|--------|--------|--------|--------|------------------------|-------12-----|
G|--------|--------|--------|--------|--------|------------------------|-11-----------|
D|--------|--------|--------|--------|--------|-------------------14---|--------------|
A|--------|--------|--------|--------|--------|-------11--11--12-------|--------------|
E|--------|--------|--------|--------|--------|------------------------|--------------|


E|------------------------|-------14-----|------------------------|-------21-----|
B|------------------------|-------10-----|------------------------|-14----12-----|
G|------------------------|-11-----------|-------------------16---|--------------|
D|-------------------14---|--------------|-------13--13--14-------|--------------|
A|-------9---9---12-------|--------------|------------------------|--------------|
E|------------------------|--------------|------------------------|--------------|


E|------------------------|------21--21-----|--------|--------|--------|--------|--------|
B|------------------------|-14---14--14-----|--------|--------|--------|--------|--------|
G|-------------------16---|-----------------|--------|--------|--------|--------|--------|
D|-----------13--14-------|-----------------|--------|--------|--------|--------|--------|
A|------------------------|-----------------|--------|--------|--------|--------|--------|
E|------------------------|-----------------|--------|--------|--------|--------|--------|


E|--------|--------|--------|--------|--------|--------|--------|--------|--------|
B|--------|--------|--------|--------|--------|--------|--------|--------|--------|
G|--------|--------|--------|--------|--------|--------|--------|--------|--------|
D|--------|--------|--------|--------|--------|--------|--------|--------|--------|
A|--------|--------|--------|--------|--------|--------|--------|--------|--------|
E|--------|--------|--------|--------|--------|--------|--------|--------|--------|


E|--------|--------|--------|--------|--------|--------|--------|--------|--------|
B|--------|--------|--------|--------|--------|--------|--------|--------|--------|
G|--------|--------|--------|--------|--------|--------|--------|--------|--------|
D|--------|--------|--------|--------|--------|--------|--------|--------|--------|
A|--------|--------|--------|--------|--------|--------|--------|--------|--------|
E|--------|--------|--------|--------|--------|--------|--------|--------|--------|


E|--------|--------|--------|--------|--------|--------|--------|--------|--------|
B|--------|--------|--------|--------|--------|--------|--------|--------|--------|
G|--------|--------|--------|--------|--------|--------|--------|--------|--------|
D|--------|--------|--------|--------|--------|--------|--------|--------|--------|
A|--------|--------|--------|--------|--------|--------|--------|--------|--------|
E|--------|--------|--------|--------|--------|--------|--------|--------|--------|


E|--------|--------|--------|--------|--------|--------|--------|--------|--------|
B|--------|--------|--------|--------|--------|--------|--------|--------|--------|
G|--------|--------|--------|--------|--------|--------|--------|--------|--------|
D|--------|--------|--------|--------|--------|--------|--------|--------|--------|
A|--------|--------|--------|--------|--------|--------|--------|--------|--------|
E|--------|--------|--------|--------|--------|--------|--------|--------|--------|


E|--------|--------|--------|--------|--------|--------|--------|--------|--------|
B|--------|--------|--------|--------|--------|--------|--------|--------|--------|
G|--------|--------|--------|--------|--------|--------|--------|--------|--------|
D|--------|--------|--------|--------|--------|--------|--------|--------|--------|
A|--------|--------|--------|--------|--------|--------|--------|--------|--------|
E|--------|--------|--------|--------|--------|--------|--------|--------|--------|


E|--------|--------|--------|--------|--------|--------|--------|--------|--------|
B|--------|--------|--------|--------|--------|--------|--------|--------|--------|
G|--------|--------|--------|--------|--------|--------|--------|--------|--------|
D|--------|--------|--------|--------|--------|--------|--------|--------|--------|
A|--------|--------|--------|--------|--------|--------|--------|--------|--------|
E|--------|--------|--------|--------|--------|--------|--------|--------|--------|


E|--------|--------|--------|--------|--------|--------|
B|--------|--------|--------|--------|--------|--------|
G|--------|--------|--------|--------|--------|--------|
D|--------|--------|--------|--------|--------|--------|
A|--------|--------|--------|--------|--------|--------|
E|--------|--------|--------|--------|--------|--------|





Track 6: Bass

G|----------------|------------------------------|----------------|------------------|
D|----------------|--------------7---------------|----------------|------------------|
A|-4--------------|-----5----------------5-------|-4--------------|------------------|
E|----------------|------------------------------|----------------|-7-----5-----4----|


G|----------------|------------------------------|----------------|------------------|
D|----------------|--------------7---------------|----------------|------------------|
A|-4--------------|-----5----------------5-------|-4--------------|------------------|
E|----------------|------------------------------|----------------|-7-----5-----4----|


G|---------------------------------|------------------------|-------------------------------------------------|
D|---------------------------------|------------------------|-------------------------------------------------|
A|-4---5---4-----------------------|------------------------|-4--4--4--4--4--4--4--4--4--4--4--4--4--4--4--4--|
E|-------------7-------7-------7---|-7---2----0---5----4----|-------------------------------------------------|


G|-------------------------------------------------|-------------------------------------------------|
D|-------------------------------------------------|-4--4--4--4--4--4--4--4--4--4--4--4--4--4--4--4--|
A|-5--5--5--5--5--5--5--5--5--5--5--5--5--5--5--5--|-------------------------------------------------|
E|-------------------------------------------------|-------------------------------------------------|


G|-------------------------------------------------|-------------------------------------------------|
D|-6--6--6--6--6--6--7--7--7--7--7--7--6--6--6--6--|-------------------------------------------------|
A|-------------------------------------------------|-4--4--4--4--4--4--4--4--4--4--4--4--4--4--4--4--|
E|-------------------------------------------------|-------------------------------------------------|


G|-------------------------------------------------|---------------------------------|
D|-------------------------------------------------|---------------------------------|
A|-5--5--5--5--5--5--5--5--5--5--5--5--5--5--5--5--|-4---5---4-----------2-----------|
E|-------------------------------------------------|-------------7-----------5---4---|


G|---------------------------------|-----------------------------|-------------------------------|
D|---------4---5-------------------|-----------------------------|-------------------------------|
A|-----------------5-------5-------|------4---4---4----4---4--4--|-4----4---4--4--4----4---4--4--|
E|-2---0---------------------------|-----------------------------|-------------------------------|


G|--------------------------------|-------------------------------|--------------------------------|
D|--------------------------------|-------------------------------|--------------------------------|
A|-4---2---2---2---2----2---2--2--|-2----2---2--2--2----2---2--2--|-2---4---4---4---4----4---4--4--|
E|--------------------------------|-------------------------------|--------------------------------|


G|--------------------------------------|--------------------------------|------------------------------------|
D|--------------------------------------|--------------------------------|------------------------------------|
A|-4----4--4--4--4--4--4--4--4--4-------|--------------------------------|------------------------------------|
E|--------------------------------------|-----4---4---4---4----4---4--4--|-4----4--4--4---4--2--4---2---4--2--|


G|--------------------------------|-------------------------------|--------------------------------|
D|--------------------------------|-------------------------------|--------------------------------|
A|-----4---4---4---4----4---4--4--|-4----4---4--4--4----4---4--4--|-4---6---6---4---4----4---4--4--|
E|-0------------------------------|-------------------------------|--------------------------------|


G|-------------------------------|--------------------------------|-------------------------------|
D|-------------------------------|--------------------------------|-------------------------------|
A|-4----4---4--4--4----4---4--4--|-4---7---7---4---4----4---4--4--|-4----4---4--4--4----4---4--4--|
E|-------------------------------|--------------------------------|-------------------------------|


G|--------------------------------|-------------------------------|--------------------------------|
D|--------------------------------|-------------------------------|--------------------------------|
A|-4---9---9---4---4----4---4--4--|-4----4---4--4--4----4---4--4--|-4---2---2---2---2----2---2--2--|
E|--------------------------------|-------------------------------|--------------------------------|


G|-------------------------------|--------------------------------|------------------------------|
D|-------------------------------|--------------------------------|------------------------------|
A|-2----2---2--2--2----2---2--2--|-2---0---0---0---0----0---0--0--|-0----0---0---0---0---0---0---|
E|-------------------------------|--------------------------------|------------------------------|


G|--------------------------------|-------------------------------|--------------------------------|
D|--------------------------------|-------------------------------|--------------------------------|
A|-0---4---4---4---4----4---4--4--|-4----4---4--4--4----4---4--4--|-4---2---2---2---2----2---2--2--|
E|--------------------------------|-------------------------------|--------------------------------|


G|-------------------------------|--------------------------------|--------------------------------------|
D|-------------------------------|--------------------------------|--------------------------------------|
A|-2----2---2--2--2----2---2--2--|-2---4---4---4---4----4---4--4--|-4----4--4--4--4--4--4--4--4--4-------|
E|-------------------------------|--------------------------------|--------------------------------------|


G|--------------------------------|------------------------------------|--------------------------------|
D|--------------------------------|------------------------------------|--------------------------------|
A|--------------------------------|------------------------------------|-----4---4---4---4----4---4--4--|
E|-----4---4---4---4----4---4--4--|-4----4--4--4---4--2--4---2---4--2--|-0------------------------------|


G|-------------------------------|--------------------------------|-------------------------------|
D|-------------------------------|--------------------------------|-------------------------------|
A|-4----4---4--4--4----4---4--4--|-4---6---6---4---4----4---4--4--|-4----4---4--4--4----4---4--4--|
E|-------------------------------|--------------------------------|-------------------------------|


G|--------------------------------|-------------------------------|--------------------------------|
D|--------------------------------|-------------------------------|--------------------------------|
A|-4---7---7---4---4----4---4--4--|-4----4---4--4--4----4---4--4--|-4---9---9---4---4----4---4--4--|
E|--------------------------------|-------------------------------|--------------------------------|


G|-------------------------------|--------------------------------|-------------------------------|
D|-------------------------------|--------------------------------|-------------------------------|
A|-4----4---4--4--4----4---4--4--|-4---2---2---2---2----2---2--2--|-2----2---2--2--2----2---2--2--|
E|-------------------------------|--------------------------------|-------------------------------|


G|--------------------------------|------------------------------|---------------------------------------------|
D|--------------------------------|------------------------------|---------------------------------------------|
A|-2---0---0---0---0----0---0--0--|-0----0---0---0---0---0---0---|-0---0---4--4--4--4--4--4--4--4--4--4--4--4--|
E|--------------------------------|------------------------------|---------------------------------------------|


G|-------------------------------------------------|-------------------------------------------------|
D|-------------------------------------------------|-------------4--4--4--4--4--4--4--4--4--4--4--4--|
A|-4--4--4--4--5--5--5--5--5--5--5--5--5--5--5--5--|-5--5--5--5--------------------------------------|
E|-------------------------------------------------|-------------------------------------------------|


G|-------------------------------------------------|-------------------------------------------------|
D|-4--4--4--4--6--6--6--6--6--6--7--7--7--7--7--7--|-6--6--6--6--------------------------------------|
A|-------------------------------------------------|-------------4--4--4--4--4--4--4--4--4--4--4--4--|
E|-------------------------------------------------|-------------------------------------------------|


G|-------------------------------------------------|-------------------------------------------------|
D|-------------------------------------------------|-------------------------------------------------|
A|-4--4--4--4--5--5--5--5--5--5--5--5--5--5--5--5--|-5--5--5--5--4--4--4--4--4--4--2--2--2--2--2--2--|
E|-------------------------------------------------|-------------------------------------------------|


G|-------------------------------------------------|------------------------------------|
D|-------------------------------------------------|------------------------------------|
A|-0--0--0--0--0--0--------------------------------|-----------4---4---4----4--4--4--4--|
E|-------------------4--4--4--4--4--4--2--2--2--2--|-0---0--0---------------------------|


G|-----------------------------------|----------------------------------|---------------------------------|
D|-----------------------------------|----------------------------------|---------------------------------|
A|-4----4--4--4--4--4----4--4--4--4--|-4---6---6---4---4----4--4--4--4--|-4----4--4--4--4--4----4--4--4---|
E|-----------------------------------|----------------------------------|---------------------------------|


G|----------------------------------|---------------------------------|---------------------------|
D|----------------------------------|---------------------------------|---------------------------|
A|-4---7---7---4---4----4--4--4--4--|-4----4--4--4--4--4----4---4--4--|-4---9---9---4---4---------|
E|----------------------------------|---------------------------------|---------------------------|


G|-------------|----------------------------------|-----------------------------------|
D|-------------|----------------------------------|-----------------------------------|
A|-------------|-----2---2---2---2----2--2--2--2--|-2----2--2--2--2--2----2--2--2--2--|
E|-------------|----------------------------------|-----------------------------------|


G|----------------------------------|------------------------------|----------------|
D|----------------------------------|------------------------------|----------------|
A|-2---0---0---0---0----0--0--0--0--|-0----0---0---0---0---0---0---|-0---4---4------|
E|----------------------------------|------------------------------|----------------|


G|----------------|----------------|---------------------------------|---------------------------------|
D|----------------|----------------|---------------------7---7---6---|---------------------------------|
A|-----2---2------|----------------|-----5---5---7---9---------------|-7---9---2-----------------------|
E|----------------|-----5---5------|---------------------------------|-------------2---2---2---2---2---|


G|---------------------------------|---------------------------------|---------------------------------|
D|---------------------------------|-----------------7-----------6---|-6---6---6---6---6---6---7---9---|
A|---------------------------------|-----4---4---4-------4---4-------|---------------------------------|
E|-2---2---2---2---2---2---2---2---|-2-------------------------------|---------------------------------|


G|---------------------------------|---------------------------------|---------------------------|
D|-9-------------------------------|---------------------------------|---------------------------|
A|-----7---7-----------------------|---------------------------------|-----6---6---6---6---------|
E|-------------0---0---0---0---0---|-0---0---0---0---0---0---0---0---|-0-------------------7-----|


G|---------------------------------|---------------------------------|---------------------------------|
D|---------------------7---7---6---|-----------------4---------------|-4---------------4---------------|
A|-----5---5---7---9---------------|-7---9---9-----------------------|---------------------------------|
E|---------------------------------|-------------2-------2---2---2---|-----2---2---2-------2---2---2---|


G|---------------------------------|---------------------------------|---------------------------------|
D|-4---------------7-----------6---|-6---6---6---6---6---6---7---9---|-9-------------------------------|
A|-----4---4---4-------4---4-------|---------------------------------|-----7---7-----------------------|
E|---------------------------------|---------------------------------|-------------0---0---0---0---0---|


G|---------------------------------|---------------------------|---------------------------------|
D|---------------------------------|---------------------------|---------------------7---6-------|
A|---------------------------------|-----6---6---6---6---6-----|-----5---5---7---9-----------9---|
E|-0---0---0---0---0---0---0---0---|-0-------------------------|---------------------------------|


G|---------------------------------------------|-------------------------------------------------|
D|---------------------------------------------|-------------------------------------------------|
A|-7---5---4--4--4--4--4--4--4--4--4--4--4--4--|-4--4--4--4--5--5--5--5--5--5--5--5--5--5--5--5--|
E|---------------------------------------------|-------------------------------------------------|


G|-------------------------------------------------|-------------------------------------------------|
D|-------------4--4--4--4--4--4--4--4--4--4--4--4--|-4--4--4--4--6--6--6--6--6--6--7--7--7--7--7--7--|
A|-5--5--5--5--------------------------------------|-------------------------------------------------|
E|-------------------------------------------------|-------------------------------------------------|


G|-------------------------------------------------|-------------------------------------------------|
D|-6--6--6--6--------------------------------------|-------------------------------------------------|
A|-------------4--4--4--4--4--4--4--4--4--4--4--4--|-4--4--4--4--5--5--5--5--5--5--5--5--5--5--5--5--|
E|-------------------------------------------------|-------------------------------------------------|


G|-------------------------------------|---------------------------------|------------------------|
D|-------------------------------------|-----------------4---5-----------|------------------------|
A|-5--5--5--5--4---5---4-----------2---|-------------------------5-------|-5---------4---4---4----|
E|-------------------------7-----------|-5---4---2---0-------------------|------------------------|


G|-----------------------------------|----------------------------------|-----------------------------------|
D|-----------------------------------|----------------------------------|-----------------------------------|
A|-4--4--4--4--4----4--4--4--4--4----|-4--4--4--4--4---6---6---4---4----|-4--4--4--4--4----4--4--4--4--4----|
E|-----------------------------------|----------------------------------|-----------------------------------|


G|--------------------------------|-----------------------------------|--------------------------------|
D|--------------------------------|-----------------------------------|--------------------------------|
A|-4--4--4---4---7---7---4---4----|-4--4--4--4--4----4--4--4--4--4----|-4---4--4--4---9---9---4---4----|
E|--------------------------------|-----------------------------------|--------------------------------|


G|-----------------------------------|--------------------------------|-----------------------------------|
D|-----------------------------------|--------------------------------|-----------------------------------|
A|-4--4--4--4--4----4--4--4--4--4----|-4--4--4---4---2---2---2---2----|-2--2--2--2--2----2--2--2--2--2----|
E|-----------------------------------|--------------------------------|-----------------------------------|


G|----------------------------------|----------------------------------|-----------------------|
D|----------------------------------|----------------------------------|-----------------------|
A|-2--2--2--2--2---0---0---0---0----|-0--0--0--0--0----0---0---0---0---|-0---0---0---4---4-----|
E|----------------------------------|----------------------------------|-----------------------|


G|-----------------|-----------------|---------------------------|---------------------------------|
D|-----------------|-----------------|-----------------------7---|-7---6---------------------------|
A|-------2---2-----|-----------------|-------5---5---7---9-------|---------7---9---2---------------|
E|-----------------|-------5---5-----|---------------------------|---------------------2---2---2---|


G|---------------------------------|---------------------------------|---------------------------------|
D|---------------------------------|-------------------------7-------|-----6---6---6---6---6---6---6---|
A|---------------------------------|-------------4---4---4-------4---|-4-------------------------------|
E|-2---2---2---2---2---2---2---2---|-2---2---2-----------------------|---------------------------------|


G|---------------------------------|---------------------------------|---------------------------------|
D|-7---9---9-----------------------|---------------------------------|---------------------------------|
A|-------------7---7---------------|---------------------------------|-------------6---6---6---6-------|
E|---------------------0---0---0---|-0---0---0---0---0---0---0---0---|-0---0---0-------------------7---|


G|---------------------------|---------------------------------|---------------------------------|
D|-----------------------7---|-7---6-------------------4-------|---------4---------------4-------|
A|-------5---5---7---9-------|---------7---9---9---------------|---------------------------------|
E|---------------------------|---------------------2-------2---|-2---2-------2---2---2-------2---|


G|---------------------------------|---------------------------------|---------------------------------|
D|---------4---------------7-------|-----6---6---6---6---6---6---6---|-7---9---9-----------------------|
A|-------------4---4---4-------4---|-4-------------------------------|-------------7---7---------------|
E|-2---2---------------------------|---------------------------------|---------------------0---0---0---|


G|---------------------------------|---------------------------------|---------------------------|
D|---------------------------------|---------------------------------|-----------------------7---|
A|---------------------------------|-------------6---6---6---6---6---|-------5---5---7---9-------|
E|-0---0---0---0---0---0---0---0---|-0---0---0-----------------------|---------------------------|


G|-----------------------|-------------|-------6-----|-------6-----|-------4-----|
D|-6---------------------|-------------|-------------|-------------|-------------|
A|-----9---7---5---4-----|-------4-----|-------------|-------------|-------------|
E|-----------------------|-------------|-------------|-------------|-------------|


G|-------4-----|------16---20----|-------20----|-20--20--6-------------|-------------|
D|-------------|-----------------|-------------|-------------4---4-----|-------4-----|
A|-------------|-----------------|-------------|-----------------------|-------------|
E|-------------|-----------------|-------------|-----------------------|-------------|


G|-----------------------|---------------------------|-----------------------|---------------------------|
D|-----------------------|---------------------------|-----------------------|---------------------------|
A|-------4----4----------|-------------4----4--------|-------4----4----------|-------------4----4--------|
E|-----------------------|----------4----------------|-----------------------|----------4----------------|


G|-----------------------|---------------------------|-------------------------------|
D|-----------------------|---------------------------|-------1-----------------2--1--|
A|-------4----4----------|-------------4----4--------|----------4--2--2--2--2--------|
E|-----------------------|----------4----------------|-------------------------------|


G|-------------------------------------------------|--------------------------------------|
D|-------------4-----------------2--1--------------|-4-----------2--1---------------------|
A|-2--2--2--2-----1--2--2--2--2--------2--2--2--2--|----1--2--2--------2--2--4---4---4----|
E|-------------------------------------------------|--------------------------------------|


G|-------------------------------|--------------------------------|-------------------------------|
D|-------------------------------|--------------------------------|-------------------------------|
A|-4---4--4--4----4---4--4--4----|-4---4--4--4---4---4---4---4----|-4---4--4--4----4---4--4--4----|
E|-------------------------------|--------------------------------|-------------------------------|


G|--------------------------------|-------------------------------|--------------------------------|
D|--------------------------------|-------------------------------|--------------------------------|
A|-4---4--4--4---2---2---2---2----|-2---2--2--2----2---2--2--2----|-2---2--2--2---0---0---0---0----|
E|--------------------------------|-------------------------------|--------------------------------|


G|--------------------------------------|------------------------------------|-------------------------------|
D|--------------------------------------|------------------------------------|-------------------------------|
A|-0---0--0--0----5--5--5--5--5---5--5--|-5--5--5--5--5--5--4---4---4---4----|-4---4--4--4----4---4--4--4----|
E|--------------------------------------|------------------------------------|-------------------------------|


G|--------------------------------|----------------------------------------|---------------------------|
D|--------------------------------|----------------------------------------|---------------------------|
A|-4---4--4--4---4---4---4---4----|-4---4--4--4----4---4---4---4---4---4---|-4--------2---2---2---2----|
E|--------------------------------|----------------------------------------|---------------------------|


G|-------------------------------|--------------------------------|--------------------------------------|
D|-------------------------------|--------------------------------|--------------------------------------|
A|-2---2--2--2----2---2--2--2----|-2---2--2--2---0---0---0---0----|-0---0--0--0----5--5--5--5--5---5--5--|
E|-------------------------------|--------------------------------|--------------------------------------|


G|-------------------------------------|---------------------------------|---------------------------------|
D|-------------------------------------|---------------------------------|-------------------------7-------|
A|-5--5--5--5--5---9---2---------------|---------------------------------|-------------4---4---4-------4---|
E|-------------------------2---2---2---|-2---2---2---2---2---2---2---2---|-2---2---2-----------------------|


G|---------------------------------|---------------------------------|---------------------------------|
D|-----6---6---6---6---6---6---6---|-7---9---9-----------------------|---------------------------------|
A|-4-------------------------------|-------------7---7---------------|---------------------------------|
E|---------------------------------|---------------------0---0---0---|-0---0---0---0---0---0---0---0---|


G|---------------------------------|---------------------------|---------------------------------|
D|---------------------------------|---------------------------|-------------------------4-------|
A|-------------6---6---6---6-------|-------5---5---5-------7---|-----7-------9---9---------------|
E|-0---0---0-------------------7---|---------------------------|---------------------2-------2---|


G|---------------------------------|---------------------------------|---------------------------------|
D|---------4---------------4-------|---------4---------------7-------|-----6---6---6---6---6---6---6---|
A|---------------------------------|-------------4---4---4-------4---|-4-------------------------------|
E|-2---2-------2---2---2-------2---|-2---2---------------------------|---------------------------------|


G|---------------------------------|---------------------------------|---------------------------------|
D|-7---9---9-----------------------|---------------------------------|---------------------------------|
A|-------------7---7---------------|---------------------------------|-------------6---6---6---6---6---|
E|---------------------0---0---0---|-0---0---0---0---0---0---0---0---|-0---0---0-----------------------|


G|---------------------------|---------------------------------|---------------------------------|
D|-----------------------7---|-7---6---------------------------|---------------------------------|
A|-------5---5---7---9-------|---------7---9---2---------------|---------------------------------|
E|---------------------------|---------------------2---2---2---|-2---2---2---2---2---2---2---2---|


G|---------------------------------|---------------------------------|---------------------------------|
D|-------------------------7-------|-----6---6---6---6---6---6---6---|-7---9---9-----------------------|
A|-------------4---4---4-------4---|-4-------------------------------|-------------7---7---------------|
E|-2---2---2-----------------------|---------------------------------|---------------------0---0---0---|


G|---------------------------------|---------------------------------|---------------------------|
D|---------------------------------|---------------------------------|---------------------------|
A|---------------------------------|-------------6---6---6---6-------|-------5---5---5-------7---|
E|-0---0---0---0---0---0---0---0---|-0---0---0-------------------7---|---------------------------|


G|---------------------------------|---------------------------------|---------------------------------|
D|-------------------------4-------|---------4---------------4-------|---------4---------------7-------|
A|-----7-------9---9---------------|---------------------------------|-------------4---4---4-------4---|
E|---------------------2-------2---|-2---2-------2---2---2-------2---|-2---2---------------------------|


G|---------------------------------|---------------------------------|---------------------------------|
D|-----6---6---6---6---6---6---6---|-7---9---9-----------------------|---------------------------------|
A|-4-------------------------------|-------------7---7---------------|---------------------------------|
E|---------------------------------|---------------------0---0---0---|-0---0---0---0---0---0---0---0---|


G|---------------------------------|---------------------------------|-----------------------------------------|
D|---------------------------------|-----------------------------7---|-6---------------------------------------|
A|-------------6---6---6---6---6---|-6---6---6---5---5---7---9-------|-----9---7---5---4--4--4--4--4--4--4--4--|
E|-0---0---0-----------------------|---------------------------------|-----------------------------------------|


G|-------------------------------------------------|-------------------------------------------------|
D|-------------------------------------------------|-------------------------4--4--4--4--4--4--4--4--|
A|-4--4--4--4--4--4--4--4--5--5--5--5--5--5--5--5--|-5--5--5--5--5--5--5--5--------------------------|
E|-------------------------------------------------|-------------------------------------------------|


G|-------------------------------------------------|-------------------------------------------------|
D|-4--4--4--4--4--4--4--4--6--6--6--6--6--6--7--7--|-7--7--7--7--6--6--6--6--------------------------|
A|-------------------------------------------------|-------------------------4--4--4--4--4--4--4--4--|
E|-------------------------------------------------|-------------------------------------------------|


G|-------------------------------------------------|-------------------------------------------------|
D|-------------------------------------------------|-------------------------------------------------|
A|-4--4--4--4--4--4--4--4--5--5--5--5--5--5--5--5--|-5--5--5--5--5--5--5--5--4--4--4--4--4--4--4--4--|
E|-------------------------------------------------|-------------------------------------------------|


G|-------------------------------------------------|--------------------|
D|-------------------------------------------------|--------------------|
A|-4--4--4--4--4--4--4--4--5--5--5--5--5--5--5--5--|-5--5--5--5---------|
E|-------------------------------------------------|--------------------|





Track 7: Strings

E|--------|--------|--------|--------|--------|--------|--------|--------|--------|
B|--------|--------|--------|--------|--------|--------|--------|--------|--------|
G|--------|--------|--------|--------|--------|--------|--------|--------|--------|
D|--------|--------|--------|--------|--------|--------|--------|--------|--------|
A|--------|--------|--------|--------|--------|--------|--------|--------|--------|
E|--------|--------|--------|--------|--------|--------|--------|--------|--------|


E|--------|--------|--------|--------|--------|-16-----|-17-----|--------|--------|
B|--------|--------|--------|-14-----|-15-----|-17-----|-17-----|--------|--------|
G|--------|--------|--------|-13-----|-14-----|-18-----|-19-----|--------|--------|
D|--------|-11-----|-12-----|--------|--------|--------|--------|--------|--------|
A|--------|--------|--------|--------|--------|--------|--------|--------|--------|
E|--------|-9------|-10-----|--------|--------|--------|--------|--------|--------|


E|------12-----|------12-----|-----11--11-----|------14----12---|-----12--12-----|
B|------14-----|------14-----|-----12--12-----|-----------------|-12--14--14-----|
G|------13-----|------13-----|-----11--11-----|-----------------|-----13--13-----|
D|-------------|-------------|----------------|-----------------|----------------|
A|-------------|-------------|----------------|-----------------|----------------|
E|-------------|-------------|----------------|-----------------|----------------|


E|------14----12---|-----11--11-----|------12--12--12--12--11--12--|-----12--12-----|
B|------------14---|-----12--12-----|------------------------------|-12--14--14-----|
G|------------13---|-----13--13-----|------------------------------|-----13--13-----|
D|-----------------|----------------|------------------------------|----------------|
A|-----------------|----------------|------------------------------|----------------|
E|-----------------|----------------|------------------------------|----------------|


E|------12-----|-----11--11-----|------11-----|-----12--12-----|------12-----|-----14--14---------|
B|------14-----|-----12--12-----|------12-----|-----14--14-----|------14-----|-----16--16---------|
G|------13-----|-----13--13-----|------13-----|-----13--13-----|------13-----|-----16--16---------|
D|-------------|----------------|-------------|----------------|-------------|-------------11-----|
A|-------------|----------------|-------------|----------------|-------------|--------------------|
E|-------------|----------------|-------------|----------------|-------------|-------------9------|


E|------14-----|-----12--12-----|------14----12---|-----12--12-----|------12-----|
B|------16-----|-----12--12-----|-----------------|-12--10--10-----|------10-----|
G|------16-----|-----11--11-----|-----------------|-----9---9------|------9------|
D|-------------|----------------|-----------------|----------------|-------------|
A|-------------|----------------|-----------------|----------------|-------------|
E|-------------|----------------|-----------------|----------------|-------------|


E|-----12--12-----|------12-----|-----11--11-----|------11-----|-----12--12-----|------12-----|
B|-----14--14-----|------14-----|-----12--12-----|------12-----|-----14--14-----|------14-----|
G|-----13--13-----|------13-----|-----11--11-----|------11-----|-----13--13-----|------13-----|
D|----------------|-------------|----------------|-------------|----------------|-------------|
A|----------------|-------------|----------------|-------------|----------------|-------------|
E|----------------|-------------|----------------|-------------|----------------|-------------|


E|-----11--11-----|------12--12--12--12--11--12--|-----12--12-----|------12-----|-----11--11-----|
B|-----12--12-----|------------------------------|-12--14--14-----|------14-----|-----12--12-----|
G|-----13--13-----|------------------------------|-----13--13-----|------13-----|-----13--13-----|
D|----------------|------------------------------|----------------|-------------|----------------|
A|----------------|------------------------------|----------------|-------------|----------------|
E|----------------|------------------------------|----------------|-------------|----------------|


E|------11-----|-----12--12-----|------12-----|-----14--14---------|------12------11--------------|
B|------12-----|-----14--14-----|------14-----|-----16--16---------|----------------------14------|
G|------13-----|-----13--13-----|------13-----|-----16--16---------|------------------------------|
D|-------------|----------------|-------------|---------------11---|------------------------------|
A|-------------|----------------|-------------|--------------------|------------------------------|
E|-------------|----------------|-------------|---------------9----|------------------------------|


E|-----12--12-----|------12------11--------------|-----12--12-----|------12-----|-------------|
B|-12--12--12-----|----------------------14------|-12--10--10-----|------10-----|------14-----|
G|-----11--11-----|------------------------------|-----9---9------|------9------|-------------|
D|----------------|------------------------------|----------------|-------------|------11-----|
A|----------------|------------------------------|----------------|-------------|-------------|
E|----------------|------------------------------|----------------|-------------|-------------|


E|-------------|------16-----|------17-----|------16-----|------17-----|-------------|
B|------15-----|------14-----|------15-----|------17-----|------17-----|-------------|
G|-------------|------13-----|------14-----|------18-----|------19-----|-------------|
D|------12-----|-------------|-------------|-------------|-------------|-------------|
A|-------------|-------------|-------------|-------------|-------------|-------------|
E|-------------|-------------|-------------|-------------|-------------|-------------|


E|-------------|------16-----|------16-----|-----16--16-----|------16-----|-----16--16-----|
B|-------------|------17-----|------17-----|-----16--16-----|------16-----|-----17--17-----|
G|-------------|------18-----|------18-----|-----16--16-----|------16-----|-----18--18-----|
D|-------------|-------------|-------------|----------------|-------------|----------------|
A|-------------|-------------|-------------|----------------|-------------|----------------|
E|-------------|-------------|-------------|----------------|-------------|----------------|


E|------16-----|-----11--11-----|------12------11--------------|-----12--12-----|------12------11--------------|
B|------17-----|-----12--12-----|----------------------14------|-12--12--12-----|----------------------14------|
G|------18-----|-----13--13-----|------------------------------|-----11--11-----|------------------------------|
D|-------------|----------------|------------------------------|----------------|------------------------------|
A|-------------|----------------|------------------------------|----------------|------------------------------|
E|-------------|----------------|------------------------------|----------------|------------------------------|


E|-----12--12-----|------12-----|----------------|-----11--11-----|-----12--12-----|
B|-12--10--10-----|------10-----|-----14--14-----|-----12--12-----|-----14--14-----|
G|-----9---9------|------9------|-----13--13-----|-----11--11-----|-----14--14-----|
D|----------------|-------------|----------------|----------------|----------------|
A|----------------|-------------|----------------|----------------|----------------|
E|----------------|-------------|----------------|----------------|----------------|


E|---------------------------------|-----------------9--------7---|---------10-------9-------7---|
B|---------------------10--10--9---|-----------------10-------10--|---------10-------10------10--|
G|-----7---7---9---11--------------|-9---11--11--11--11-------11--|---------11-------11------11--|
D|---------------------------------|------------------------------|------------------------------|
A|---------------------------------|------------------------------|------------------------------|
E|---------------------------------|------------------------------|------------------------------|


E|-----9---9------9--------7---|---------10-------9-------7---|-----7---7------|------7------|
B|-----9---9------9--------9---|---------9--------9-------9---|-----9---9------|------9------|
G|-----10--10-----10-------10--|---------10-------10------10--|-----9---9------|------9------|
D|-----------------------------|------------------------------|----------------|-------------|
A|-----------------------------|------------------------------|----------------|-------------|
E|-----------------------------|------------------------------|----------------|-------------|


E|-----7---7------|---------------------------|------14------14--------|-14--14--14--14--14--14--14--14--|
B|-----7---7------|-----15--15---15--14--14---|------------------------|-14------12----------------------|
G|-----8---8------|---------------------------|----------14------------|---------------------------------|
D|----------------|---------------------------|------------------------|---------------------------------|
A|----------------|---------------------------|------------------------|---------------------------------|
E|----------------|---------------------------|------------------------|---------------------------------|


E|-14--13--13-----|------13-----|-----12--12-----|------12-----|-----7---7------|----------------|
B|-----14--14-----|------14-----|-----12--12-----|------12-----|-----7---7------|----------------|
G|-----13--13-----|------13-----|-----13--13-----|------13-----|-----8---8------|----------------|
D|----------------|-------------|----------------|-------------|----------------|----------------|
A|----------------|-------------|----------------|-------------|----------------|----------------|
E|----------------|-------------|----------------|-------------|----------------|----------------|


E|-------------|-------------|-------------|-------------|------16-----|------17-----|
B|-------------|-------------|------14-----|------15-----|------17-----|------17-----|
G|-------------|-------------|------13-----|------14-----|------18-----|------19-----|
D|------11-----|------12-----|-------------|-------------|-------------|-------------|
A|-------------|-------------|-------------|-------------|-------------|-------------|
E|------9------|------10-----|-------------|-------------|-------------|-------------|


E|-------------|-------------|-------16----|-------16----|-------16--16----|-------16----|
B|-------------|-------------|-------17----|-------17----|-------16--16----|-------16----|
G|-------------|-------------|-------18----|-------18----|-------16--16----|-------16----|
D|-------------|-------------|-------------|-------------|-----------------|-------------|
A|-------------|-------------|-------------|-------------|-----------------|-------------|
E|-------------|-------------|-------------|-------------|-----------------|-------------|


E|-------16--16----|-------16----|-------11--11----|-------12------11---|-----11------12--11------11---|
B|-------17--17----|-------17----|-------12--12----|-----------12-------|-12------12----------12-------|
G|-------18--18----|-------18----|-------13--13----|--------------------|------------------------------|
D|-----------------|-------------|-----------------|--------------------|------------------------------|
A|-----------------|-------------|-----------------|--------------------|------------------------------|
E|-----------------|-------------|-----------------|--------------------|------------------------------|


E|-----------12--------------|----------12--12----|-------12----|-----------------|
B|-----12--------12--14--16--|-14---14--10--10----|-------10----|-------14--14----|
G|---------------------------|----------9---9-----|-------9-----|-------13--13----|
D|---------------------------|--------------------|-------------|-----------------|
A|---------------------------|--------------------|-------------|-----------------|
E|---------------------------|--------------------|-------------|-----------------|


E|-------11--11----|-------12--12----|---------------------------|-------------------------9----|
B|-------12--12----|-------14--14----|-----------------------10--|-10--9-------------------10---|
G|-------11--11----|-------14--14----|-------7---7---9---11------|---------9---11--11--11--11---|
D|-----------------|-----------------|---------------------------|------------------------------|
A|-----------------|-----------------|---------------------------|------------------------------|
E|-----------------|-----------------|---------------------------|------------------------------|


E|-----7--------10-------9---|-----7-------9---9------9----|-----7--------10-------9---|
B|-----10-------10-------10--|-----10------9---9------9----|-----9--------9--------9---|
G|-----11-------11-------11--|-----11------10--10-----10---|-----10-------10-------10--|
D|---------------------------|-----------------------------|---------------------------|
A|---------------------------|-----------------------------|---------------------------|
E|---------------------------|-----------------------------|---------------------------|


E|-----7-------7---7-----|-------7-----|-------7---7-----|------------------------|
B|-----9-------9---9-----|-------9-----|-------7---7-----|-------15--15---15--14--|
G|-----10------9---9-----|-------9-----|-------8---8-----|------------------------|
D|-----------------------|-------------|-----------------|------------------------|
A|-----------------------|-------------|-----------------|------------------------|
E|-----------------------|-------------|-----------------|------------------------|


E|-------14------14---|------14--14--14--14--14--14--|-14--14--14--13--13----|-------13----|
B|-14-----------------|------14------12--------------|-------------14--14----|-------14----|
G|-----------14-------|------------------------------|-------------13--13----|-------13----|
D|--------------------|------------------------------|-----------------------|-------------|
A|--------------------|------------------------------|-----------------------|-------------|
E|--------------------|------------------------------|-----------------------|-------------|


E|-------12--12----|-------12----|-------7---7-----|-----------------|-------------|
B|-------12--12----|-------12----|-------7---7-----|-----------------|-------------|
G|-------13--13----|-------13----|-------8---8-----|-----------------|-------6-----|
D|-----------------|-------------|-----------------|-----------------|-------------|
A|-----------------|-------------|-----------------|-----------------|-------4-----|
E|-----------------|-------------|-----------------|-----------------|-------------|


E|-------------|-------------|-------------|-------------|-------------|-------------|
B|-------------|-------------|-------------|-------------|-------------|-------------|
G|-------6-----|-------------|-------------|-------------|-------------|-------------|
D|-------------|-------------|-------------|-------------|-------------|-------------|
A|-------4-----|-------------|-------------|-------------|-------------|-------------|
E|-------------|-------------|-------------|-------------|-------------|-------------|


E|--------|--------|--------|--------|--------|--------|--------|--------|--------|
B|--------|--------|--------|--------|--------|--------|--------|--------|--------|
G|--------|--------|--------|--------|--------|--------|--------|--------|--------|
D|--------|--------|--------|--------|--------|--------|--------|--------|--------|
A|--------|--------|--------|--------|--------|--------|--------|--------|--------|
E|--------|--------|--------|--------|--------|--------|--------|--------|--------|


E|--------|--------|-------12----|-------12----|-------11--11----|-------11----|-------12--12----|
B|--------|--------|-------14----|-------14----|-------12--12----|-------12----|-------12--12----|
G|--------|--------|-------13----|-------13----|-------13--13----|-------13----|-------11--11----|
D|--------|--------|-------------|-------------|-----------------|-------------|-----------------|
A|--------|--------|-------------|-------------|-----------------|-------------|-----------------|
E|--------|--------|-------------|-------------|-----------------|-------------|-----------------|


E|-------12----|-------12--12----|-------14----|-------12--12----|-------12----|-------11--11----|
B|-------12----|-------10--10----|-------15----|-------14--14----|-------14----|-------12--12----|
G|-------11----|-------9---9-----|-------14----|-------13--13----|-------13----|-------13--13----|
D|-------------|-----------------|-------------|-----------------|-------------|-----------------|
A|-------------|-----------------|-------------|-----------------|-------------|-----------------|
E|-------------|-----------------|-------------|-----------------|-------------|-----------------|


E|-------11----|-------12--12----|-------12----|-------12--12----|-------10----|-----------------|
B|-------12----|-------12--12----|-------12----|-------10--10----|-------10----|-----------------|
G|-------13----|-------11--11----|-------11----|-------9---9-----|-------11----|-----------------|
D|-------------|-----------------|-------------|-----------------|-------------|-----------------|
A|-------------|-----------------|-------------|-----------------|-------------|-----------------|
E|-------------|-----------------|-------------|-----------------|-------------|-----------------|


E|-------------|-------------|-------------|--------|--------|--------|--------|--------|
B|-------------|-------------|-------------|--------|--------|--------|--------|--------|
G|-------------|-------------|-------------|--------|--------|--------|--------|--------|
D|-------------|-------------|-------------|--------|--------|--------|--------|--------|
A|-------------|-------------|-------------|--------|--------|--------|--------|--------|
E|-------------|-------------|-------------|--------|--------|--------|--------|--------|


E|--------|--------|--------|--------|--------|-------------|-------------|-------------|
B|--------|--------|--------|--------|--------|-------------|-------------|-------------|
G|--------|--------|--------|--------|--------|-------------|-------------|-------------|
D|--------|--------|--------|--------|--------|-------------|-------------|-------------|
A|--------|--------|--------|--------|--------|-------------|-------------|-------------|
E|--------|--------|--------|--------|--------|-------------|-------------|-------------|


E|-------------|------------9----|-----7-----10----9---|-----7----7---7-----|-------7-----|
B|-------------|------------9----|-----9-----9-----9---|-----9----9---9-----|-------9-----|
G|-------------|------------10---|-----10----10----10--|-----10---9---9-----|-------9-----|
D|-------------|-----------------|---------------------|--------------------|-------------|
A|-------------|-----------------|---------------------|--------------------|-------------|
E|-------------|-----------------|---------------------|--------------------|-------------|


E|-------7---7-----|---------------------------|----------------------14---|-----14--16---17----|
B|-------7---7-----|-------7---7---7-------9---|-----9-------10--10---14---|---------14---14----|
G|-------8---8-----|-------7---7---7-------9---|-----9-------11--11---14---|---------14---14----|
D|-----------------|-------7---7---7-------9---|-----9-------11--11--------|--------------------|
A|-----------------|---------------------------|---------------------------|--------------------|
E|-----------------|---------------------------|---------------------------|--------------------|


E|-------16--16---16---|-----16--17---19----|-------17--17---17--19--|-19----16----|
B|-------17--17---17---|---------17---17----|-------17--17---17--17--|-17----17----|
G|-------16--16---16---|---------16---16----|-------16--16---16--16--|-16----16----|
D|---------------------|--------------------|------------------------|-------------|
A|---------------------|--------------------|------------------------|-------------|
E|---------------------|--------------------|------------------------|-------------|


E|-19----14----|-----------------|-------------|-------------|-------------|-------------|
B|-17----16----|-----------------|-------------|-------------|-------14----|-------15----|
G|-16----16----|-----------------|-------------|-------------|-------13----|-------14----|
D|-------------|-----------------|-------11----|-------12----|-------------|-------------|
A|-------------|-----------------|-------------|-------------|-------------|-------------|
E|-------------|-----------------|-------9-----|-------10----|-------------|-------------|


E|-------16----|-------17----|-------------|-------------|--------|
B|-------17----|-------17----|-------------|-------------|--------|
G|-------18----|-------19----|-------------|-------------|--------|
D|-------------|-------------|-------------|-------------|--------|
A|-------------|-------------|-------------|-------------|--------|
E|-------------|-------------|-------------|-------------|--------|