Site menu:

    

Browse: 0-9 A B C D E F G H I J K L N O P Q R S T U V W X Y Z

dimmu borgir - sympozium:



/---------------------------------------------------------------------------
/ The following is the author's own interpretation of the song, to be used -
/ for studying or private use only, removal of any part of this ten line   -
/ header is illegal!!!  Removal of the transcribers name or anything       -
/ relevant to the transcriber is also illegal, as so is the removal of the -
/ place inwhich the tab was downloaded. Publishing as well as printing of  -
/ the tab is illegal without permission of the transcriber and copyright   -
/ owner of the song. Failure to apply to these laws result will in legal   -
/ action from the appropriate parties.                                     -
/---------------------------------------------------------------------------

downloaded from Displacer's Tablature Site at
        http://www.dsrmusic.com/metaltab
join the death/black tab emailing list by filling out the free
subscription form at http://www.dsrmusic.com/metaltab

Dimmu Borgir
Sympozium
Puritanical Euphoric Mysanthropia 

tabbed by Michiel de Boorder
any comments: michieldeboorder@dolfijn.nl
april 24th 2002

. = the almighty Palm Mute
s = slide
h = hammer-on
p = pull off
timing is actually correct in this tab (I suppose), 
listen to CD for song structure. 

Riff a, 
|-----------------------------------------------|
|-----------------------------------------------|
|-----------------------------------------------|
|-----------------------------------------------|
|-0--------232---------32----------3432---------|
|-------------4----------41----------------30---|

Riff b, 
|-----------------------------------------------|
|-----------------------------------------------|
|-----------------------------------------------|
|-----------hp----------p-----------hhp---------|
|-000000000232---------32----------3432---------|
|-------------444444444--4111111111--------30---|
  .........   .........   .........

Riff c,
|-----------------------------------------------|
|-----------------------------------------------|
|-------------6-6-6-6-6-6--------------------hp-|
|-3-----------6-6-6-6-6-6-3-----------6--5--353-|
|-3-----------4-4-4-4-4-4-3-----------6--------5|
|-1-----------------------1-----------4---------|
  .           . . . . . . 

Riff d,
|-----------------------------------------------|
|--let ring out---------------------------------|
|-5------------------------------------------hp-|
|-5-----------------------3-----------6--5--353-|
|-3-----------------------3-----------6--------5|
|-------------------------1-----------4---------|


Riff e, tremolo picked and slightly palm muted
|-----------------------------------------------|
|-----------------------------------------------|
|-----------------------------------------------|
|-------------------5-35-6----------------------|
|-3--------6-53--653----------------------------|
|-----------------------------------------------|

Riff e, continued
|-----------------------------------------------|
|-----------------------------------------------|
|-----------------------------------------------|
|----------------1--010-------------------------|
|----3-----232---------1------------------------|
|-1-----------4---------------------------------|

Riff f,
|-----------------------------------------------|
|-----s-----s-s---s---s-----s-s---s-------------|
|----544--5-8-5-4-5--544--5-8-5-4-5-------------|
|-3--544--5-8-5-4-53-544--5-8-5-4-5-------------|
|-3--322--3-6-3-2-33-322--3-6-3-2-3-------------|
|-1----------------1----------------------------|

Riff g,
|-----------------------------------------------|
|-----------------------------------------------|
|------------------------------s----------------|
|-6---------------------------6-5---------------|
|-6---6---5-----6-------------6-5---------------|
|-4444--44--4444--4444444444444-3---------------|
  ....  ..  ....  ............

Riff h,
|-----------------------------------------------|
|-----------------------------------------------|
|-----------------------------------------------|
|-------------------1---------hph---------------|
|-----3---2-----3-------3~---2323---------------|
|-1-1---1---1-1---1---1-------------------------|
  . .   .   . .   .   .

Riff i,
|-----------------------------------------------|
|-----------------------------------------------|
|--let ring out---------------------------------|
|-3---------------------------------------------|
|-3---------------------------------------------|
|-1---------------------------------------------|


Riff j, (not all too sure about this one)
|-----------------------------------------------|
|-----------------------------------------------|
|6-----66--6-------------------------5-----55--5|
|6-----66--6-3-----33--3-6-----66--6-5-----55--5|
|4-----44--4-3-----33--3-6-----66--6-3-----33--3|
|------------1-----11--1-4-----44--4------------|
       .           .           .           . 

Riff j, variation (stretched for timing accuracy)
|-----------------------------------------------|
|-----------------------------------------------|
|6---6-6-6-6-6---6-6-6-6------------------------|
|6---6-6-6-6-6---6-6-6-6-3---3-3-3-3-3---3-3-3-3|
|4---4-4-4-4-4---4-4-4-4-3---3-3-3-3-3---3-3-3-3|
|------------------------1---1-1-1-1-1---1-1-1-1|
     . . . .     . . . .     . . . . .   . . . .

Riff j, variation continued
|-----------------------------------------------|
|-----------------------------------------------|
|-----------------------------------------------|
|6---6-6-6-6-6---6-6-6-6-3---3-3-3-3-333-333-333|
|6---6-6-6-6-6---6-6-6-6-3---3-3-3-3-333-333-333|
|4---4-4-4-4-4---4-4-4-4-1---1-1-1-1-111-111-111|
     . . . .     . . . .     . . . . ... ... ...

That oughta do it.