Site menu:

    

Browse: 0-9 A B C D E F G H I J K L N O P Q R S T U V W X Y Z

dimmu borgir - spellbound by the devil:



/---------------------------------------------------------------------------
/ The following is the author's own interpretation of the song, to be used -
/ for studying or private use only, removal of any part of this ten line   -
/ header is illegal!!!  Removal of the transcribers name or anything       -
/ relevant to the transcriber is also illegal, as so is the removal of the -
/ place inwhich the tab was downloaded. Publishing as well as printing of  -
/ the tab is illegal without permission of the transcriber and copyright   -
/ owner of the song. Failure to apply to these laws result will in legal   -
/ action from the appropriate parties.                                     -
/---------------------------------------------------------------------------

downloaded from the Catacombs of Displacer's Death Tab Site at
        http://www.dsrmusic.com/metaltab
join the death/black tab emailing list by filling out the free
subscription form at http://www.dsrmusic.com/metaltab/join.htm

 "Spellbound (By The Devil)" as performed by Dimmu Borgir on their 1997
  album "Enthrone Darkness Triumphant"

downloaded from 
The Black Death... Black & Death Metal Page
http://tinpan.fortunecity.com/joolsholland/755/

Tabbed by Lord Úpir (arjanbarman@hotmail.com) on 6 December 1998

Total Time: 4:08
102 lines, 2 pages

Normal Tuning (EADGBe)
Notation Legend not necessary.

Listen to the album for rhytm 'n stuff.

INTRO (0:07)
e|--------------------------|
B|--------------------------|
G|-6---6---6-6---6--7-6-4-6-|
D|-6---6---6-6---6--7-6-4-6-|
A|-4---4---4-4---4--5-4-2-4-|
E|--------------------------|
PM                 |-----|
                             
e|--------------------------------------|
B|--------------------------------------|
G|-6---------------4------------7-6-4-6-|
D|-6-------6-------6-------6----7-6-4-6-|
A|-4444444464444444444444446----5-4-2-4-|
E|---------4---------------4------------|

Keyboard arranged for guitar
e|--------------------------------------|
B|--------------------------------------|
G|-6---------------6------------7-6-4-6-|
D|---------6---------------6------------|
A|--------------------------------------|
E|--------------------------------------|


e|-----------------------------------------|
B|-----------------------------------------|
G|-----------------------------------------|
D|-------5-4-------5-4-------5-4-------4-5-|
A|-------7-6-------7-6-------7-6-------6-7-|
E|-0-0-0-----0-0-0-----0-0-0-----0-0-0-----|
PM------|   |-----|   |-----|   |-----|

e|--------------|
B|--------------|
G|-5-4-5------8-|
D|-5-4-5------8-|
A|-3-2-333333-6-|
E|--------------|

Keyboard arranged for guitar
e|-----------------------------|
B|---9-----9-----10------10----|
G|-----------------------------|
D|-----9-----9------10------10-|
A|-7-----7-----8-------8-------|
E|-----------------------------|

e|----------------------|
B|----------------------|
G|----------------------|
D|-6----7----6----7-----|
A|-6----7----6----7-----|
e|-4----5----4----5-----|

e|----------------|
B|----------------|
G|-13--9--12--8---|
D|-13--9--12--8---|
A|-11--7--10--6---|
E|----------------|

Keyboard arranged for guitar (w/ clean guitar)
e|--------------------------------------------------|
B|--------------------------------------------------|
G|--------------------------------------------------|
D|-7-----7-----7-----7-----5-----5-----5-----5------|
A|---7-----7-----7-----7-----5-----5-----5-----5----|
E|-----5-----5-----5-----5-----3-----3-----3-----3--|

e|--------------------------------------------------------------|
B|--------------------------------------------------------------|
G|--------------------------------------------------------------|
D|-7--------------5--------------3--------------5---------------|
A|-7--------------5--------------3--------------5---------------|
E|-5--------------3--------------1--------------3---------------|

SOLO RIFF (not good, but I can't get it better. Maybe later)
e|--------------------------------------------------------------|
B|---------------------------10------------------10-------------|
G|---9-7-5---7-5-----9-7-5------9------9-7-6-9-7----9-7---9-7-5-|
D|-7-------------7----------------10----------------------------|
A|--------------------------------------------------------------|
E|--------------------------------------------------------------|

Enjoy! Corrections to arjanbarman@hotmail.com