Site menu:

    

Browse: 0-9 A B C D E F G H I J K L N O P Q R S T U V W X Y Z

dimmu borgir - hunnerkongens sorgsvarte ferd over steppene rerecorded version:



Title: Hunnerkongens Sorgsvarte Ferd Over Steppene (Re-Recorded Version)
Artist: 
Album: Godless Savage Garden
Author: Dimmu Borgir


Track 1: Guitar 1

E|-------------------------------------------|---------------------------------------|
B|-------------------------------------------|---------------------------------------|
G|-2---------------5---------------7---------|-------------------2---------------5---|
D|-2---------------5---------------7---------|-------10--9---10--2---------------5---|
A|-0---0--0--0--0--3---3--3--3--3--5---5--5--|-5--5--8---7---8---0---0--0--0--0--3---|
E|-------------------------------------------|---------------------------------------|


E|-----------------------------------------|-------------------------------------------|
B|-----------------------------------------|-------------------------------------------|
G|-------------7---------------------------|-2---------------5---------------7---------|
D|-------------7---------------10--9---10--|-2---------------5---------------7---------|
A|-3--3--3--3--5---5--5--5--5--8---7---8---|-0---0--0--0--0--3---3--3--3--3--5---5--5--|
E|-----------------------------------------|-------------------------------------------|


E|---------------------------------------|-----------------------------------------|
B|---------------------------------------|-----------------------------------------|
G|-------------------2---------------5---|-------------7---------------------------|
D|-------10--9---10--2---------------5---|-------------7---------------10--9---10--|
A|-5--5--8---7---8---0---0--0--0--0--3---|-3--3--3--3--5---5--5--5--5--8---7---8---|
E|---------------------------------------|-----------------------------------------|


E|-------------------------------------------|---------------------------------------|
B|-------------------------------------------|---------------------------------------|
G|-2---------------5---------------7---------|-------------------2---------------5---|
D|-2---------------5---------------7---------|-------10--9---10--2---------------5---|
A|-0---0--0--0--0--3---3--3--3--3--5---5--5--|-5--5--8---7---8---0---0--0--0--0--3---|
E|-------------------------------------------|---------------------------------------|


E|-----------------------------------------|--------|-------------|--------|-------------|
B|-----------------------------------------|--------|-------------|--------|-------------|
G|-------------7---------------------------|-4------|-4------2----|-5------|-------------|
D|-------------7---------------10--9---10--|-4------|-4------2----|-5------|-5-----2-----|
A|-3--3--3--3--5---5--5--5--5--8---7---8---|-2------|-2------0----|-3------|-5-----2-----|
E|-----------------------------------------|--------|-------------|--------|-3-----0-----|


E|--------|-------------|--------|-------------|--------|-------------|--------|-------------|
B|--------|-------------|--------|-------------|--------|-------------|--------|-------------|
G|-4------|-4------2----|-5------|-------------|-4------|-4------2----|-5------|-------------|
D|-4------|-4------2----|-5------|-7-----4-----|-4------|-4------2----|-5------|-5-----2-----|
A|-2------|-2------0----|-3------|-5-----2-----|-2------|-2------0----|-3------|-5-----2-----|
E|--------|-------------|--------|-------------|--------|-------------|--------|-3-----0-----|


E|--------|-------------|--------|-------------|-------------------------------------------|
B|--------|-------------|--------|-------------|-------------------------------------------|
G|-4------|-4------2----|-5------|-------------|-2---------------5---------------7---------|
D|-4------|-4------2----|-5------|-7-----4-----|-2---------------5---------------7---------|
A|-2------|-2------0----|-3------|-5-----2-----|-0---0--0--0--0--3---3--3--3--3--5---5--5--|
E|--------|-------------|--------|-------------|-------------------------------------------|


E|---------------------------------------|-----------------------------------------|
B|---------------------------------------|-----------------------------------------|
G|-------------------2---------------5---|-------------7---------------------------|
D|-------10--9---10--2---------------5---|-------------7---------------10--9---10--|
A|-5--5--8---7---8---0---0--0--0--0--3---|-3--3--3--3--5---5--5--5--5--8---7---8---|
E|---------------------------------------|-----------------------------------------|


E|-------------------------------------------|---------------------------------------|
B|-------------------------------------------|---------------------------------------|
G|-2---------------5---------------7---------|-------------------2---------------5---|
D|-2---------------5---------------7---------|-------10--9---10--2---------------5---|
A|-0---0--0--0--0--3---3--3--3--3--5---5--5--|-5--5--8---7---8---0---0--0--0--0--3---|
E|-------------------------------------------|---------------------------------------|


E|-----------------------------------------|--------|-------------|--------|-------------|
B|-----------------------------------------|--------|-------------|--------|-------------|
G|-------------7---------------------------|-4------|-4------2----|-5------|-------------|
D|-------------7---------------10--9---10--|-4------|-4------2----|-5------|-5-----2-----|
A|-3--3--3--3--5---5--5--5--5--8---7---8---|-2------|-2------0----|-3------|-5-----2-----|
E|-----------------------------------------|--------|-------------|--------|-3-----0-----|


E|--------|-------------|--------|-------------|--------|-------------|--------|-------------|
B|--------|-------------|--------|-------------|--------|-------------|--------|-------------|
G|-4------|-4------2----|-5------|-------------|-4------|-4------2----|-5------|-------------|
D|-4------|-4------2----|-5------|-7-----4-----|-4------|-4------2----|-5------|-5-----2-----|
A|-2------|-2------0----|-3------|-5-----2-----|-2------|-2------0----|-3------|-5-----2-----|
E|--------|-------------|--------|-------------|--------|-------------|--------|-3-----0-----|


E|--------|-------------|--------|-------------|---------------------------------|
B|--------|-------------|--------|-------------|---------------------------------|
G|-4------|-4------2----|-5------|-------------|-6---6---6---6---6---6---6---6---|
D|-4------|-4------2----|-5------|-7-----4-----|-6---6---6---6---6---6---6---6---|
A|-2------|-2------0----|-3------|-5-----2-----|-4---4---4---4---4---4---4---4---|
E|--------|-------------|--------|-------------|---------------------------------|


E|---------------------------------|---------------------------------|---------------------------------|
B|---------------------------------|---------------------------------|---------------------------------|
G|-6---6---6---6-------------------|---------------------------------|-6---6---6---6---6---6---6---6---|
D|-6---6---6---6---7---7---7---7---|-7---7---7---7---7---7---7---7---|-6---6---6---6---6---6---6---6---|
A|-4---4---4---4---7---7---7---7---|-7---7---7---7---7---7---7---7---|-4---4---4---4---4---4---4---4---|
E|-----------------5---5---5---5---|-5---5---5---5---5---5---5---5---|---------------------------------|


E|---------------------------------|---------------------------------|---------------------------------|
B|---------------------------------|---------------------------------|---------------------------------|
G|-6---6---6---6-------------------|---------------------------------|-6---6---6---6---6---6---6---6---|
D|-6---6---6---6---7---7---7---7---|-7---7---7---7---7---7---7---7---|-6---6---6---6---6---6---6---6---|
A|-4---4---4---4---7---7---7---7---|-7---7---7---7---7---7---7---7---|-4---4---4---4---4---4---4---4---|
E|-----------------5---5---5---5---|-5---5---5---5---5---5---5---5---|---------------------------------|


E|---------------------------------|---------------------------------|---------------------------------|
B|---------------------------------|---------------------------------|---------------------------------|
G|-6---6---6---6-------------------|---------------------------------|-6---6---6---6---6---6---6---6---|
D|-6---6---6---6---7---7---7---7---|-7---7---7---7---7---7---7---7---|-6---6---6---6---6---6---6---6---|
A|-4---4---4---4---7---7---7---7---|-7---7---7---7---7---7---7---7---|-4---4---4---4---4---4---4---4---|
E|-----------------5---5---5---5---|-5---5---5---5---5---5---5---5---|---------------------------------|


E|---------------------------------|---------------------------------|---------------------------------|
B|---------------------------------|---------------------------------|---------------------------------|
G|-6---6---6---6-------------------|---------------------------------|-6---6---6---6---6---6---6---6---|
D|-6---6---6---6---7---7---7---7---|-7---7---7---7---7---7---7---7---|-6---6---6---6---6---6---6---6---|
A|-4---4---4---4---7---7---7---7---|-7---7---7---7---7---7---7---7---|-4---4---4---4---4---4---4---4---|
E|-----------------5---5---5---5---|-5---5---5---5---5---5---5---5---|---------------------------------|


E|---------------------------------|---------------------------------|---------------------------------|
B|---------------------------------|---------------------------------|---------------------------------|
G|-6---6---6---6-------------------|---------------------------------|-6---6---6---6---6---6---6---6---|
D|-6---6---6---6---7---7---7---7---|-7---7---7---7---7---7---7---7---|-6---6---6---6---6---6---6---6---|
A|-4---4---4---4---7---7---7---7---|-7---7---7---7---7---7---7---7---|-4---4---4---4---4---4---4---4---|
E|-----------------5---5---5---5---|-5---5---5---5---5---5---5---5---|---------------------------------|


E|---------------------------------|---------------------------------|---------------------------------|
B|---------------------------------|---------------------------------|---------------------------------|
G|-6---6---6---6-------------------|---------------------------------|-6---6---6---6---6---6---6---6---|
D|-6---6---6---6---7---7---7---7---|-7---7---7---7---7---7---7---7---|-6---6---6---6---6---6---6---6---|
A|-4---4---4---4---7---7---7---7---|-7---7---7---7---7---7---7---7---|-4---4---4---4---4---4---4---4---|
E|-----------------5---5---5---5---|-5---5---5---5---5---5---5---5---|---------------------------------|


E|---------------------------------|---------------------------------|---------------------------------|
B|---------------------------------|---------------------------------|---------------------------------|
G|-6---6---6---6-------------------|---------------------------------|-6---6---6---6---6---6---6---6---|
D|-6---6---6---6---7---7---7---7---|-7---7---7---7---7---7---7---7---|-6---6---6---6---6---6---6---6---|
A|-4---4---4---4---7---7---7---7---|-7---7---7---7---7---7---7---7---|-4---4---4---4---4---4---4---4---|
E|-----------------5---5---5---5---|-5---5---5---5---5---5---5---5---|---------------------------------|


E|---------------------------------|---------------------------------|-------------------------------------------------|
B|---------------------------------|---------------------------------|-------------------------------------------------|
G|-6---6---6---6-------------------|---------------------------------|-9---9---9---9---9---9---8---8---8---9---9---9---|
D|-6---6---6---6---7---7---7---7---|-7---7---7---7---7---7---7---7---|-9---9---9---9---9---9---8---8---8---9---9---9---|
A|-4---4---4---4---7---7---7---7---|-7---7---7---7---7---7---7---7---|-7---7---7---7---7---7---6---6---6---7---7---7---|
E|-----------------5---5---5---5---|-5---5---5---5---5---5---5---5---|-------------------------------------------------|


E|-------------------------------------------------|-------------------------------------------------|
B|-------------------------------------------------|-------------------------------------------------|
G|-11--11--11--11--11--11--10--9---7---------------|-9---9---9---9---9---9---8---8---8---9---9---9---|
D|-11--11--11--11--11--11--------------10--9---7---|-9---9---9---9---9---9---8---8---8---9---9---9---|
A|-9---9---9---9---9---9---------------------------|-7---7---7---7---7---7---6---6---6---7---7---7---|
E|-------------------------------------------------|-------------------------------------------------|


E|-------------------------------------------------|-------------------------------------------------|
B|-------------------------------------------------|-------------------------------------------------|
G|-11--11--11--11--11--11--10--9---7---------------|-9---9---9---9---9---9---8---8---8---9---9---9---|
D|-11--11--11--11--11--11--------------10--9---7---|-9---9---9---9---9---9---8---8---8---9---9---9---|
A|-9---9---9---9---9---9---------------------------|-7---7---7---7---7---7---6---6---6---7---7---7---|
E|-------------------------------------------------|-------------------------------------------------|


E|-------------------------------------------------|-------------------------------------------------|
B|-------------------------------------------------|-------------------------------------------------|
G|-11--11--11--11--11--11--10--9---7---------------|-9---9---9---9---9---9---8---8---8---9---9---9---|
D|-11--11--11--11--11--11--------------10--9---7---|-9---9---9---9---9---9---8---8---8---9---9---9---|
A|-9---9---9---9---9---9---------------------------|-7---7---7---7---7---7---6---6---6---7---7---7---|
E|-------------------------------------------------|-------------------------------------------------|


E|-------------------------------------------------|-------------------------------------------------|
B|-------------------------------------------------|-------------------------------------------------|
G|-11--11--11--11--11--11--10--9---7---------------|-2---2---2---2---2---2---5---5---5---5---5---5---|
D|-11--11--11--11--11--11--------------10--9---7---|-2---2---2---2---2---2---5---5---5---5---5---5---|
A|-9---9---9---9---9---9---------------------------|-0---0---0---0---0---0---3---3---3---3---3---3---|
E|-------------------------------------------------|-------------------------------------------------|


E|-------------------------------------------------|-------------------------------------------------|
B|-------------------------------------------------|-------------------------------------------------|
G|-------------------------4---4---4---5---5---5---|-2---2---2---2---2---2---5---5---5---5---5---5---|
D|-5---5---5---5---5---5---4---4---4---5---5---5---|-2---2---2---2---2---2---5---5---5---5---5---5---|
A|-5---5---5---5---5---5---2---2---2---3---3---3---|-0---0---0---0---0---0---3---3---3---3---3---3---|
E|-3---3---3---3---3---3---------------------------|-------------------------------------------------|


E|-------------------------------------------------|-------------------------------------------------|
B|-------------------------------------------------|-------------------------------------------------|
G|-------------------------4---4---4---5---5---5---|-2---2---2---2---2---2---5---5---5---5---5---5---|
D|-5---5---5---5---5---5---4---4---4---5---5---5---|-2---2---2---2---2---2---5---5---5---5---5---5---|
A|-5---5---5---5---5---5---2---2---2---3---3---3---|-0---0---0---0---0---0---3---3---3---3---3---3---|
E|-3---3---3---3---3---3---------------------------|-------------------------------------------------|


E|-------------------------------------------------|-------------------------------------------------|
B|-------------------------------------------------|-------------------------------------------------|
G|-------------------------4---4---4---5---5---5---|-2---2---2---2---2---2---5---5---5---5---5---5---|
D|-5---5---5---5---5---5---4---4---4---5---5---5---|-2---2---2---2---2---2---5---5---5---5---5---5---|
A|-5---5---5---5---5---5---2---2---2---3---3---3---|-0---0---0---0---0---0---3---3---3---3---3---3---|
E|-3---3---3---3---3---3---------------------------|-------------------------------------------------|


E|-------------------------------------------------|-------------------------------------------------|
B|-------------------------------------------------|-------------------------------------------------|
G|-------------------------4---4---4---5---5---5---|-9---9---9---9---9---9---8---8---8---9---9---9---|
D|-5---5---5---5---5---5---4---4---4---5---5---5---|-9---9---9---9---9---9---8---8---8---9---9---9---|
A|-5---5---5---5---5---5---2---2---2---3---3---3---|-7---7---7---7---7---7---6---6---6---7---7---7---|
E|-3---3---3---3---3---3---------------------------|-------------------------------------------------|


E|-------------------------------------------------|-------------------------------------------------|
B|-------------------------------------------------|-------------------------------------------------|
G|-11--11--11--11--11--11--10--9---7---------------|-9---9---9---9---9---9---8---8---8---9---9---9---|
D|-11--11--11--11--11--11--------------10--9---7---|-9---9---9---9---9---9---8---8---8---9---9---9---|
A|-9---9---9---9---9---9---------------------------|-7---7---7---7---7---7---6---6---6---7---7---7---|
E|-------------------------------------------------|-------------------------------------------------|


E|-------------------------------------------------|-------------------------------------------------|
B|-------------------------------------------------|-------------------------------------------------|
G|-11--11--11--11--11--11--10--9---7---------------|-9---9---9---9---9---9---8---8---8---9---9---9---|
D|-11--11--11--11--11--11--------------10--9---7---|-9---9---9---9---9---9---8---8---8---9---9---9---|
A|-9---9---9---9---9---9---------------------------|-7---7---7---7---7---7---6---6---6---7---7---7---|
E|-------------------------------------------------|-------------------------------------------------|


E|-------------------------------------------------|-------------------------------------------------|
B|-------------------------------------------------|-------------------------------------------------|
G|-11--11--11--11--11--11--10--9---7---------------|-9---9---9---9---9---9---8---8---8---9---9---9---|
D|-11--11--11--11--11--11--------------10--9---7---|-9---9---9---9---9---9---8---8---8---9---9---9---|
A|-9---9---9---9---9---9---------------------------|-7---7---7---7---7---7---6---6---6---7---7---7---|
E|-------------------------------------------------|-------------------------------------------------|


E|-------------------------------------------------|-------------------------------------------------|
B|-------------------------------------------------|-------------------------------------------------|
G|-11--11--11--11--11--11--10--9---7---------------|-9---9---9---9---9---9---8---8---8---9---9---9---|
D|-11--11--11--11--11--11--------------10--9---7---|-9---9---9---9---9---9---8---8---8---9---9---9---|
A|-9---9---9---9---9---9---------------------------|-7---7---7---7---7---7---6---6---6---7---7---7---|
E|-------------------------------------------------|-------------------------------------------------|


E|-------------------------------------------------|-------------------------------------------------|
B|-------------------------------------------------|-------------------------------------------------|
G|-11--11--11--11--11--11--10--9---7---------------|-9---9---9---9---9---9---8---8---8---9---9---9---|
D|-11--11--11--11--11--11--------------10--9---7---|-9---9---9---9---9---9---8---8---8---9---9---9---|
A|-9---9---9---9---9---9---------------------------|-7---7---7---7---7---7---6---6---6---7---7---7---|
E|-------------------------------------------------|-------------------------------------------------|


E|-------------------------------------------------|-------------------------------------------------|
B|-------------------------------------------------|-------------------------------------------------|
G|-11--11--11--11--11--11--10--9---7---------------|-9---9---9---9---9---9---8---8---8---9---9---9---|
D|-11--11--11--11--11--11--------------10--9---7---|-9---9---9---9---9---9---8---8---8---9---9---9---|
A|-9---9---9---9---9---9---------------------------|-7---7---7---7---7---7---6---6---6---7---7---7---|
E|-------------------------------------------------|-------------------------------------------------|


E|-------------------------------------------------|-------------------------------------------------|
B|-------------------------------------------------|-------------------------------------------------|
G|-11--11--11--11--11--11--10--9---7---------------|-9---9---9---9---9---9---8---8---8---9---9---9---|
D|-11--11--11--11--11--11--------------10--9---7---|-9---9---9---9---9---9---8---8---8---9---9---9---|
A|-9---9---9---9---9---9---------------------------|-7---7---7---7---7---7---6---6---6---7---7---7---|
E|-------------------------------------------------|-------------------------------------------------|


E|-------------------------------------------------|--------|--------|-----------------|
B|-------------------------------------------------|--------|--------|-----------------|
G|-11--11--11--11--11--11--10--9---7---------------|-9------|-9------|-----------------|
D|-11--11--11--11--11--11--------------10--9---7---|-9------|-9------|-3----2----------|
A|-9---9---9---9---9---9---------------------------|-7------|-7------|-3----2----------|
E|-------------------------------------------------|--------|--------|-1----0----------|





Track 2: Guitar 2

E|--------|--------------------|---------------------------|--------|--------|--------|
B|--------|--------------------|---------------------------|--------|--------|--------|
G|--------|-------2--------5---|------7--------------------|--------|--------|--------|
D|--------|-------2--------5---|------7--------10--9---10--|--------|--------|--------|
A|--------|-------0--------3---|------5--------8---7---8---|--------|--------|--------|
E|--------|--------------------|---------------------------|--------|--------|--------|


E|--------|--------|--------|--------|--------|--------|--------|--------|--------|
B|--------|--------|--------|--------|--------|--------|--------|--------|--------|
G|--------|--------|--------|--------|--------|--------|--------|--------|--------|
D|--------|--------|--------|--------|--------|--------|--------|--------|--------|
A|--------|--------|--------|--------|--------|--------|--------|--------|--------|
E|--------|--------|--------|--------|--------|--------|--------|--------|--------|


E|--------|--------|--------|--------|--------|--------|--------|--------|--------|
B|--------|--------|--------|--------|--------|--------|--------|--------|--------|
G|--------|--------|--------|--------|--------|--------|--------|--------|--------|
D|--------|--------|--------|--------|--------|--------|--------|--------|--------|
A|--------|--------|--------|--------|--------|--------|--------|--------|--------|
E|--------|--------|--------|--------|--------|--------|--------|--------|--------|


E|--------|--------|--------|--------|--------|--------|--------|--------|--------|
B|--------|--------|--------|--------|--------|--------|--------|--------|--------|
G|--------|--------|--------|--------|--------|--------|--------|--------|--------|
D|--------|--------|--------|--------|--------|--------|--------|--------|--------|
A|--------|--------|--------|--------|--------|--------|--------|--------|--------|
E|--------|--------|--------|--------|--------|--------|--------|--------|--------|


E|--------|--------|--------|--------|--------|--------|--------|--------|--------|
B|--------|--------|--------|--------|--------|--------|--------|--------|--------|
G|--------|--------|--------|--------|--------|--------|--------|--------|--------|
D|--------|--------|--------|--------|--------|--------|--------|--------|--------|
A|--------|--------|--------|--------|--------|--------|--------|--------|--------|
E|--------|--------|--------|--------|--------|--------|--------|--------|--------|


E|--------|--------|--------|--------|--------|--------|--------|--------|--------|
B|--------|--------|--------|--------|--------|--------|--------|--------|--------|
G|--------|--------|--------|--------|--------|--------|--------|--------|--------|
D|--------|--------|--------|--------|--------|--------|--------|--------|--------|
A|--------|--------|--------|--------|--------|--------|--------|--------|--------|
E|--------|--------|--------|--------|--------|--------|--------|--------|--------|


E|--------|--------|--------|--------|--------|--------|--------|--------|--------|
B|--------|--------|--------|--------|--------|--------|--------|--------|--------|
G|--------|--------|--------|--------|--------|--------|--------|--------|--------|
D|--------|--------|--------|--------|--------|--------|--------|--------|--------|
A|--------|--------|--------|--------|--------|--------|--------|--------|--------|
E|--------|--------|--------|--------|--------|--------|--------|--------|--------|


E|--------|--------|--------|--------|--------|--------|--------|--------|--------|
B|--------|--------|--------|--------|--------|--------|--------|--------|--------|
G|--------|--------|--------|--------|--------|--------|--------|--------|--------|
D|--------|--------|--------|--------|--------|--------|--------|--------|--------|
A|--------|--------|--------|--------|--------|--------|--------|--------|--------|
E|--------|--------|--------|--------|--------|--------|--------|--------|--------|


E|--------|--------|--------|--------|--------|--------|--------|--------|--------|
B|--------|--------|--------|--------|--------|--------|--------|--------|--------|
G|--------|--------|--------|--------|--------|--------|--------|--------|--------|
D|--------|--------|--------|--------|--------|--------|--------|--------|--------|
A|--------|--------|--------|--------|--------|--------|--------|--------|--------|
E|--------|--------|--------|--------|--------|--------|--------|--------|--------|


E|--------|--------|--------|--------|--------|--------|--------|--------|--------|
B|--------|--------|--------|--------|--------|--------|--------|--------|--------|
G|--------|--------|--------|--------|--------|--------|--------|--------|--------|
D|--------|--------|--------|--------|--------|--------|--------|--------|--------|
A|--------|--------|--------|--------|--------|--------|--------|--------|--------|
E|--------|--------|--------|--------|--------|--------|--------|--------|--------|


E|--------|--------|--------|--------|--------|--------|--------|--------|--------|
B|--------|--------|--------|--------|--------|--------|--------|--------|--------|
G|--------|--------|--------|--------|--------|--------|--------|--------|--------|
D|--------|--------|--------|--------|--------|--------|--------|--------|--------|
A|--------|--------|--------|--------|--------|--------|--------|--------|--------|
E|--------|--------|--------|--------|--------|--------|--------|--------|--------|


E|--------|--------|--------|--------|--------|--------|--------|--------|--------|
B|--------|--------|--------|--------|--------|--------|--------|--------|--------|
G|--------|--------|--------|--------|--------|--------|--------|--------|--------|
D|--------|--------|--------|--------|--------|--------|--------|--------|--------|
A|--------|--------|--------|--------|--------|--------|--------|--------|--------|
E|--------|--------|--------|--------|--------|--------|--------|--------|--------|


E|--------|
B|--------|
G|--------|
D|--------|
A|--------|
E|--------|





Track 3: Untitled

G|--------|--------|--------|--------|--------|--------|--------|--------|--------|
D|--------|--------|--------|--------|--------|--------|--------|--------|--------|
A|--------|--------|--------|--------|--------|--------|--------|--------|--------|
E|--------|--------|--------|--------|--------|--------|--------|--------|--------|


G|--------|--------|--------|--------|--------|--------|--------|--------|--------|
D|--------|--------|--------|--------|--------|--------|--------|--------|--------|
A|--------|--------|--------|--------|--------|--------|--------|--------|--------|
E|--------|--------|--------|--------|--------|--------|--------|--------|--------|


G|--------|--------|--------|--------|--------|--------|--------|--------|--------|
D|--------|--------|--------|--------|--------|--------|--------|--------|--------|
A|--------|--------|--------|--------|--------|--------|--------|--------|--------|
E|--------|--------|--------|--------|--------|--------|--------|--------|--------|


G|--------|--------|--------|--------|--------|--------|--------|--------|--------|
D|--------|--------|--------|--------|--------|--------|--------|--------|--------|
A|--------|--------|--------|--------|--------|--------|--------|--------|--------|
E|--------|--------|--------|--------|--------|--------|--------|--------|--------|


G|--------|--------|--------|--------|--------|--------|--------|--------|--------|
D|--------|--------|--------|--------|--------|--------|--------|--------|--------|
A|--------|--------|--------|--------|--------|--------|--------|--------|--------|
E|--------|--------|--------|--------|--------|--------|--------|--------|--------|


G|--------|--------|--------|--------|--------|--------|--------|--------|--------|
D|--------|--------|--------|--------|--------|--------|--------|--------|--------|
A|--------|--------|--------|--------|--------|--------|--------|--------|--------|
E|--------|--------|--------|--------|--------|--------|--------|--------|--------|


G|--------|--------|--------|--------|--------|--------|--------|--------|--------|
D|--------|--------|--------|--------|--------|--------|--------|--------|--------|
A|--------|--------|--------|--------|--------|--------|--------|--------|--------|
E|--------|--------|--------|--------|--------|--------|--------|--------|--------|


G|--------|--------|--------|--------|--------|--------|--------|--------|--------|
D|--------|--------|--------|--------|--------|--------|--------|--------|--------|
A|--------|--------|--------|--------|--------|--------|--------|--------|--------|
E|--------|--------|--------|--------|--------|--------|--------|--------|--------|


G|--------|--------|--------|--------|--------|--------|--------|--------|--------|
D|--------|--------|--------|--------|--------|--------|--------|--------|--------|
A|--------|--------|--------|--------|--------|--------|--------|--------|--------|
E|--------|--------|--------|--------|--------|--------|--------|--------|--------|


G|--------|--------|--------|--------|--------|--------|--------|--------|--------|
D|--------|--------|--------|--------|--------|--------|--------|--------|--------|
A|--------|--------|--------|--------|--------|--------|--------|--------|--------|
E|--------|--------|--------|--------|--------|--------|--------|--------|--------|


G|--------|--------|--------|--------|--------|--------|--------|--------|--------|
D|--------|--------|--------|--------|--------|--------|--------|--------|--------|
A|--------|--------|--------|--------|--------|--------|--------|--------|--------|
E|--------|--------|--------|--------|--------|--------|--------|--------|--------|


G|--------|--------|--------|--------|--------|--------|--------|
D|--------|--------|--------|--------|--------|--------|--------|
A|--------|--------|--------|--------|--------|--------|--------|
E|--------|--------|--------|--------|--------|--------|--------|