Site menu:

    

Browse: 0-9 A B C D E F G H I J K L N O P Q R S T U V W X Y Z

dimmu borgir - antikrist:



/---------------------------------------------------------------------------
/ The following is the author's own interpretation of the song, to be used -
/ for studying or private use only, removal of any part of this ten line   -
/ header is illegal!!!  Removal of the transcribers name or anything       -
/ relevant to the transcriber is also illegal, as so is the removal of the -
/ place inwhich the tab was downloaded. Publishing as well as printing of  -
/ the tab is illegal without permission of the transcriber and copyright   -
/ owner of the song. Failure to apply to these laws result will in legal   -
/ action from the appropriate parties.                                     -
/---------------------------------------------------------------------------

downloaded from Displacer's Tablature Site at
        http://www.dsrmusic.com/metaltab
join the death/black tab emailing list by filling out the free
subscription form at http://www.dsrmusic.com/metaltab

Dimmu Borgir
Antikrist - Gtr
Album: Stormblast
Lord Bozium

I got the album in mp3 from a friend and there was a problem with the names of the songs so I'm not sure if this is Antikrist or Dødsferd... Any way you'll realise listening to the synth part that goes like a bird (???)


* = Ring
. = Tremolo

Intro (00:02)
|---------|
|---------|
|---------|
|------7--|
|---7--5--|
|---5-----|
       *

Riff 1 (00:02 - 00:37) 
|----------------------------------|
|----------------------------------|
|----------------------------------|
|----------------------------------|
|--7-55555-77-55-33333-11111-00000-|
|--5-------------------------------|
     ..... .. .. ..... .....

|---------------------------------|
|---------------------------------|
|---------------------------------|
|---------------------------------|
|--555-7-5555-66-88888-666--33333-|
|------5--------------------------| x4
   ...   .... .. ..... ...  .....

Synth Part (Voice enter)
A..B.C.e..d.
A..B.C.e....d.e.f.g


Riff 2 (00:57 - 01:15)
Both Gtrs
|--------------------------------|
|--------------------------------|
|--------------------------------|
|--------------------------------|
|--------------------------------|
|--5555888888888-88888887777-----| x4
   ............. ...........

Riff 3 (01:15 - 01:33)
Gtr 1
|----------------------------------------|
|----------------------------------------|
|----------------------------------------|
|--7----7----6----7----------------------|
|--5----5----4----5----8----8--5----5----|
|----------------------6----6--3----3----|
Gtr 2
|----------------------------------------|
|----------------------------------------|
|----------------------------------------|
|----------------------------------------|
|--55555555555555555---------------------|
|--------------------6666666333333333----| x4
   ................. ................

Synth goes
|--1-----1-0---1--1--3--5-6-5-3---|
|------------1--------------------|
|----3-4--------------------------|
|---------------------------------|
|---------------------------------|
|---------------------------------|
   *           *

f...A..A#..f..e..c.
f...f..g..a..a#..a..g

Riff 4 (01:33 - 01:50)
Gtr 1
|-----------------------------------------------------|
|-----------------------------------------------------|
|-----------------------------------------------------|
|-----------------------------------------------------|
|--9---9--9--10--10-10--7---7--7---12--12---12--12----|
|--7---7--7--8---8--8---5---5--5---10--10---10--10----|
Gtr 2
|-----------------------------------------------------|
|-----------------------------------------------------|
|-----------------------------------------------------|
|-----------------------------------------------------|
|-----------------------------------------------------|
|-777777777778888888888855555555555510101010101010#---| x4

# 10 = Ten, not 1 & 0

Riff 1 (01:50 - 02:08) x2
Riff 2 (02:28 - 02:46) x4
Riff 3 (02:46 - 03:03) x4
Riff 4 (03:04 - 03:38) x8

End
|----------------|
|----------------|
|----------------|
|----------------|
|-9--9/10-10++---|
|-7--7/8---------|


---------------------------------------------

Raise your fist in name of satan