Site menu:

    

Browse: 0-9 A B C D E F G H I J K L N O P Q R S T U V W X Y Z

deicide - worst enemy:



#----------------------------------PLEASE NOTE---------------------------------#
#This file is the author's own work and represents their interpretation of the #
#song. You may only use this file for private study, scholarship, or research. #
#------------------------------------------------------------------------------#

  Visit MetalTabs.com for more metal tablature
  
WORST ENEMY
 By DEICIDE
 As Performed On INSINERATEHYMN 2000
 ROADRUNNER Records

 Tabbed By Ema

 Tuning Eb


 RIFF 1 INTRO x6

|----------------------------------------------|
|----------------------------------------------|
|----------------------------------------------|
|-----8--8-------7--7-------6--6---------------|
|-----6--6-------5--5-------4--4---3-4-5-2-----|
|-0-0-6--6---0-0-5--5---0-0-4--4---1-2-3-0-----|
  . .  x     . .  x     . .  x     . . .



 RIFF 2 VERSE x3

|ERIC
|-----------------|-----------------|-----------------|-----------------|
|-----------------|-----------------|-----------------|-----------------|
|-----------------|-----------------|-----------------|-----------------|
|-8-7---7-6-------|-8-7---7-6-------|-8-7---7-6-------|-----------------|
|-----8-----7-6-5-|-----8-----7-6-5-|-----8-----7-6-5-|-8-7---7-6-------|
|-----------------|-----------------|-----------------|-----8-----7-6-5-|
|     .     . . .       .     . . .       .     . . .       .     . . .
|
|BRIAN
|-----------------|-----------------|-----------------|-----------------|
|-----------------|-----------------|-----------------|-----------------|
|-----------------|-----------------|-----------------|-----------------|
|-8-7---7-6-------|-8-7---7-6-------|-----------------|-----------------|
|-----8-----7-6-5-|-----8-----7-6-5-|-8-7---7-6-------|-3-2---2-1-------|
|-----------------|-----------------|-----8-----7-6-5-|-----3-----2-1-0-|
      .     . . .       .     . . .       .     . . .       .     . . .



 RIFF 3 BRIDGE x4

|-----------------------------|
|-----------------------------|
|-----------------------------|
|-----------------------------|
|---3---2---3-----1---2---1---|
|-2---2---2---0-1---1---1---3-|
  .   .   .   . .   .   .   .



 RIFF 4 CHORUS x4

|-----------------------------|
|-----------------------------|
|-----------------------------|
|-----------------------------|
|---5---4---5-----3---4---3---|
|-2-5-2-4-2-5-0-1-3-1-4-1-3-3-|
  .   .   .   . .   .   .



 RIFF 1 INTERLUDE x6

 RIFF 2 VERSE x3

 RIFF 3 BRIDGE x4

 RIFF 4 CHORUS x4

 RIFF 1 INTERLUDE x4


 SOLO BRIAN
   BAR                                            N.H. BAR
|-----------------------------------------------------------------------------|
|-----------------------------------------------------------------------------|
|-0////\\\\/////\\\\\/\/\/\\\/////\\\\/\/\\\\-----5///\\\////\\\////\\\\\-----|
|-----------------------------------------------------------------------------|
|-----------------------------------------------------------------------------|
|-----------------------------------------------------------------------------|

   BAR                 N.H. BAR
|-------------------------------------------------------------------------|
|-------------------------------------------------------------------------|
|----------------------4////\\\\\////\\\\/////\\\\\/\/\\\\\\////\\\\\-----|
|-------------------------------------------------------------------------|
|-------------------------------------------------------------------------|
|-0//\\\\\\/\\\\\\--------------------------------------------------------|

  N.H. BAR
|----------------------------------------------------|
|----------------------------------------------------|
|-6////\\\\\////\\\\/////\\\\\/\/\\\\\\////\\\\\-----|
|----------------------------------------------------|
|----------------------------------------------------|
|----------------------------------------------------|




 RIFF 1 x3 UNDER SOLO


 RIFF 1A END x1

|----------------------------------------------|
|----------------------------------------------|
|----------------------------------------------|
|-----8--8-------7--7-------6--6---------------|
|-----6--6-------5--5-------4--4---3-4-5-2-----|
|-0-0-6--6---0-0-5--5---0-0-4--4---1-2-3-0-----|
  . .  x     . .  x     . .  x     . . .  x

  Visit MetalTabs.com for more metal tablature