Site menu:

    

Browse: 0-9 A B C D E F G H I J K L N O P Q R S T U V W X Y Z

deicide - they are the children of the underworld:



/---------------------------------------------------------------------------
/ The following is the author's own interpretation of the song, to be used -
/ for studying or private use only, removal of any part of this ten line   -
/ header is illegal!!!  Removal of the transcribers name or anything       -
/ relevant to the transcriber is also illegal, as so is the removal of the -
/ place inwhich the tab was downloaded. Publishing as well as printing of  -
/ the tab is illegal without permission of the transcriber and copyright   -
/ owner of the song. Failure to apply to these laws will result in legal   -
/ action from the appropriate parties.                                     -
/---------------------------------------------------------------------------

downloaded from the Catacombs of Displacer's Death Tab Site at
        http://www.dsrmusic.com/metaltab
Visit the site to enjoy the largest metal tab archive on the internet.
Email rich@dsrmusic.com for any questions


================================================================================
         Title : They are the Children of the Underworld
        Artist : Deicide
         Album : Once Upon the Cross
Transcribed by : Demgoroth 
  This is track 6 from the complete "Once Upon the Cross"

================================================================================

Legend
------

 h  = hammer-on
 p  = pull-off
 b  = bend
 r  = bend release
 /  = slide up/down
<5> = natural harmonic
[5] = artifical harmonic
 ~  = vibrato
 tr = trill
!=speed pick note

tune to Eb Ab Db Gb Bb Eb

I
|------------------------------------|
|------------------------------------|
|---------------------------------6--|
|------5----------5---------------5--|
|------4----------4---------------4--|
|-0000-3-00001111-3-0000140140140----|


A                                                 II
|------------------------------------|----------------------------|
|------------------------------------|----------------------------|
|------------------------------------|----------------------------|
|------------------------------------|----------------------------|
|------------------------------------|----------------------------|
|-0000113300001133001144001133001100-|-00001133001144001133001100-|

B                                  III
|-------------------------|-------------------------|
|-------------------------|-------------------------|
|-------------------------|-------------------------|
|-------------------------|-------------------------|
|-------------------------|-2-3-5-2-332-2-3-5-2-3-6-|
|-0-113-0-110-0-1-3-0-114-|-0-1-3-0-110-0-1-3-0-1-4-|


C
|-----------------------|
|-----------------------|
|-----------------------|
|-----------------------|
|--5p4-4p3-2--2--1p0----|
|-5---5---4-23-12---1p0-|


D
|------------------------------------------|
|------------------------------------------|
|------------------------------------------|
|------------------------------------------|
|------------------------------------------|
|-0-0000-0000-0000-0000-0000-0000-0000-000-|


IV
|----------------------------------------|
|----------------------------------------|
|----------------------------------------|
|----------------------------------------|
|----------------------------------------|
|-00000000011330000113333333223355222222-|

For the solo, just mess around with the Eb phrygian scale and you should sound like on the album. It's really not worth tabbing.

riff order I/A/II/I/B/III/C/III/[C/D]/IV/II/I/III/C/III/[C/D]/etc (it's up to you to figure out the repeats and stuff)