Site menu:

    

Browse: 0-9 A B C D E F G H I J K L N O P Q R S T U V W X Y Z

deicide - the gift that keeps on giving:



#----------------------------------PLEASE NOTE---------------------------------#
#This file is the author's own work and represents their interpretation of the #
#song. You may only use this file for private study, scholarship, or research. #
#------------------------------------------------------------------------------#

  Visit MetalTabs.com for more metal tablature
  
THE GIFT THAT KEEPS ON GIVING
 By DEICIDE
 As Performed On INSINERATEHYMN 2000
 ROADRUNNER Records

 Tabbed By Ema

 Tuning Eb


 RIFF 1A INTO MAIN x1

|ERIC
|---------------------------------------------------------|
|---------------------------------------------------------|
|---------------------------------------------------------|
|---------------------------------------------------------|
|-3---2---4---3---5---4---3---2---4---3---5---4---2-3-2---|
|-1---0---2---1---3---2---1---0---2---1---3---2---0-1-0---|
|                                                 . . .x
|
|BRIAN
|---------------------------------------------------------|
|---------------------------------------------------------|
|---------------------------------------------------------|
|---------------------------------------------------------|
|-------------------------------------------------2-3-2---|
|-------------------------------------------------0-1-0---|
                                                  . . .x



 RIFF 1 MAIN x5

|---------------------------------------------------------|
|---------------------------------------------------------|
|---------------------------------------------------------|
|---------------------------------------------------------|
|-3---2---4---3---5---4---3---2---4---3---5---4---2-3-2---|
|-1---0---2---1---3---2---1---0---2---1---3---2---0-1-0---|
                                                  . . .x



 RIFF 2 VERSE x4

|-------------------------------------------------|
|-------------------------------------------------|
|-------------------------------------------------|
|-------------------------------------------------|
|-3---2---5---4---3---2---4---3---5---4---2-3-2---|
|-1---0---3---2---1---0---2---1---3---2---0-1-0---|
  .   .   .   .   .   .   .   .   .   .   . . .x



 RIFF 3 BREAK x2

|---------------------------------|
|---------------------------------|
|---------------------------------|
|---------------------------------|
|-2---1---0---2---1---0---0---1---|
|-2---1---0---2---1---0---0---1---|
  .   .   .   .   .   .   .   .



 RIFF 4 BRIDGE x2

|---------------------------------|
|---------------------------------|
|---------------------------------|
|---------------------------------|
|-4---3---2---4---3---2---2---3---|
|-2---1---0---2---1---0---0---1---|
  .   .   .   .   .   .   .   .



 RIFF 3 BREAK x2

 RIFF 4 BRIDGE x2


 SOLO 1 BRIAN
           N.H. BAR         N.H. BAR  BAR     N.H. BAR
|------------------------------------------------------------------|
|------------------------------------------------------------------|
|----------7////\\/\/\/\\---7\\/\/\\-0/\\\\---6\\/////\/\/\/\\-----|
|------------------------------------------------------------------|
|-17\\\\-----------------------------------------------------------|
|-17\\\\-----------------------------------------------------------|




 RIFF 3 x2 UNDER SOLO 1


 RIFF 5 CHORUS x1

|x3
|-----------------------------------|-----------------------------------|
|-----------------------------------|-----------------------------------|
|-----------------------------------|-----------------------------------|
|---------7---------9--8----11-10---|---------7---------9--8-----6------|
|-5-7-6-8-5--8--7---7--6--9--9--8---|-5-7-6-8-5--8--7---7--6--9--4--7---|
|------------6--5---------7---------|------------6--5---------7-----5---|
  . . . .                        x    . . . .                        x


|-----------------------------------|-----------------------------------|
|-----------------------------------|-----------------------------------|
|-----------------------------------|-----------------------------------|
|---------7---------9--8----11-10---|---------7---------9--8------------|
|-5-7-6-8-5--8--7---7--6--9--9--8---|-5-7-6-8-5--8--7---7--6--9--8--4---|
|------------6--5---------7---------|------------6--5---------7--6--2---|
  . . . .                        x    . . . .                        x



 RIFF 1A INTO MAIN x1

 RIFF 1 MAIN x5

 RIFF 2 VERSE x4

 RIFF 3 BREAK x2

 RIFF 4 BRIDGE x2

 RIFF 3 BREAK x2

 RIFF 4 BRIDGE x2


 SOLO 2 BRIAN
  S.H. BAR                 N.H. BAR
|-------------------------------------------------------------|
|-------------------------------------------------------------|
|-3////\\\\\\/\\\/\\\\\\\\h5/\\\/\\\\/\\\\\\\\/\\\\\\\\\\-----|
|-------------------------------------------------------------|
|-------------------------------------------------------------|
|-------------------------------------------------------------|




 RIFF 3 x2 UNDER SOLO 2

 RIFF 5A CHORUS x1

|-----------------------------------|-----------------------------------|
|-----------------------------------|-----------------------------------|
|-----------------------------------|-----------------------------------|
|---------7---------9--8----11-10---|---------7---------9--8-----6------|
|-5-7-6-8-5--8--7---7--6--9--9--8---|-5-7-6-8-5--8--7---7--6--9--4--7---|
|------------6--5---------7---------|------------6--5---------7-----5---|
  . . . .                        x    . . . .                        x


|-----------------------------------|-----------------------------------|
|-----------------------------------|-----------------------------------|
|-----------------------------------|-----------------------------------|
|---------7---------9--8----11-10---|---------7---------9--8------------|
|-5-7-6-8-5--8--7---7--6--9--9--8---|-5-7-6-8-5--8--7---7--6--9--8--4---|
|------------6--5---------7---------|------------6--5---------7--6--2---|
  . . . .                        x    . . . .                        x


|-----------------------------------|-----------------------------------|
|-----------------------------------|-----------------------------------|
|-----------------------------------|-----------------------------------|
|---------7---------9--8----11-10---|---------7---------9--8-----6------|
|-5-7-6-8-5--8--7---7--6--9--9--8---|-5-7-6-8-5--8--7---7--6--9--4--7---|
|------------6--5---------7---------|------------6--5---------7-----5---|
  . . . .                        x    . . . .                        x


|-----------------------------------|-----------------------------------|
|-----------------------------------|-----------------------------------|
|-----------------------------------|-----------------------------------|
|---------7---------9--8----11-10---|---------7---------9--8------------|
|-5-7-6-8-5--8--7---7--6--9--9--8---|-5-7-6-8-5--8--7---7--6--9--6--4---|
|------------6--5---------7---------|------------6--5---------7--6--2---|
  . . . .                        x    . . . .                        x



 RIFF 1A END x1

  Visit MetalTabs.com for more metal tablature