Site menu:

    

Browse: 0-9 A B C D E F G H I J K L N O P Q R S T U V W X Y Z

deicide - suffer again:



#----------------------------------PLEASE NOTE---------------------------------#
#This file is the author's own work and represents their interpretation of the #
#song. You may only use this file for private study, scholarship, or research. #
#------------------------------------------------------------------------------#

  Visit MetalTabs.com for more metal tablature
  
SUFFER AGAIN
 By DEICIDE
 As Performed On INSINERATEHYMN 2000
 ROADRUNNER Records

 Tabbed By Ema

 Tuning Eb


 RIFF 1A INTRO x1

|BRIAN
|-------------------------|
|-------------------------|
|-------------------------|
|-------------------------|
|-------------------------|
|-4-1-4-0-1-0-4-1-4-0-1-0-|
  . . . . . . . . . . . .


 RIFF 1 INTRO x2

|-------------------------|
|-------------------------|
|-------------------------|
|-------------------------|
|-------------------------|
|-4-1-4-0-1-0-4-1-4-0-1-0-|
  . . . . . . . . . . . .



 SOLO 1 BRIAN

|----------------------------------------------------------------------|
|----------------------------------------------------------------------|
|-9h10p9h10p9-/13b^-12b^^^---------------------------------------------|
|----------------------------/12-10b^^^---9-7-6-----7-6----------------|
|-----------------------------------------------8-7-----8-7------------|
|-----------------------------------------------------------/7b^^^-----|
                                          . . . . . . . . .

|-------------------------------------------|
|-------------------------------------------|
|-------------------------------------------|
|------------------------------7/10b^^^-----|
|------------------------7h8p7--------------|
|-/7b^^^-----7b^-8b^-7b^--------------------|




 RIFF 1 x4 UNDER SOLO


 RIFF 2 VERSE x1


|ERIC x2
|----------------------------------------------------------------|
|----------------------------------------------------------------|
|----------------------------------------------------------11111-|
|------------------------------------------------3333322222------|
|----------------------------------------------------------------|
|-00000---00000---00000---00000---444440000011111----------------|
| .....   .....   .....   .....   ...............
|
|BRIAN x2                                                  TRILL
|----------------------------------------------------------------|
|----------------------------------------------------------------|
|----------------------------------------------------------1h2p1-|
|------------------------------------------------3333322222------|
|----------------------------------------------------------------|
|-00000---00000---00000---00000---444440000011111----------------|
  .....   .....   .....   .....   ...............


|ERIC x2
|----------------------------------------------------------------|
|----------------------------------------------------------------|
|----------------------------------------------------------11111-|
|------------------------------------------------3333322222------|
|----------------------------------------------------------------|
|-00000---00000---00000---00000---444440000011111----------------|
| .....   .....   .....   .....   ...............
|
|BRIAN x2                                                  TRILL
|----------------------------------------------------------------|
|----------------------------------------------------------------|
|----------------------------------------------------------4h5p4-|
|------------------------------------------------6666655555------|
|----------------------------------------------------------------|
|-00000---00000---00000---00000---444440000011111----------------|
  .....   .....   .....   .....   ...............



 RIFF 3 CHORUS x1

|x4
|---------------------------------|
|---------------------------------|
|-------3h4p3-3p0-------3h4p3-3p0-|
|---------------------------------|
|---------------------------------|
|-0-0-0-----------0-0-0-----------|
  . . .           . . .


|ERIC x4
|---------------------------------|
|---------------------------------|
|---------------------------------|
|---------------------------------|
|-------8/9\8-8\5-------8/9\8-8\5-|
|-0-0-0-6/7\6-6\3-0-0-0-6/7\6-6\3-|
| . . .           . . .
|
|BRIAN x4
|---------------------------------|
|---------------------------------|
|-------3h4p3-3p0-------3h4p3-3p0-|
|---------------------------------|
|---------------------------------|
|-0-0-0-----------0-0-0-----------|
  . . .           . . .



 FILL 1

|-------------|
|-------------|
|-------------|
|-------------|
|-2-2-2-2-2-2-|
|-0-0-0-0-0-0-|
  . . . . . .



 RIFF 4 BREAK x2

|-------------------------------------------------------------|
|-------------------------------------------------------------|
|-------------------5-4---4-3-------------------5-4---4-3-3-2-|
|-----------------6-----5---------------------6-----5---------|
|-------------------------------------------------------------|
|-444440000011111-------------444440000011111-----------------|
  ............... .     .     ............... .     .



 RIFF 4A BREAK x2

|ERIC
|-------------------------------------------------------------|
|-------------------------------------------------------------|
|-------------------5-4---4-3-------------------5-4---4-3-3-2-|
|-----------------6-----5---------------------6-----5---------|
|-------------------------------------------------------------|
|-444440000011111-------------444440000011111-----------------|
| ............... .     .     ............... .     .
|
|BRIAN
|-------------------------------------------------------------|
|-------------------8-7---7-6-------------------8-7---7-6-6-5-|
|-----------------8-----7---------------------8-----7---------|
|-------------------------------------------------------------|
|-------------------------------------------------------------|
|-444440000011111-------------444440000011111-----------------|
  ...............             ...............



 RIFF 1A BREAK x1

 RIFF 1 INTERLUDE x6

 RIFF 2 VERSE x1

 RIFF 3 CHORUS x1

 RIFF 4 BREAK x2

 RIFF 4A BREAK x2

 RIFF 1 OUTRO x1


 RIFF 1B END x1

|-------------------------|
|-------------------------|
|-------------------------|
|-------------------------|
|-------------------2-----|
|-4-1-4-0-1-0-4-1-4-0-----|
  . . . . . . . . .  x

  Visit MetalTabs.com for more metal tablature