Site menu:

    

Browse: 0-9 A B C D E F G H I J K L N O P Q R S T U V W X Y Z

deicide - refusal of penance:



#----------------------------------PLEASE NOTE---------------------------------#
#This file is the author's own work and represents their interpretation of the #
#song. You may only use this file for private study, scholarship, or research. #
#------------------------------------------------------------------------------#

  Visit MetalTabs.com for more metal tablature
  
REFUSAL OF PENANCE
 By DEICIDE
 As Performed On INSINERATEHYMN 2000
 ROADRUNNER Records

 TAbbed By Ema

 Tuning D


 RIFF 1 INTRO x1

|-------------------------|-------------------------|
|-------------------------|-------------------------|
|-------------------------|-------------------------|
|-------3---------------3-|-------3-----6---------4-|
|-2-----1-----4-------2-1-|-2-----1-----4-------2-2-|
|-0-----------2-------0---|-0-------------------0---|
                      .                         .


|-------------------------|-------------------------|
|-------------------------|-------------------------|
|-------------------------|-------------------------|
|-------3-----2---------3-|-------3---------------4-|
|-2-----1-----0-------2-1-|-2-----1-----5-5-5-5-5-2-|
|-0-------------------0---|-0-----------3-3-3-3-3---|
                      .     .           . . . . .



 SOLO 1 ERIC

|----------------12h13p12h13p12h13p12-17---15---13---12h13p12h13p12h13p12-|
|-------------13----------------------------------------------------------|
|----------14-------------------------------------------------------------|
|-------14----------------------------------------------------------------|
|-12h15-------------------------------------------------------------------|
|-------------------------------------------------------------------------|
                                        x    x    x

|----------------12-17-12-----------------------------------------------------|
|-------------13----------13-------------13-17-15-13-12h13p12h13--------------|
|----------14----------------14----------------------------------16-14fb^^^---|
|-------14----------------------14--------------------------------------------|
|-12h15----------------------------15-12--------------------------------------|
|-----------------------------------------------------------------------------|


|-------------------------------------------------------------------------|
|----------15-17-18----------15-17-18----------15-17-18----------15-17-18-|
|-14-16-17----------14-16-17----------14-16-17----------14-16-17----------|
|-------------------------------------------------------------------------|
|-------------------------------------------------------------------------|
|-------------------------------------------------------------------------|


|----------------------------------------------------------------------------|
|----------------------------------------------------------------------------|
|-------------------14-16-17-16-14----------------------------------14-16-17-|
|----------14-15-18----------------18-15-14----------------14-15-18----------|
|-14-15-17----------------------------------17-15-14-15-17-------------------|
|----------------------------------------------------------------------------|


|-----------------------------------------------------------------------------|
|-----------------------------------------------------------------------------|
|-16-14----------------------------------14-16-17-16-14-----------------------|
|-------18-15-14----------------14-15-18----------------18-15-14--------------|
|----------------17-15-14-15-17----------------------------------17-15-14b^---|
|-----------------------------------------------------------------------------|


|----------------------------------------------------------------------------|
|-13-17-15-13-17-15-13-------------------------------------------------------|
|----------------------16-14-13-16-14-13-------------------------------------|
|----------------------------------------15-14-12-15-14-12-------------------|
|----------------------------------------------------------15-14-12-15-14-12-|
|----------------------------------------------------------------------------|


|-----------------------------12-17-12----------------------------12-17-12----|
|--------------------------13----------13----------------------13----------13-|
|-----------------------14----------------14----------------14----------------|
|--------------------14----------------------14----------14-------------------|
|--------------12h15----------------------------15-12h15----------------------|
|-16-13-12b^------------------------------------------------------------------|


|-------------------------12h17p12h17p12---|
|----------------------13------------------|
|-14----------------14---------------------|
|----14----------14------------------------|
|-------15-12h15---------------------------|
|------------------------------------------|




 RIFF 1 x2 UNDER SOLO 1


 RIFF 2 VERSE x2

|-------------------------|-------------------------|
|-------------------------|-------------------------|
|-------------------------|-------------------------|
|-------------------------|-------------------------|
|-------111111----------1-|-------1111114444444---2-|
|-000000------2222222-0---|-000000--------------0---|
  ................... .     ................... .


|-------------------------|-------------------------|
|-------------------------|-------------------------|
|-------------------------|-------------------------|
|-----------------------3-|-------------------------|
|-------1111110000000-2-1-|-------11111-5-5-5-5-5-2-|
|-000000--------------0---|-000000------3-3-3-3-3---|
  ...................       ........... . . . . .



 RIFF 2A VERSE x2

|ERIC
|-------------------------|-------------------------|
|-------------------------|-------------------------|
|-------------------------|-------------------------|
|-------------------------|-------------------------|
|-------111111----------1-|-------1111114444444---2-|
|-000000------2222222-0---|-000000--------------0---|
| ................... .     ................... .
|
|BRIAN
|-------------------------|-------------------------|
|-------------------------|-------------------------|
|-------------------------|-------------------------|
|-------333333----------3-|-------3333334444444---4-|
|-222222------4444444-2---|-222222--------------2---|
|-------------------------|-------------------------|
  ................... .     ................... .


|ERIC
|-------------------------|-------------------------|
|-------------------------|-------------------------|
|-------------------------|-------------------------|
|-----------------------3-|-------------------------|
|-------1111110000000-2-1-|-------11111-5-5-5-5-5-2-|
|-000000--------------0---|-000000------3-3-3-3-3---|
| ...................       ........... . . . . .
|
|BRIAN
|-------------------------|-------------------------|
|-------------------------|-------------------------|
|-------------------------|-------------------------|
|-------3333332222222---4-|-------33333-7-7-7-7-7-4-|
|-222222--------------2---|-222222------5-5-5-5-5---|
|-------------------------|-------------------------|
  ...................       ........... . . . . .



 RIFF 3 CHORUS x1

|ERIC
|-----------------------------------------------------|
|-----------------------------------------------------|
|-----------------------------------------------------|
|-----------------------------------------------------|
|-----------2---1----------2---1----------2---1-------|
|-000000000---3---2-000000---3---2-000000---3---2-000-|
| .........   .   . ......   .   . ......   .   . ...
|
|BRIAN
|-----------------------------------------------------|
|-----------------------------------------------------|
|-----------------------------------------------------|
|-----------9---8----------9---8----------9---8-------|
|------------10---9---------10---9---------10---9-----|
|-000000000---------000000---------000000---------000-|
  .........   .   . ......   .   . ......   .   . ...


|ERIC
|--------------------------------------------------------------------|
|--------------------------------------------------------------------|
|--------------------------------------------------------------------|
|--------------------------------------------------------------------|
|-------2--------------5--------------7--------------8---------------|
|-0000000--------------3--------------5--------------6---------------|
| ......
|
|BRIAN
|--------------------------------------------------------------------|
|--------------------------------------------------------------------|
|--------------------------------------------------------------------|
|--------------------------------------------------------------------|
|-----------2---1----------2---1----------2---1----------2---1-------|
|-000000000---3---2-000000---3---2-000000---3---2-000000---3---2-000-|
  .........   .   . ......   .   . ......   .   . ......   .   . ...


|ERIC
|-----------------------------------------------------|
|-----------------------------------------------------|
|-----------------------------------------------------|
|-----------------------------------------------------|
|-----------2---1----------2---1----------2---1-------|
|-000000000---3---2-000000---3---2-000000---3---2-000-|
| .........   .   . ......   .   . ......   .   . ...
|
|BRIAN
|-----------------------------------------------------|
|-----------------------------------------------------|
|-----------------------------------------------------|
|-----------9---8----------9---8----------9---8-------|
|------------10---9---------10---9---------10---9-----|
|-000000000---------000000---------000000---------000-|
  .........   .   . ......   .   . ......   .   . ...


|ERIC
|--------------------------------------------------------------------|
|--------------------------------------------------------------------|
|--------------------------------------------------------------------|
|-------9-------------12-------------14-------------15---------------|
|-------7-------------10-------------12-------------13---------------|
|-000000-------------------------------------------------------------|
| ......
|
|BRIAN
|--------------------------------------------------------------------|
|--------------------------------------------------------------------|
|--------------------------------------------------------------------|
|--------------------------------------------------------------------|
|-----------2---1----------2---1----------2---1----------2---1-------|
|-000000000---3---2-000000---3---2-000000---3---2-000000---3---2-000-|
  .........   .   . ......   .   . ......   .   . ......   .   . ...



 RIFF 4 INTERLUDE x2

|-----------------------------------------------------------------|
|-----------------------------------------------------------------|
|-----------------------------------------------------------------|
|-----8---7-------7---6-------6---5-------4---3-------2---1---0---|
|-------9---8-------8---7-------7---6-------5---4-------3---2---1-|
|-000---------000---------000---------000---------000-------------|
  ...   .   . ...   .   . ...   .   . ...   .   . ...   .   .   .



 RIFF 4A INTERLUDE x2

|ERIC
|-----------------------------------------------------------------|
|-----------------------------------------------------------------|
|-----------------------------------------------------------------|
|-----8---7-------7---6-------6---5-------4---3-------2---1---0---|
|-------9---8-------8---7-------7---6-------5---4-------3---2---1-|
|-000---------000---------000---------000---------000-------------|
| ...   .   . ...   .   . ...   .   . ...   .   . ...   .   .   .
|
|BRIAN
|-----------------------------------------------------------------|
|-----------------------------------------------------------------|
|-----------------------------------------------------------------|
|-----------------------------------------------------------------|
|-----8---7-------7---6-------6---5-------4---3-------2---1---0---|
|-000---9---8-000---8---7-000---7---6-000---5---4-000---3---2---1-|
  ... . . . . ... . . . . ... . . . . ... . . . . ... . . . . . .



 RIFF 1 BREAK x3

 RIFF 2 VERSE x2

 RIFF 2A VERSE x2

 RIFF 3 CHORUS x1

 RIFF 4 INTERLUDE x2

 RIFF 4A INTERLUDE x2

 RIFF 1 OUTRO x1


 RIFF 1A OUTRO x1

|-------------------------|-------------------------|
|-------------------------|-------------------------|
|-------------------------|-------------------------|
|-------3---------------3-|-------3-----6---------4-|
|-2-----1-----4-------2-1-|-2-----1-----4-------2-2-|
|-0-----------2-------0---|-0-------------------0---|
                      .                         .


|-------------------------|-------------------------|
|-------------------------|-------------------------|
|-------------------------|-------------------------|
|-------3-----2---------3-|-------3---------------4-|
|-2-----1-----0-------2-1-|-2-----1-----5-5-5-5-5-2-|
|-0-------------------0---|-0-----------3-3-3-3-3---|
                      .     .           . . . . .  x

  Visit MetalTabs.com for more metal tablature