Site menu:

    

Browse: 0-9 A B C D E F G H I J K L N O P Q R S T U V W X Y Z

deicide - oblivious to evil:



/---------------------------------------------------------------------------
/ The following is the author's own interpretation of the song, to be used -
/ for studying or private use only, removal of any part of this ten line   -
/ header is illegal!!!  Removal of the transcribers name or anything       -
/ relevant to the transcriber is also illegal, as so is the removal of the -
/ place inwhich the tab was downloaded. Publishing as well as printing of  -
/ the tab is illegal without permission of the transcriber and copyright   -
/ owner of the song. Failure to apply to these laws result will in legal   -
/ action from the appropriate parties.                                     -
/---------------------------------------------------------------------------


downloaded from the Catacombs of Displacer's Death Tab Site at
        http://www.dsrmusic.com/metaltab
join the death/black tab emailing list by filling out the free
subscription form at http://www.dsrmusic.com/metaltab/join.htm



D E I C I D E

Oblivious To Evil

from: Deicide 1990

Tune down 1/2 step



Tabbed by: macabre@interlog.com

special thanks to evil...TIM



Any ideas/suggestions/additions/

corrections would be greatly appreciated.



Intro:

							 Guitar 2

|---------------------------|		|------------|

|---------------------------|		|------------|

|---------------------------|		|------------|

|---------------------------|		|--9-7-9-10--|

|--2-3-2-3-2-3-2-3-2-3-2-3--|		|--7-5-7--8--|

|--0-1-0-1-0-1-0-1-0-1-0-1--|		|------------|

pm[. . . . . . . . . . . .]   pm[ . . .  .]



Verse riff:

|-------------------------------------------------------

|-------------------------------------------------------

|-------------------------------------------------------

|---------------------------------------10--9-7---------

|--------3-----------5-4-3-------3-------8--7-5-11-9-8--

|--0-0-0-1-0-0-0-0-0-3-2-1-0-0-0-1-0-0-0---------9-7-6--

pm[. . .   . . . . .       . . .   . . . .  . .  . . .]





|-----------------------------

|-----------------------------

|-----------------------------

|--------------------------9--

|-------------10--9-8-10-8-7--

|--0-0-0-0-0-0-8--7-6--8-6----

pm[. . . . . . .  . .  . . .]



Interlude:

|--------------------------------------------

|--------------------------------------------

|-----------------------------------------3--

|--------------------3--------------------3--

|--------------------3--------------------1--

|--3-2-0-2-1-0-3-2-0-1--3-2-0-2-1-0-3-2-0----

pm[. . . . . . . . .    . . . . . . . . .]



Solo Rhythm 1: (4 times)

|---------------------------------------------

|---------------------------------------------

|---------------------5--------------------5--

|---------------------5--------------------5--

|---------------------3--------------------3--

|--000000000000000000---000000000000000000----

pm[..................] [..................]



Solo Rhythm 2: (8 times)

|---------------------

|---------------------

|---------------5--8--

|------7--5-----5--8--

|------7--5-----3--6--

|--000-5--3-000-------

pm[...]    [...]



Solo Rhythm 3: (1 time)

|---------------------------

|---------------------------

|--5-7-8-------5-7-8--------

|--5-7-8--5-7--5-7-8--5-7\--

|--3-5-6--5-7--3-5-6--5-7\--

|---------3-5---------3-5\--