Site menu:

    

Browse: 0-9 A B C D E F G H I J K L N O P Q R S T U V W X Y Z

deicide - let it be done:



#----------------------------------PLEASE NOTE---------------------------------#
#This file is the author's own work and represents their interpretation of the #
#song. You may only use this file for private study, scholarship, or research. #
#------------------------------------------------------------------------------#

  Visit MetalTabs.com for more metal tablature
  
LET IT BE DONE
 By DEICIDE
 As Performed On IN TORMENT IN HELL 2001
 ROADRUNNER Records

 Tabbed By Ema

 Tuning D


 RIFF 1 MAIN x4

|--------------------------|--------------------------|
|--------------------------|--------------------------|
|-------10"----------------|-------10"----------------|
|----------11"12"----------|----------11"12"----------|
|----12"---------12"11"----|----12"-------------------|
|-10-------------------10"-|-10-------------555444111-|
  ..                         ..             .........



 FILL 1

|-------------|
|-------------|
|-------------|
|-------------|
|-7---6---3---|
|-5---4---1---|
  .   .    x



 RIFF 2A INTO VERSE x1

|BRIAN
|-----------------------------------------------------|
|-----------------------------------------------------|
|-----------------------------------------------------|
|------------------------10-9---------------5---------|
|-----3-----8---7--1O-----8-7---------3-----3-----8-7-|
|-0-0-1-0-0-6-0-5-0-8-0-0-----0-0-0-0-1-0-0---0-0-6-5-|
  . .   . .   .   .   . .     . . . .   . .   . .


 RIFF 2 VERSE x4

|-----------------------------------------------------|
|-----------------------------------------------------|
|-----------------------------------------------------|
|------------------------10-9---------------5---------|
|-----3-----8---7--1O-----8-7---------3-----3-----8-7-|
|-0-0-1-0-0-6-0-5-0-8-0-0-----0-0-0-0-1-0-0---0-0-6-5-|
  . .   . .   .   .   . .     . . . .   . .   . .



 RIFF 3 BRIDGE x2

|-------------------------------------------|
|-------------9h10p9h10---------------------|
|-----------------------9h10p9h10-----------|
|---------------------------------9h10p9h10-|
|-------------------------------------------|
|-0-0-0-0-0-0-------------------------------|
  . . . . . .


|-------------------------------------------|
|-------------------------------------------|
|-------------------------------------------|
|-------------6hh7p6hh7---------------------|
|-----------------------7hh8p7hh8-----------|
|-0-0-0-0-0-0---------------------7hh8p7hh8-|
  . . . . . .



 RIFF 4 CHORUS x1

|x7                         |x1
|---------------------------|---------------------------|
|---------------------------|---------------------------|
|---------------------------|---------------------------|
|---------------------------|------------------10-------|
|-------------------7h8p7h8-|-------------------8-------|
|-0-0-0-0-0-0-910-9---------|-0-0-0-0-0-0-910-9---------|
  . . . . . . ... .           . . . . . . ... .  x



 RIFF 1 MAIN x4

 FILL 1

 RIFF 2A INTO VERSE x1

 RIFF 2 VERSE x4

 RIFF 3 BRIDGE x2

 RIFF 4 CHORUS x1

 RIFF 1 MAIN x4

 FILL 1

 RIFF 2A INTO VERSE x1

 RIFF 2 VERSE x4

 RIFF 3 BRIDGE x2

 RIFF 4 CHORUS x4

 RIFF 1 MAIN x4

 FILL 1 END

  Visit MetalTabs.com for more metal tablature