Site menu:

    

Browse: 0-9 A B C D E F G H I J K L N O P Q R S T U V W X Y Z

deicide - in torment in hell:



#----------------------------------PLEASE NOTE---------------------------------#
#This file is the author's own work and represents their interpretation of the #
#song. You may only use this file for private study, scholarship, or research. #
#------------------------------------------------------------------------------#

  Visit MetalTabs.com for more metal tablature
  
IN TORMENT IN HELL
 By DEICIDE
 As Performed On IN TORMENT IN HELL 2001
 ROADRUNNER Records

 Tabbed By Ema

 Tuning D


 RIFF 1 INTRO x3

|--------------------|--------------------|
|--------------------|--------------------|
|--------------------|----------------555-|
|-------333------666-|-------333----------|
|----------555777----|----------555777----|
|-000111-------------|-000111-------------|
  ......               ......


|--------------------|--------------------|
|--------------------|--------------------|
|--------------------|--------------------|
|-------333------666-|-------333----------|
|----------555777----|----------5557776---|
|-000111-------------|-000111---------4---|
  ......               ......



 RIFF 2 VERSE x6

|-------------------------------------------------------|
|-------------------------------------------------------|
|-------------------------------------------------------|
|---------------------------------------6h7p6h7p6-------|
|-------------------------------------------------7-8\\-|
|-000-000-000-000-000-000-000-000-1-5-4-----------------|
  ... ... ... ... ... ... ... ... . . .



 RIFF 3 BRIDGE x4

|-----------------------------------------------------------------|
|-----------------------------------------------------------------|
|---------------------------------------------------------5h6p5h6-|
|---------6h7p6h7---------6h7p6h7---------6h7p6h7-----------------|
|-----7h9-------------7h9-------------7h9-------------7h9---------|
|-000-------------000-------------000-------------000-------------|
  ...             ...             ...             ...



 SOLO 1 BRIAN
  N.H. BAR                             N.H. BAR    N.H. BAR    N.H. BAR
|--------------------------------------------------------------------------|
|--------------------------------------------------------------------------|
|-6////\/\/\/\/\\\/\/\\/\\-------------3//\/\/\\---4//\/\/\\---4//\/\/\\---|
|----------------------------x\\\\\\---------------------------------------|
|----------------------------x\\\\\\---------------------------------------|
|--------------------------------------------------------------------------|

  N.H. BAR    N.H. BAR     N.H. BAR
|---------------------------------------------------------|
|---------------------------------------------------------|
|-4//\/\/\\---4\\/\/\/\\---3///\\\\\\\/\\\\/\\\\/\/\\-----|
|---------------------------------------------------------|
|---------------------------------------------------------|
|---------------------------------------------------------|




 RIFF 4 x4 UNDER SOLO 1

|----------------------------------|
|----------------------------------|
|----------------------------------|
|----------------------------------|
|----------------------------------|
|-44445555000011112222111100001111-|
  ................................



 RIFF 4A BREAK x2

|----------------------------------|
|----------------------------------|
|----------------------------------|
|----------------------------------|
|-6---7---2---3---4---3---2---3----|
|-4---5---0---1---2---1---0---1----|




 RIFF 1 CHORUS x3

 RIFF 2 VERSE x6

 RIFF 3 BRIDGE x4


 SOLO 2 ERIC
  s.H. BAR    s.H. BAR    N.H. BAR          s.H. BAR    N.H. BAR
|----------------------------------------------------------------------------|
|----------------------------------------------------------------------------|
|-3//\/\/\\---3//\/\/\\---------------------3//\/\/\\---5///\/\/\/\//\//\\---|
|----------------------------------------------------------------------------|
|----------------------------------------------------------------------------|
|-------------------------7///\/\/\\\/\\\------------------------------------|

  N.H. BAR              N.H. BAR    N.H. BAR
|--------------------------------------------------------------------------|
|-----------------------------------3\////\\\\\/\\\\///\//\//\//\/\/\\-----|
|-12\///\/\//\//\/\\\---2//\/\/\\---3\////\\\\\/\\\\///\//\//\//\/\/\\-----|
|--------------------------------------------------------------------------|
|--------------------------------------------------------------------------|
|--------------------------------------------------------------------------|




 RIFF 4 x4 UNDER SOLO 2

 RIFF 4A BREAK x2

 RIFF 1 CHORUS x3

 RIFF 2 VERSE x6

 RIFF 3 BRIDGE x4


 SOLO 3 BRIAN
  N.H. BAR                                           BAR
|-------------------------------------------------------------|
|-------------------------------------------------------------|
|-6////\\/\/\/\\\\\/\\\\\/\\\\\/\/\\/\\---x\\\\\\-------------|
|-----------------------------------------x\\\\\\-------------|
|-------------------------------------------------------------|
|---------------------------------------------------0/\\\\\---|

  N.H. BAR
|----------------------------------------------------------|
|----------------------------------------------------------|
|-5///\/\/\\\//////\/\/\\///\\/\\/\\\\/\\\\/\\\/\/\/\\-----|
|----------------------------------------------------------|
|----------------------------------------------------------|
|----------------------------------------------------------|



 RIFF 4 x4 UNDER SOLO 3

 RIFF 4A END x2

  Visit MetalTabs.com for more metal tablature