Site menu:

    

Browse: 0-9 A B C D E F G H I J K L N O P Q R S T U V W X Y Z

deicide - imminent doom:



#----------------------------------PLEASE NOTE---------------------------------#
#This file is the author's own work and represents their interpretation of the #
#song. You may only use this file for private study, scholarship, or research. #
#------------------------------------------------------------------------------#

  Visit MetalTabs.com for more metal tablature
  
IMMINENT DOOM
 By DEICIDE
 As Performed On IN TORMENT IN HELL 2001
 ROADRUNNER Records

 Tabbed By Ema

 Tuning D


 FILL 1

|-----------------|
|-----------------|
|-----------------|
|-----------------|
|-4---5---3---4---|
|-2---3---1---2---|




 RIFF 1 VERSE x4

|ERIC
|--------------------------------------------------|
|--------------------------------------------------|
|--------------------------------------------------|
|--------------------------------------------------|
|----------------------------------4---5---3---4---|
|-0-0-0-8\-0-0-0-8\-0-0-0-8\-0-0-0-2---3---1---2---|
| . . .    . . .    . . .    . . .
|
|BRIAN
|--------------------------------------------------|
|--------------------------------------------------|
|--------------------------------------------------|
|--------------------------------------------------|
|----------------------------------4---5---3---4---|
|-0-0-011\-0-0-011\-0-0-011\-0-0-0-2---3---1---2---|
  . . .    . . .    . . .    . . .



 RIFF 2 CHORUS x6

|--------------------------------------------------------------|
|--------------------------------------------------------------|
|--------------------------------------------------------------|
|--------------------------------------------------------------|
|-------7h10p6-------7h10p6-------7h10p6-------6---7---5---6---|
|-0-0-0--------0-0-0--------0-0-0--------0-0-0-6---7---5---6---|
  . . .        . . .        . . .        . . .



 RIFF 3 BRIDGE x2

|-----------------------------------------------|
|-----------------------------------------------|
|-------7h8-------------------------------------|
|-------------------8p7-------------------------|
|-------------------------------7h8p7-----------|
|-0-0-0-------0-0-0-------0-0-0-------0-0-0-6\\-|
  . . .       . . .       . . .       . . .


|-----------------------------------------------|
|-----------------------------------------------|
|-------7h8-------------------------------------|
|-------------------8p7-------------------------|
|-------------------------------7h8p7-----------|
|-0-0-0-------0-0-0-------0-0-0-------0-0-0-5\\-|
  . . .       . . .       . . .       . . .



 RIFF 1 VERSE x4

 RIFF 2 CHORUS x6

 RIFF 3 BRIDGE x4


 SOLO 1 BRIAN WITH FLANGER EFFECT
  N.H.         N.H. BAR           BAR    N.H. BAR
|------------------------------------------------------------------------|
|------------------------------------------------------------------------|
|-9---x\\\\\---5/\\\\\/\\\\\-------------4///\/\/\/\/\\-----x\\\\\\\\\---|
|-9---x\\\\\---------------------0/\\\----------------------x\\\\\\\\\---|
|------------------------------------------------------------------------|
|------------------------------------------------------------------------|

  N.H. BAR
|----------------------------------------------------------------------|
|-----------------------------////22-----------------------------------|
|-7\\\//////\/\/\\----x\\\\\\------------------------------------------|
|---------------------x\\\\\\--------x\\-x\\-x\\-x\\-x\\-x\\-x\\-x\\---|
|----------------------------------------------------------------------|
|----------------------------------------------------------------------|

  N.H. BAR
|------------------------|
|------------------------|
|-5///////////\/\/\\-----|
|------------------------|
|------------------------|
|------------------------|




 RIFF 4 x4 UNDER SOLO 1

|---------------------------------------------------------|
|---------------------------------------------------------|
|---------------------------------------------------------|
|-4---3---------4---5---------8---7---------9--10---------|
|-4---3---------4---5---------6---5---------7---8---------|
|-2---1---0-0-0-2---3---0-0-0-6---5---0-0-0-7---8---0-0-0-|
          . . .         . . .         . . .         . . .



 RIFF 1 VERSE x4

 RIFF 2 CHORUS x6

 RIFF 3 BRIDGE x4


 SOLO 2 BRIAN WITH FLANGER EFFECT
  N.H. BAR            N.H. BAR                 N.H. BAR
|--------------------------------------------------------------------------|
|----------------------------------------------7///\/\/\\/\\\/\\\----------|
|-4\\///////-x\\\\\---7//\\\\\///\///\/\/\\\------------------------x\\\\\-|
|------------x\\\\\-------------------------------------------------x\\\\\-|
|--------------------------------------------------------------------------|
|--------------------------------------------------------------------------|

                    N.H. BAR             N.H.BAR N.H. BAR
|---------------------------------------------------------------|
|-///22---------------------------------------------------------|
|-------------------3//\/\/\\---x\\\\\-----------7//\/\/\\------|
|---------x\\\\\\---------------x\\\\\---7//\/\\----------------|
|---------x\\\\\\-----------------------------------------------|
|---------------------------------------------------------------|




 RIFF 4 x4 UNDER SOLO 2

 RIFF 1 OUTRO x3


 RIFF 1A END x1

|ERIC
|-----------------------------------------------------------|
|-----------------------------------------------------------|
|-----------------------------------------------------------|
|-----------------------------------------------------------|
|-------------------------------------------4---5---3---4---|
|-0-0-0-8\-0-0-0-8\-0-0-0-8\-0-0-0-8\-0-0-0-2---3---1---2---|
| . . .    . . .    . . .    . . .    . . .                 x
|
|BRIAN
|-----------------------------------------------------------|
|-----------------------------------------------------------|
|-----------------------------------------------------------|
|-----------------------------------------------------------|
|-------------------------------------------4---5---3---4---|
|-0-0-011\-0-0-011\-0-0-011\-0-0-011\-0-0-0-2---3---1---2---|
  . . .    . . .    . . .    . . .    . . .                 x

  Visit MetalTabs.com for more metal tablature