Site menu:

    

Browse: 0-9 A B C D E F G H I J K L N O P Q R S T U V W X Y Z

deicide - christ denied:



/---------------------------------------------------------------------------/
/    The following is the author's own interpretation of the song, to be    /
/                     used for private use and studying                     /
/---------------------------------------------------------------------------/

                         DEICIDE - CHRIST DENIED
                     From the Album ONCE UPON THE CROSS
                   Copyright 1995 ROADRUNNER RECORDINGS

                       Version 666 - FEBRUARY 2005

Transcribed by: Death8699

For Questions, Comments, Newest Version, or Corrections contact
 Death8699: at MethylinInfo@aol.com

Check Out Death Warp, With More Transcriptions On It:
 http://www.deathwarp.com/

..  - palm mute          /  - slide up to
 \  - slide down to      ~  - vibrato
 h  - hammer on          b  - bend
 p  - pull off            Suffixes for bend
                          ph - pinch harmonic
                           f - full bend    h - half bend
*  - see comment           r - release      t - tap bend
X  - percussion mute       ~ - vibrato bend
@  - slight palm mute     () - ghost note, sustained note

Tune Gtr to E-Flat (1/2 Step Down)

--CHRIST DENIED--

 |Riff A|
||--------------------------------------------------------------------------||
||--------------------------------------------------------------------------||
||--------------------------------------------------------------------3-----||
||--------------------------------------------------------------------3-----||
||--------------------------------------------------------------------1-----||
||-0--0--3-0-2--0--0--0--2-0-3--0--0--3-0-1--0--0--0--2-0-3--0--0--3-----0--||
   .  .  . . .  .  .  .  . . .  .  .  . . .  .  .  .  . . .  .  .  .     .


Play Riff A a total of one time.


 |Riff A.1|
||------------------------------------------------------------------------||
||------------------------------------------------------------------------||
||------------------------------------------------------------------------||
||------------------------------------------------------------------------||
||------------------------------------------------------------------------||
||-0--0--3-0-2--0--0--0--2-0-3--0--0--3-0-1--0--0--0--2-0-3--0--0--3-0-1--||
|| .  .  . . .  .  .  .  . . .  .  .  . . .  .  .  .  . . .  .  .  . . .  ||
||------------------------------------------------------------------------||
||------------------------------------------------------------------------||
||----------3-------------------------------------------------------------||
||----------3-------------------------------------------------------------||
||----------1-------------------------------------------------------------||
||-0--0--3-----0----------------------------------------------------------||
   .  .  .     .


Play Riff A.1 a total of one time.
Play Riff A   a total of one time.
Play Riff A.1 a total of one time.


 |Riff B|
||---------------------------------------------||
||---------------------------------------------||
||:-------------------------------------------:||
||:-------------------------------------------:||
||--4--4--4--4--4--4--------3--3--3--3---------||
||--2--2--2--2--2--2--0--0--1--1--1--1--0--0---||
    .  .  .  .  .  .  .  .  .  .  .  .  .  .


Play Riff B a total of 4 times.


Repeat Riff A   a total of 3 times.
Repeat Riff A.1 a total of one time.
Repeat Riff B   a total of 4 times.


 |Riff C|
||------------------------------------------------------------------|
||------------------------------------------------------------------|
||:-----------------------------------------------------------------|
||:-----------------------------------------------------------------|
||----------1-1-1-1-----------------1-1-1-1-------------------------|
||--0-0-0-0---------2-2-2-2-0-0-0-0---------0-0-0-0-2-2-2-2-3-3-3-3-|
||                                                                  |
||------------------------------------------------------------------|
||------------------------------------------------------------------|
||------------------------------------------------------------------|
||------------------------------------------------------------------|
||----------1-1-1-1-----------------1-1-1-1-------------------------|
||--0-0-0-0---------2-2-2-2-0-0-0-0---------1-1-1-1-1-1-1-1-1-1-----|

 |------------------------------------------------------------------||
 |------------------------------------------------------------------||
 |------------------------------------------------------------------||
 |------------------------------------------------------------------||
 |---------1-1-1-1-----------------1-1-1-1--------------------------||
 |-0-0-0-0---------2-2-2-2-0-0-0-0---------0-0-0-0-2-2-2-2-3-3-3-3--||
 |                                                                  ||
 |------------------------------------------------------------------||
 |------------------------------------------------------------------||
 |-----------------------------------------------------------------:||
 |-----------------------------------------------------------------:||
 |---------1-1-1-1-----------------3-3-3-3--------------------------||
 |-0-0-0-0---------2-2-2-2-0-0-0-0---------1-1-1-1-1-1-1-1-1-1------||


Play Riff C a total of 2 times.


 |Riff D|
||-----------------------------------------------------------||
||-----------------------------------------------------------||
||-----------------------------------------------------------||
||-----------------------------------------------------------||
||-----------3--2-2-2-2-2-2-2-2-2-5-5-5-5-1-1-1-1-1-1-1-1-1--||
||--3--2--3--------------------------------------------------||
||  .  .  .     . . . . . . . . . . . . . . . . . . . . . .  ||
||-----------------------------------------------------------||
||-----------------------------------------------------------||
||----------------------------------------------------------:||
||----------------------------------------------------------:||
||-----------3-----------------------------------------------||
||--3--2--3-----2-2-2-2-2-2-2-2-2-5-5-5-5-1-1-1-1-1-1-1-1-1--||
    .  .  .     . . . . . . . . . . . . . . . . . . . . . . 


Play Riff D a total of 4 times.


Repeat Riff C   a total of 2 times.
Repeat Riff A   a total of one time.
Repeat Riff A.1 a total of one time.
Repeat Riff A   a total of one time.
Repeat Riff A.1 a total of one time.
Repeat Riff B   a total of 4 times.
Repeat Riff A   a total of 3 times.
Repeat Riff A.1 a total of one time.
Repeat Riff B   a total of 4 times.
Repeat Riff C   a total of 2 times.
Repeat Riff D   a total of 4 times.
Repeat Riff C   a total of 2 times.


|Riff E|
|------------------------------------------------------------------------|
|------------------------------------------------------------------------|
|------------------------------------------------------------------------|
|------------------------------------------------------------------------|
|------------------------------------------------------------------------|
|-0--0--3-0-2--0--0--0--2-0-3--0--0--3-0-1--0--0--0--2-0-3--0--0--3-0-1--|
| .  .  . . .  .  .  .  . . .  .  .  . . .  .  .  .  . . .  .  .  . . .  |
|------------------------------------------------------------------------|
|------------------------------------------------------------------------|
|----------3-------------------------------------------------------------|
|----------3-------------------------------------------------------------|
|----------1-------------------------------------------------------------|
|-0--0--3----------------------------------------------------------------|
  .  .  .

End!

Check Out Death Warp, With More Transcriptions On It:
 http://www.deathwarp.com/