Site menu:

    

Browse: 0-9 A B C D E F G H I J K L N O P Q R S T U V W X Y Z

daniel harvey - lost time:



Title: Lost Time
Artist: 
Album: 
Author: Daniel Harvey


Track 1: 12-string 

E|---------------------------------|---------------------------------|-------------7-------5-----------|
B|-------------5---4---------------|-------------4-------5-------7---|---------5---------------7-------|
G|---------6-----------4-----------|---------4-------4-------4-------|-----------------6-----------6---|
D|-----6---------------------------|-----6---------------------------|---------------------------------|
A|-4-----------------------4---6---|-7-------------------------------|-----7---------------------------|
E|---------------------------------|---------------------------------|-5-------------------------------|


E|-------------5-------4-----------|---------------------------------|---------------------------------|
B|-----------------4-------4-------|-------------5---4---------------|-------------4-------5-------7---|
G|---------4-------------------4---|---------6-----------4-----------|---------4-------4-------4-------|
D|-----6---------------------------|-----6---------------------------|-----6---------------------------|
A|-6-------------------------------|-4-----------------------4---6---|-7-------------------------------|
E|-4-------------------------------|---------------------------------|---------------------------------|


E|-------------7-------5-----------|-------------5-------4-----------|---------------------------------|
B|---------5---------------7-------|-----------------4-------4-------|-------------5---4---------------|
G|-----------------6-----------6---|---------4-------------------4---|---------6-----------4-----------|
D|---------------------------------|-----6---------------------------|-----6---------------------------|
A|-----7---------------------------|-6-------------------------------|-4-----------------------4---6---|
E|-5-------------------------------|-4-------------------------------|---------------------------------|


E|---------------------------------|-------------7-------5-----------|-------------5-------4-----------|
B|-------------4-------5-------7---|---------5---------------7-------|-----------------4-------4-------|
G|---------4-------4-------4-------|-----------------6-----------6---|---------4-------------------4---|
D|-----6---------------------------|---------------------------------|-----6---------------------------|
A|-7-------------------------------|-----7---------------------------|-6-------------------------------|
E|---------------------------------|-5-------------------------------|-4-------------------------------|


E|---------------------------------|---------------------------------|-------------7-------5-----------|
B|-------------5---4---------------|-------------4-------5-------7---|---------5---------------7-------|
G|---------6-----------4-----------|---------4-------4-------4-------|-----------------6-----------6---|
D|-----6---------------------------|-----6---------------------------|---------------------------------|
A|-4-----------------------4---6---|-7-------------------------------|-----7---------------------------|
E|---------------------------------|---------------------------------|-5-------------------------------|


E|-------------5-------4-----------|---------------------------------|---------------------------------|
B|-----------------4-------4-------|-------------5---4---------------|-------------4-------5-------7---|
G|---------4-------------------4---|---------6-----------4-----------|---------4-------4-------4-------|
D|-----6---------------------------|-----6---------------------------|-----6---------------------------|
A|-6-------------------------------|-4-----------------------4---6---|-7-------------------------------|
E|-4-------------------------------|---------------------------------|---------------------------------|


E|-------------7-------5-----------|-------------5-------4-----------|---------------------------------|
B|---------5---------------7-------|-----------------4-------4-------|-------------5---4---------------|
G|-----------------6-----------6---|---------4-------------------4---|---------6-----------4-----------|
D|---------------------------------|-----6---------------------------|-----6---------------------------|
A|-----7---------------------------|-6-------------------------------|-4-----------------------4---6---|
E|-5-------------------------------|-4-------------------------------|---------------------------------|


E|---------------------------------|-------------7-------5-----------|-------------5-------4-----------|
B|-------------4-------5-------7---|---------5---------------7-------|-----------------4-------4-------|
G|---------4-------4-------4-------|-----------------6-----------6---|---------4-------------------4---|
D|-----6---------------------------|---------------------------------|-----6---------------------------|
A|-7-------------------------------|-----7---------------------------|-6-------------------------------|
E|---------------------------------|-5-------------------------------|-4-------------------------------|


E|---------------------------------|---------------------------------|-------------7-------5-----------|
B|-------------5---4---------------|-------------4-------5-------7---|---------5---------------7-------|
G|---------6-----------4-----------|---------4-------4-------4-------|-----------------6-----------6---|
D|-----6---------------------------|-----6---------------------------|---------------------------------|
A|-4-----------------------4---6---|-7-------------------------------|-----7---------------------------|
E|---------------------------------|---------------------------------|-5-------------------------------|


E|-------------5-------4-----------|---------------------------------|---------------------------------|
B|-----------------4-------4-------|-------------5---4---------------|-------------4-------5-------7---|
G|---------4-------------------4---|---------6-----------4-----------|---------4-------4-------4-------|
D|-----6---------------------------|-----6---------------------------|-----6---------------------------|
A|-6-------------------------------|-4-----------------------4---6---|-7-------------------------------|
E|-4-------------------------------|---------------------------------|---------------------------------|


E|-------------7-------5-----------|-------------5-------4-----------|--------|--------|
B|---------5---------------7-------|-----------------4-------4-------|--------|--------|
G|-----------------6-----------6---|---------4-------------------4---|--------|--------|
D|---------------------------------|-----6---------------------------|--------|--------|
A|-----7---------------------------|-6-------------------------------|--------|--------|
E|-5-------------------------------|-4-------------------------------|--------|--------|


E|--------|--------|--------|--------|--------|--------|---------------------------------|
B|--------|--------|--------|--------|--------|--------|-------------5---4---------------|
G|--------|--------|--------|--------|--------|--------|---------6-----------4-----------|
D|--------|--------|--------|--------|--------|--------|-----6---------------------------|
A|--------|--------|--------|--------|--------|--------|-4-----------------------4---6---|
E|--------|--------|--------|--------|--------|--------|---------------------------------|


E|---------------------------------|-------------7-------5-----------|-------------5-------4-----------|
B|-------------4-------5-------7---|---------5---------------7-------|-----------------4-------4-------|
G|---------4-------4-------4-------|-----------------6-----------6---|---------4-------------------4---|
D|-----6---------------------------|---------------------------------|-----6---------------------------|
A|-7-------------------------------|-----7---------------------------|-6-------------------------------|
E|---------------------------------|-5-------------------------------|-4-------------------------------|


E|---------------------------------|---------------------------------|-------------7-------5-----------|
B|-------------5---4---------------|-------------4-------5-------7---|---------5---------------7-------|
G|---------6-----------4-----------|---------4-------4-------4-------|-----------------6-----------6---|
D|-----6---------------------------|-----6---------------------------|---------------------------------|
A|-4-----------------------4---6---|-7-------------------------------|-----7---------------------------|
E|---------------------------------|---------------------------------|-5-------------------------------|


E|-------------5-------4-----------|---------------------------------|---------------------------------|
B|-----------------4-------4-------|-------------5---4---------------|-------------4-------5-------7---|
G|---------4-------------------4---|---------6-----------4-----------|---------4-------4-------4-------|
D|-----6---------------------------|-----6---------------------------|-----6---------------------------|
A|-6-------------------------------|-4-----------------------4---6---|-7-------------------------------|
E|-4-------------------------------|---------------------------------|---------------------------------|


E|-------------7-------5-----------|-------------5-------4-----------|---------------------------------|
B|---------5---------------7-------|-----------------4-------4-------|-------------5---4---------------|
G|-----------------6-----------6---|---------4-------------------4---|---------6-----------4-----------|
D|---------------------------------|-----6---------------------------|-----6---------------------------|
A|-----7---------------------------|-6-------------------------------|-4-----------------------4---6---|
E|-5-------------------------------|-4-------------------------------|---------------------------------|


E|---------------------------------|-------------7-------5-----------|-------------5-------4-----------|
B|-------------4-------5-------7---|---------5---------------7-------|-----------------4-------4-------|
G|---------4-------4-------4-------|-----------------6-----------6---|---------4-------------------4---|
D|-----6---------------------------|---------------------------------|-----6---------------------------|
A|-7-------------------------------|-----7---------------------------|-6-------------------------------|
E|---------------------------------|-5-------------------------------|-4-------------------------------|


E|---------------------------------|---------------------------------|-------------7-------5-----------|
B|-------------5---4---------------|-------------4-------5-------7---|---------5---------------7-------|
G|---------6-----------4-----------|---------4-------4-------4-------|-----------------6-----------6---|
D|-----6---------------------------|-----6---------------------------|---------------------------------|
A|-4-----------------------4---6---|-7-------------------------------|-----7---------------------------|
E|---------------------------------|---------------------------------|-5-------------------------------|


E|-------------5-------4-----------|---------------------------------|---------------------------------|
B|-----------------4-------4-------|-------------5---4---------------|-------------4-------5-------7---|
G|---------4-------------------4---|---------6-----------4-----------|---------4-------4-------4-------|
D|-----6---------------------------|-----6---------------------------|-----6---------------------------|
A|-6-------------------------------|-4-----------------------4---6---|-7-------------------------------|
E|-4-------------------------------|---------------------------------|---------------------------------|


E|-------------7-------5-----------|-------------5-------4-----------|--------|--------|
B|---------5---------------7-------|-----------------4-------4-------|--------|--------|
G|-----------------6-----------6---|---------4-------------------4---|--------|--------|
D|---------------------------------|-----6---------------------------|--------|--------|
A|-----7---------------------------|-6-------------------------------|--------|--------|
E|-5-------------------------------|-4-------------------------------|--------|--------|


E|--------|--------|--------|--------|--------|--------|--------|--------|--------|
B|--------|--------|--------|--------|--------|--------|--------|--------|--------|
G|--------|--------|--------|--------|--------|--------|--------|--------|--------|
D|--------|--------|--------|--------|--------|--------|--------|--------|--------|
A|--------|--------|--------|--------|--------|--------|--------|--------|--------|
E|--------|--------|--------|--------|--------|--------|--------|--------|--------|


E|--------|--------|--------|--------|--------|--------|--------|--------|--------|
B|--------|--------|--------|--------|--------|--------|--------|--------|--------|
G|--------|--------|--------|--------|--------|--------|--------|--------|--------|
D|--------|--------|--------|--------|--------|--------|--------|--------|--------|
A|--------|--------|--------|--------|--------|--------|--------|--------|--------|
E|--------|--------|--------|--------|--------|--------|--------|--------|--------|


E|--------|--------|--------|--------|--------|--------|--------|--------|--------|
B|--------|--------|--------|--------|--------|--------|--------|--------|--------|
G|--------|--------|--------|--------|--------|--------|--------|--------|--------|
D|--------|--------|--------|--------|--------|--------|--------|--------|--------|
A|--------|--------|--------|--------|--------|--------|--------|--------|--------|
E|--------|--------|--------|--------|--------|--------|--------|--------|--------|


E|--------|--------|--------|--------|--------|--------|--------|--------|--------|
B|--------|--------|--------|--------|--------|--------|--------|--------|--------|
G|--------|--------|--------|--------|--------|--------|--------|--------|--------|
D|--------|--------|--------|--------|--------|--------|--------|--------|--------|
A|--------|--------|--------|--------|--------|--------|--------|--------|--------|
E|--------|--------|--------|--------|--------|--------|--------|--------|--------|


E|--------|--------|--------|--------|--------|--------|--------|--------|--------|
B|--------|--------|--------|--------|--------|--------|--------|--------|--------|
G|--------|--------|--------|--------|--------|--------|--------|--------|--------|
D|--------|--------|--------|--------|--------|--------|--------|--------|--------|
A|--------|--------|--------|--------|--------|--------|--------|--------|--------|
E|--------|--------|--------|--------|--------|--------|--------|--------|--------|


E|--------|--------|--------|--------|--------|--------|--------|--------|--------|
B|--------|--------|--------|--------|--------|--------|--------|--------|--------|
G|--------|--------|--------|--------|--------|--------|--------|--------|--------|
D|--------|--------|--------|--------|--------|--------|--------|--------|--------|
A|--------|--------|--------|--------|--------|--------|--------|--------|--------|
E|--------|--------|--------|--------|--------|--------|--------|--------|--------|


E|--------|--------|--------|--------|--------|--------|--------|--------|--------|
B|--------|--------|--------|--------|--------|--------|--------|--------|--------|
G|--------|--------|--------|--------|--------|--------|--------|--------|--------|
D|--------|--------|--------|--------|--------|--------|--------|--------|--------|
A|--------|--------|--------|--------|--------|--------|--------|--------|--------|
E|--------|--------|--------|--------|--------|--------|--------|--------|--------|


E|--------|--------|--------|--------|--------|--------|--------|--------|--------|
B|--------|--------|--------|--------|--------|--------|--------|--------|--------|
G|--------|--------|--------|--------|--------|--------|--------|--------|--------|
D|--------|--------|--------|--------|--------|--------|--------|--------|--------|
A|--------|--------|--------|--------|--------|--------|--------|--------|--------|
E|--------|--------|--------|--------|--------|--------|--------|--------|--------|


E|--------|--------|--------|--------|--------|--------|--------|--------|--------|
B|--------|--------|--------|--------|--------|--------|--------|--------|--------|
G|--------|--------|--------|--------|--------|--------|--------|--------|--------|
D|--------|--------|--------|--------|--------|--------|--------|--------|--------|
A|--------|--------|--------|--------|--------|--------|--------|--------|--------|
E|--------|--------|--------|--------|--------|--------|--------|--------|--------|


E|--------|--------|--------|--------|--------|--------|--------|--------|--------|
B|--------|--------|--------|--------|--------|--------|--------|--------|--------|
G|--------|--------|--------|--------|--------|--------|--------|--------|--------|
D|--------|--------|--------|--------|--------|--------|--------|--------|--------|
A|--------|--------|--------|--------|--------|--------|--------|--------|--------|
E|--------|--------|--------|--------|--------|--------|--------|--------|--------|


E|--------|--------|--------|--------|---------------------------------|---------------------------------|
B|--------|--------|--------|--------|-------------5---4---------------|-------------4-------5-------7---|
G|--------|--------|--------|--------|---------6-----------4-----------|---------4-------4-------4-------|
D|--------|--------|--------|--------|-----6---------------------------|-----6---------------------------|
A|--------|--------|--------|--------|-4-----------------------4---6---|-7-------------------------------|
E|--------|--------|--------|--------|---------------------------------|---------------------------------|


E|-------------7-------5-----------|-------------5-------4-----------|---------------------------------|
B|---------5---------------7-------|-----------------4-------4-------|-------------5---4---------------|
G|-----------------6-----------6---|---------4-------------------4---|---------6-----------4-----------|
D|---------------------------------|-----6---------------------------|-----6---------------------------|
A|-----7---------------------------|-6-------------------------------|-4-----------------------4---6---|
E|-5-------------------------------|-4-------------------------------|---------------------------------|


E|---------------------------------|-------------7-------5-----------|-------------5-------4-----------|
B|-------------4-------5-------7---|---------5---------------7-------|-----------------4-------4-------|
G|---------4-------4-------4-------|-----------------6-----------6---|---------4-------------------4---|
D|-----6---------------------------|---------------------------------|-----6---------------------------|
A|-7-------------------------------|-----7---------------------------|-6-------------------------------|
E|---------------------------------|-5-------------------------------|-4-------------------------------|


E|---------------------------------|---------------------------------|-------------7-------5-----------|
B|-------------5---4---------------|-------------4-------5-------7---|---------5---------------7-------|
G|---------6-----------4-----------|---------4-------4-------4-------|-----------------6-----------6---|
D|-----6---------------------------|-----6---------------------------|---------------------------------|
A|-4-----------------------4---6---|-7-------------------------------|-----7---------------------------|
E|---------------------------------|---------------------------------|-5-------------------------------|


E|-------------5-------4-----------|---------------------------------|---------------------------------|
B|-----------------4-------4-------|-------------5---4---------------|-------------4-------5-------7---|
G|---------4-------------------4---|---------6-----------4-----------|---------4-------4-------4-------|
D|-----6---------------------------|-----6---------------------------|-----6---------------------------|
A|-6-------------------------------|-4-----------------------4---6---|-7-------------------------------|
E|-4-------------------------------|---------------------------------|---------------------------------|


E|-------------7-------5-----------|-------------5-------4-----------|
B|---------5---------------7-------|-----------------4-------4-------|
G|-----------------6-----------6---|---------4-------------------4---|
D|---------------------------------|-----6---------------------------|
A|-----7---------------------------|-6-------------------------------|
E|-5-------------------------------|-4-------------------------------|





Track 2: 12-string

E|---------------------------------|---------------------------------|-------------19------17----------|
B|-------------17--16--------------|-------------16------17------19--|---------17--------------19------|
G|---------18----------16----------|---------16------16------16------|-----------------18----------18--|
D|-----18--------------------------|-----18--------------------------|---------------------------------|
A|-16----------------------16--18--|-19------------------------------|-----19--------------------------|
E|---------------------------------|---------------------------------|-17------------------------------|


E|-------------17------16----------|---------------------------------|---------------------------------|
B|-----------------16------16------|-------------17--16--------------|-------------16------17------19--|
G|---------16------------------16--|---------18----------16----------|---------16------16------16------|
D|-----18--------------------------|-----18--------------------------|-----18--------------------------|
A|-18------------------------------|-16----------------------16--18--|-19------------------------------|
E|-16------------------------------|---------------------------------|---------------------------------|


E|-------------19------17----------|-------------17------16----------|---------------------------------|
B|---------17--------------19------|-----------------16------16------|-------------17--16--------------|
G|-----------------18----------18--|---------16------------------16--|---------18----------16----------|
D|---------------------------------|-----18--------------------------|-----18--------------------------|
A|-----19--------------------------|-18------------------------------|-16----------------------16--18--|
E|-17------------------------------|-16------------------------------|---------------------------------|


E|---------------------------------|-------------19------17----------|-------------17------16----------|
B|-------------16------17------19--|---------17--------------19------|-----------------16------16------|
G|---------16------16------16------|-----------------18----------18--|---------16------------------16--|
D|-----18--------------------------|---------------------------------|-----18--------------------------|
A|-19------------------------------|-----19--------------------------|-18------------------------------|
E|---------------------------------|-17------------------------------|-16------------------------------|


E|---------------------------------|---------------------------------|-------------19------17----------|
B|-------------17--16--------------|-------------16------17------19--|---------17--------------19------|
G|---------18----------16----------|---------16------16------16------|-----------------18----------18--|
D|-----18--------------------------|-----18--------------------------|---------------------------------|
A|-16----------------------16--18--|-19------------------------------|-----19--------------------------|
E|---------------------------------|---------------------------------|-17------------------------------|


E|-------------17------16----------|---------------------------------|---------------------------------|
B|-----------------16------16------|-------------17--16--------------|-------------16------17------19--|
G|---------16------------------16--|---------18----------16----------|---------16------16------16------|
D|-----18--------------------------|-----18--------------------------|-----18--------------------------|
A|-18------------------------------|-16----------------------16--18--|-19------------------------------|
E|-16------------------------------|---------------------------------|---------------------------------|


E|-------------19------17----------|-------------17------16----------|---------------------------------|
B|---------17--------------19------|-----------------16------16------|-------------17--16--------------|
G|-----------------18----------18--|---------16------------------16--|---------18----------16----------|
D|---------------------------------|-----18--------------------------|-----18--------------------------|
A|-----19--------------------------|-18------------------------------|-16----------------------16--18--|
E|-17------------------------------|-16------------------------------|---------------------------------|


E|---------------------------------|-------------19------17----------|-------------17------16----------|
B|-------------16------17------19--|---------17--------------19------|-----------------16------16------|
G|---------16------16------16------|-----------------18----------18--|---------16------------------16--|
D|-----18--------------------------|---------------------------------|-----18--------------------------|
A|-19------------------------------|-----19--------------------------|-18------------------------------|
E|---------------------------------|-17------------------------------|-16------------------------------|


E|---------------------------------|---------------------------------|-------------19------17----------|
B|-------------17--16--------------|-------------16------17------19--|---------17--------------19------|
G|---------18----------16----------|---------16------16------16------|-----------------18----------18--|
D|-----18--------------------------|-----18--------------------------|---------------------------------|
A|-16----------------------16--18--|-19------------------------------|-----19--------------------------|
E|---------------------------------|---------------------------------|-17------------------------------|


E|-------------17------16----------|---------------------------------|---------------------------------|
B|-----------------16------16------|-------------17--16--------------|-------------16------17------19--|
G|---------16------------------16--|---------18----------16----------|---------16------16------16------|
D|-----18--------------------------|-----18--------------------------|-----18--------------------------|
A|-18------------------------------|-16----------------------16--18--|-19------------------------------|
E|-16------------------------------|---------------------------------|---------------------------------|


E|-------------19------17----------|-------------17------16----------|--------|--------|
B|---------17--------------19------|-----------------16------16------|--------|--------|
G|-----------------18----------18--|---------16------------------16--|--------|--------|
D|---------------------------------|-----18--------------------------|--------|--------|
A|-----19--------------------------|-18------------------------------|--------|--------|
E|-17------------------------------|-16------------------------------|--------|--------|


E|--------|--------|--------|--------|--------|--------|---------------------------------|
B|--------|--------|--------|--------|--------|--------|-------------17--16--------------|
G|--------|--------|--------|--------|--------|--------|---------18----------16----------|
D|--------|--------|--------|--------|--------|--------|-----18--------------------------|
A|--------|--------|--------|--------|--------|--------|-16----------------------16--18--|
E|--------|--------|--------|--------|--------|--------|---------------------------------|


E|---------------------------------|-------------19------17----------|-------------17------16----------|
B|-------------16------17------19--|---------17--------------19------|-----------------16------16------|
G|---------16------16------16------|-----------------18----------18--|---------16------------------16--|
D|-----18--------------------------|---------------------------------|-----18--------------------------|
A|-19------------------------------|-----19--------------------------|-18------------------------------|
E|---------------------------------|-17------------------------------|-16------------------------------|


E|---------------------------------|---------------------------------|-------------19------17----------|
B|-------------17--16--------------|-------------16------17------19--|---------17--------------19------|
G|---------18----------16----------|---------16------16------16------|-----------------18----------18--|
D|-----18--------------------------|-----18--------------------------|---------------------------------|
A|-16----------------------16--18--|-19------------------------------|-----19--------------------------|
E|---------------------------------|---------------------------------|-17------------------------------|


E|-------------17------16----------|---------------------------------|---------------------------------|
B|-----------------16------16------|-------------17--16--------------|-------------16------17------19--|
G|---------16------------------16--|---------18----------16----------|---------16------16------16------|
D|-----18--------------------------|-----18--------------------------|-----18--------------------------|
A|-18------------------------------|-16----------------------16--18--|-19------------------------------|
E|-16------------------------------|---------------------------------|---------------------------------|


E|-------------19------17----------|-------------17------16----------|---------------------------------|
B|---------17--------------19------|-----------------16------16------|-------------17--16--------------|
G|-----------------18----------18--|---------16------------------16--|---------18----------16----------|
D|---------------------------------|-----18--------------------------|-----18--------------------------|
A|-----19--------------------------|-18------------------------------|-16----------------------16--18--|
E|-17------------------------------|-16------------------------------|---------------------------------|


E|---------------------------------|-------------19------17----------|-------------17------16----------|
B|-------------16------17------19--|---------17--------------19------|-----------------16------16------|
G|---------16------16------16------|-----------------18----------18--|---------16------------------16--|
D|-----18--------------------------|---------------------------------|-----18--------------------------|
A|-19------------------------------|-----19--------------------------|-18------------------------------|
E|---------------------------------|-17------------------------------|-16------------------------------|


E|---------------------------------|---------------------------------|-------------19------17----------|
B|-------------17--16--------------|-------------16------17------19--|---------17--------------19------|
G|---------18----------16----------|---------16------16------16------|-----------------18----------18--|
D|-----18--------------------------|-----18--------------------------|---------------------------------|
A|-16----------------------16--18--|-19------------------------------|-----19--------------------------|
E|---------------------------------|---------------------------------|-17------------------------------|


E|-------------17------16----------|---------------------------------|---------------------------------|
B|-----------------16------16------|-------------17--16--------------|-------------16------17------19--|
G|---------16------------------16--|---------18----------16----------|---------16------16------16------|
D|-----18--------------------------|-----18--------------------------|-----18--------------------------|
A|-18------------------------------|-16----------------------16--18--|-19------------------------------|
E|-16------------------------------|---------------------------------|---------------------------------|


E|-------------19------17----------|-------------17------16----------|--------|--------|
B|---------17--------------19------|-----------------16------16------|--------|--------|
G|-----------------18----------18--|---------16------------------16--|--------|--------|
D|---------------------------------|-----18--------------------------|--------|--------|
A|-----19--------------------------|-18------------------------------|--------|--------|
E|-17------------------------------|-16------------------------------|--------|--------|


E|--------|--------|--------|--------|--------|--------|--------|--------|--------|
B|--------|--------|--------|--------|--------|--------|--------|--------|--------|
G|--------|--------|--------|--------|--------|--------|--------|--------|--------|
D|--------|--------|--------|--------|--------|--------|--------|--------|--------|
A|--------|--------|--------|--------|--------|--------|--------|--------|--------|
E|--------|--------|--------|--------|--------|--------|--------|--------|--------|


E|--------|--------|--------|--------|--------|--------|--------|--------|--------|
B|--------|--------|--------|--------|--------|--------|--------|--------|--------|
G|--------|--------|--------|--------|--------|--------|--------|--------|--------|
D|--------|--------|--------|--------|--------|--------|--------|--------|--------|
A|--------|--------|--------|--------|--------|--------|--------|--------|--------|
E|--------|--------|--------|--------|--------|--------|--------|--------|--------|


E|--------|--------|--------|--------|--------|--------|--------|--------|--------|
B|--------|--------|--------|--------|--------|--------|--------|--------|--------|
G|--------|--------|--------|--------|--------|--------|--------|--------|--------|
D|--------|--------|--------|--------|--------|--------|--------|--------|--------|
A|--------|--------|--------|--------|--------|--------|--------|--------|--------|
E|--------|--------|--------|--------|--------|--------|--------|--------|--------|


E|--------|--------|--------|--------|--------|--------|--------|--------|--------|
B|--------|--------|--------|--------|--------|--------|--------|--------|--------|
G|--------|--------|--------|--------|--------|--------|--------|--------|--------|
D|--------|--------|--------|--------|--------|--------|--------|--------|--------|
A|--------|--------|--------|--------|--------|--------|--------|--------|--------|
E|--------|--------|--------|--------|--------|--------|--------|--------|--------|


E|--------|--------|--------|--------|--------|--------|--------|--------|--------|
B|--------|--------|--------|--------|--------|--------|--------|--------|--------|
G|--------|--------|--------|--------|--------|--------|--------|--------|--------|
D|--------|--------|--------|--------|--------|--------|--------|--------|--------|
A|--------|--------|--------|--------|--------|--------|--------|--------|--------|
E|--------|--------|--------|--------|--------|--------|--------|--------|--------|


E|--------|--------|--------|--------|--------|--------|--------|--------|--------|
B|--------|--------|--------|--------|--------|--------|--------|--------|--------|
G|--------|--------|--------|--------|--------|--------|--------|--------|--------|
D|--------|--------|--------|--------|--------|--------|--------|--------|--------|
A|--------|--------|--------|--------|--------|--------|--------|--------|--------|
E|--------|--------|--------|--------|--------|--------|--------|--------|--------|


E|--------|--------|--------|--------|--------|--------|--------|--------|--------|
B|--------|--------|--------|--------|--------|--------|--------|--------|--------|
G|--------|--------|--------|--------|--------|--------|--------|--------|--------|
D|--------|--------|--------|--------|--------|--------|--------|--------|--------|
A|--------|--------|--------|--------|--------|--------|--------|--------|--------|
E|--------|--------|--------|--------|--------|--------|--------|--------|--------|


E|--------|--------|--------|--------|--------|--------|--------|--------|--------|
B|--------|--------|--------|--------|--------|--------|--------|--------|--------|
G|--------|--------|--------|--------|--------|--------|--------|--------|--------|
D|--------|--------|--------|--------|--------|--------|--------|--------|--------|
A|--------|--------|--------|--------|--------|--------|--------|--------|--------|
E|--------|--------|--------|--------|--------|--------|--------|--------|--------|


E|--------|--------|--------|--------|--------|--------|--------|--------|--------|
B|--------|--------|--------|--------|--------|--------|--------|--------|--------|
G|--------|--------|--------|--------|--------|--------|--------|--------|--------|
D|--------|--------|--------|--------|--------|--------|--------|--------|--------|
A|--------|--------|--------|--------|--------|--------|--------|--------|--------|
E|--------|--------|--------|--------|--------|--------|--------|--------|--------|


E|--------|--------|--------|--------|--------|--------|--------|--------|--------|
B|--------|--------|--------|--------|--------|--------|--------|--------|--------|
G|--------|--------|--------|--------|--------|--------|--------|--------|--------|
D|--------|--------|--------|--------|--------|--------|--------|--------|--------|
A|--------|--------|--------|--------|--------|--------|--------|--------|--------|
E|--------|--------|--------|--------|--------|--------|--------|--------|--------|


E|--------|--------|--------|--------|---------------------------------|---------------------------------|
B|--------|--------|--------|--------|-------------17--16--------------|-------------16------17------19--|
G|--------|--------|--------|--------|---------18----------16----------|---------16------16------16------|
D|--------|--------|--------|--------|-----18--------------------------|-----18--------------------------|
A|--------|--------|--------|--------|-16----------------------16--18--|-19------------------------------|
E|--------|--------|--------|--------|---------------------------------|---------------------------------|


E|-------------19------17----------|-------------17------16----------|---------------------------------|
B|---------17--------------19------|-----------------16------16------|-------------17--16--------------|
G|-----------------18----------18--|---------16------------------16--|---------18----------16----------|
D|---------------------------------|-----18--------------------------|-----18--------------------------|
A|-----19--------------------------|-18------------------------------|-16----------------------16--18--|
E|-17------------------------------|-16------------------------------|---------------------------------|


E|---------------------------------|-------------19------17----------|-------------17------16----------|
B|-------------16------17------19--|---------17--------------19------|-----------------16------16------|
G|---------16------16------16------|-----------------18----------18--|---------16------------------16--|
D|-----18--------------------------|---------------------------------|-----18--------------------------|
A|-19------------------------------|-----19--------------------------|-18------------------------------|
E|---------------------------------|-17------------------------------|-16------------------------------|


E|---------------------------------|---------------------------------|-------------19------17----------|
B|-------------17--16--------------|-------------16------17------19--|---------17--------------19------|
G|---------18----------16----------|---------16------16------16------|-----------------18----------18--|
D|-----18--------------------------|-----18--------------------------|---------------------------------|
A|-16----------------------16--18--|-19------------------------------|-----19--------------------------|
E|---------------------------------|---------------------------------|-17------------------------------|


E|-------------17------16----------|---------------------------------|---------------------------------|
B|-----------------16------16------|-------------17--16--------------|-------------16------17------19--|
G|---------16------------------16--|---------18----------16----------|---------16------16------16------|
D|-----18--------------------------|-----18--------------------------|-----18--------------------------|
A|-18------------------------------|-16----------------------16--18--|-19------------------------------|
E|-16------------------------------|---------------------------------|---------------------------------|


E|-------------19------17----------|-------------17------16----------|
B|---------17--------------19------|-----------------16------16------|
G|-----------------18----------18--|---------16------------------16--|
D|---------------------------------|-----18--------------------------|
A|-----19--------------------------|-18------------------------------|
E|-17------------------------------|-16------------------------------|





Track 3: violin

E|--------|--------|--------|--------|--------|--------|--------|--------|-------4---7----9----|
B|--------|--------|--------|--------|--------|--------|--------|--------|---------------------|
G|--------|--------|--------|--------|--------|--------|--------|--------|---------------------|
D|--------|--------|--------|--------|--------|--------|--------|--------|---------------------|
A|--------|--------|--------|--------|--------|--------|--------|--------|---------------------|
E|--------|--------|--------|--------|--------|--------|--------|--------|---------------------|


E|-7-----5---4-----|------5-----4--------|------5---4---4---------|------------------|
B|-----------------|----------------5----|-4-----------------0----|-2----5-----4-----|
G|-----------------|---------------------|------------------------|------------------|
D|-----------------|---------------------|------------------------|------------------|
A|-----------------|---------------------|------------------------|------------------|
E|-----------------|---------------------|------------------------|------------------|


E|----------------5---7---|-9----12--11----12-14-|-16-----|--------|--------|--------|
B|-5----------------------|----------------------|--------|--------|--------|--------|
G|------4---4-------------|----------------------|--------|--------|--------|--------|
D|------------------------|----------------------|--------|--------|--------|--------|
A|------------------------|----------------------|--------|--------|--------|--------|
E|------------------------|----------------------|--------|--------|--------|--------|


E|--------|--------|--------|--------|--------|--------|--------|--------|--------|
B|--------|--------|--------|--------|--------|--------|--------|--------|--------|
G|--------|--------|--------|--------|--------|--------|--------|--------|--------|
D|--------|--------|--------|--------|--------|--------|--------|--------|--------|
A|--------|--------|--------|--------|--------|--------|--------|--------|--------|
E|--------|--------|--------|--------|--------|--------|--------|--------|--------|


E|--------|--------|--------|--------|--------|--------|--------|--------|--------|
B|--------|--------|--------|--------|--------|--------|--------|--------|--------|
G|--------|--------|--------|--------|--------|--------|--------|--------|--------|
D|--------|--------|--------|--------|--------|--------|--------|--------|--------|
A|--------|--------|--------|--------|--------|--------|--------|--------|--------|
E|--------|--------|--------|--------|--------|--------|--------|--------|--------|


E|--------|--------|--------|--------|--------|--------|--------|--------|--------|
B|--------|--------|--------|--------|--------|--------|--------|--------|--------|
G|--------|--------|--------|--------|--------|--------|--------|--------|--------|
D|--------|--------|--------|--------|--------|--------|--------|--------|--------|
A|--------|--------|--------|--------|--------|--------|--------|--------|--------|
E|--------|--------|--------|--------|--------|--------|--------|--------|--------|


E|--------|--------|--------|--------|--------|--------|--------|--------|--------|
B|--------|--------|--------|--------|--------|--------|--------|--------|--------|
G|--------|--------|--------|--------|--------|--------|--------|--------|--------|
D|--------|--------|--------|--------|--------|--------|--------|--------|--------|
A|--------|--------|--------|--------|--------|--------|--------|--------|--------|
E|--------|--------|--------|--------|--------|--------|--------|--------|--------|


E|--------|--------|--------|--------|--------|--------|--------|--------|--------|
B|--------|--------|--------|--------|--------|--------|--------|--------|--------|
G|--------|--------|--------|--------|--------|--------|--------|--------|--------|
D|--------|--------|--------|--------|--------|--------|--------|--------|--------|
A|--------|--------|--------|--------|--------|--------|--------|--------|--------|
E|--------|--------|--------|--------|--------|--------|--------|--------|--------|


E|--------|--------|--------|--------|--------|--------|--------|--------|--------|
B|--------|--------|--------|--------|--------|--------|--------|--------|--------|
G|--------|--------|--------|--------|--------|--------|--------|--------|--------|
D|--------|--------|--------|--------|--------|--------|--------|--------|--------|
A|--------|--------|--------|--------|--------|--------|--------|--------|--------|
E|--------|--------|--------|--------|--------|--------|--------|--------|--------|


E|--------|--------|--------|--------|--------|--------|--------|--------|--------|
B|--------|--------|--------|--------|--------|--------|--------|--------|--------|
G|--------|--------|--------|--------|--------|--------|--------|--------|--------|
D|--------|--------|--------|--------|--------|--------|--------|--------|--------|
A|--------|--------|--------|--------|--------|--------|--------|--------|--------|
E|--------|--------|--------|--------|--------|--------|--------|--------|--------|


E|--------|--------|--------|--------|--------|--------|--------|--------|--------|
B|--------|--------|--------|--------|--------|--------|--------|--------|--------|
G|--------|--------|--------|--------|--------|--------|--------|--------|--------|
D|--------|--------|--------|--------|--------|--------|--------|--------|--------|
A|--------|--------|--------|--------|--------|--------|--------|--------|--------|
E|--------|--------|--------|--------|--------|--------|--------|--------|--------|


E|--------|--------|--------|--------|--------|--------|--------|--------|--------|
B|--------|--------|--------|--------|--------|--------|--------|--------|--------|
G|--------|--------|--------|--------|--------|--------|--------|--------|--------|
D|--------|--------|--------|--------|--------|--------|--------|--------|--------|
A|--------|--------|--------|--------|--------|--------|--------|--------|--------|
E|--------|--------|--------|--------|--------|--------|--------|--------|--------|


E|--------|--------|--------|--------|--------|--------|--------|--------|--------|
B|--------|--------|--------|--------|--------|--------|--------|--------|--------|
G|--------|--------|--------|--------|--------|--------|--------|--------|--------|
D|--------|--------|--------|--------|--------|--------|--------|--------|--------|
A|--------|--------|--------|--------|--------|--------|--------|--------|--------|
E|--------|--------|--------|--------|--------|--------|--------|--------|--------|


E|--------|--------|--------|--------|--------|--------|--------|--------|--------|
B|--------|--------|--------|--------|--------|--------|--------|--------|--------|
G|--------|--------|--------|--------|--------|--------|--------|--------|--------|
D|--------|--------|--------|--------|--------|--------|--------|--------|--------|
A|--------|--------|--------|--------|--------|--------|--------|--------|--------|
E|--------|--------|--------|--------|--------|--------|--------|--------|--------|


E|--------|--------|--------|--------|--------|--------|--------|--------|--------|
B|--------|--------|--------|--------|--------|--------|--------|--------|--------|
G|--------|--------|--------|--------|--------|--------|--------|--------|--------|
D|--------|--------|--------|--------|--------|--------|--------|--------|--------|
A|--------|--------|--------|--------|--------|--------|--------|--------|--------|
E|--------|--------|--------|--------|--------|--------|--------|--------|--------|


E|--------|--------|--------|--------|--------|--------|--------|--------|--------|
B|--------|--------|--------|--------|--------|--------|--------|--------|--------|
G|--------|--------|--------|--------|--------|--------|--------|--------|--------|
D|--------|--------|--------|--------|--------|--------|--------|--------|--------|
A|--------|--------|--------|--------|--------|--------|--------|--------|--------|
E|--------|--------|--------|--------|--------|--------|--------|--------|--------|


E|--------|--------|--------|--------|--------|--------|--------|--------|--------|
B|--------|--------|--------|--------|--------|--------|--------|--------|--------|
G|--------|--------|--------|--------|--------|--------|--------|--------|--------|
D|--------|--------|--------|--------|--------|--------|--------|--------|--------|
A|--------|--------|--------|--------|--------|--------|--------|--------|--------|
E|--------|--------|--------|--------|--------|--------|--------|--------|--------|


E|--------|--------|--------|--------|--------|--------|--------|--------|--------|
B|--------|--------|--------|--------|--------|--------|--------|--------|--------|
G|--------|--------|--------|--------|--------|--------|--------|--------|--------|
D|--------|--------|--------|--------|--------|--------|--------|--------|--------|
A|--------|--------|--------|--------|--------|--------|--------|--------|--------|
E|--------|--------|--------|--------|--------|--------|--------|--------|--------|


E|--------|--------|--------|--------|--------|--------|--------|--------|--------|
B|--------|--------|--------|--------|--------|--------|--------|--------|--------|
G|--------|--------|--------|--------|--------|--------|--------|--------|--------|
D|--------|--------|--------|--------|--------|--------|--------|--------|--------|
A|--------|--------|--------|--------|--------|--------|--------|--------|--------|
E|--------|--------|--------|--------|--------|--------|--------|--------|--------|


E|--------|--------|--------|--------|--------|--------|--------|--------|--------|
B|--------|--------|--------|--------|--------|--------|--------|--------|--------|
G|--------|--------|--------|--------|--------|--------|--------|--------|--------|
D|--------|--------|--------|--------|--------|--------|--------|--------|--------|
A|--------|--------|--------|--------|--------|--------|--------|--------|--------|
E|--------|--------|--------|--------|--------|--------|--------|--------|--------|


E|--------|--------|--------|--------|
B|--------|--------|--------|--------|
G|--------|--------|--------|--------|
D|--------|--------|--------|--------|
A|--------|--------|--------|--------|
E|--------|--------|--------|--------|





Track 4: Lead w/dist.

E|--------|--------|--------|--------|--------|--------|--------|--------|--------|
B|--------|--------|--------|--------|--------|--------|--------|--------|--------|
G|--------|--------|--------|--------|--------|--------|--------|--------|--------|
D|--------|--------|--------|--------|--------|--------|--------|--------|--------|
A|--------|--------|--------|--------|--------|--------|--------|--------|--------|
E|--------|--------|--------|--------|--------|--------|--------|--------|--------|


E|--------|--------|--------|--------|--------|--------|--------|--------|--------|
B|--------|--------|--------|--------|--------|--------|--------|--------|--------|
G|--------|--------|--------|--------|--------|--------|--------|--------|--------|
D|--------|--------|--------|--------|--------|--------|--------|--------|--------|
A|--------|--------|--------|--------|--------|--------|--------|--------|--------|
E|--------|--------|--------|--------|--------|--------|--------|--------|--------|


E|--------|--------|--------|--------|--------|--------|--------|--------|--------|
B|--------|--------|--------|--------|--------|--------|--------|--------|--------|
G|--------|--------|--------|--------|--------|--------|--------|--------|--------|
D|--------|--------|--------|--------|--------|--------|--------|--------|--------|
A|--------|--------|--------|--------|--------|--------|--------|--------|--------|
E|--------|--------|--------|--------|--------|--------|--------|--------|--------|


E|--------|--------|--------|--------|--------|------------------|--------------------------|
B|--------|--------|--------|--------|--------|------------------|-4------------------------|
G|--------|--------|--------|--------|--------|-6-----6-----2----|-4------------------------|
D|--------|--------|--------|--------|--------|-6-----4-----2----|-4------------------------|
A|--------|--------|--------|--------|--------|-4-----4-----0----|-2-----7---7----6---------|
E|--------|--------|--------|--------|--------|-4----------------|-------5---4----4---4--4--|


E|------------------|-0---------------|------------------|--------------------------|
B|------------------|-5---------------|------------------|-4------------------------|
G|-6-----6-----2----|-4----------4----|-6-----6-----2----|-4------------------------|
D|-6-----4-----2----|-2-----4----6----|-6-----4-----2----|-4------------------------|
A|-4-----4-----0----|-2-----4----6----|-4-----4-----0----|-2-----7---7----6---------|
E|-4----------------|-------2----4----|-4----------------|-------5---4----4---4--4--|


E|------------------|-------------|--------|--------|--------|--------|--------|--------|
B|------------------|-2-----1-----|--------|--------|--------|--------|--------|--------|
G|-6-----6-----2----|-1-----1-----|--------|--------|--------|--------|--------|--------|
D|-6-----4-----2----|-1-----1-----|--------|--------|--------|--------|--------|--------|
A|-4-----4-----0----|-------------|--------|--------|--------|--------|--------|--------|
E|-4----------------|-------------|--------|--------|--------|--------|--------|--------|


E|--------|--------|--------|--------|--------|--------|--------|--------|--------|
B|--------|--------|--------|--------|--------|--------|--------|--------|--------|
G|--------|--------|--------|--------|--------|--------|--------|--------|--------|
D|--------|--------|--------|--------|--------|--------|--------|--------|--------|
A|--------|--------|--------|--------|--------|--------|--------|--------|--------|
E|--------|--------|--------|--------|--------|--------|--------|--------|--------|


E|--------|--------|--------|--------|--------|--------|--------|--------|--------|
B|--------|--------|--------|--------|--------|--------|--------|--------|--------|
G|--------|--------|--------|--------|--------|--------|--------|--------|--------|
D|--------|--------|--------|--------|--------|--------|--------|--------|--------|
A|--------|--------|--------|--------|--------|--------|--------|--------|--------|
E|--------|--------|--------|--------|--------|--------|--------|--------|--------|


E|------------------|--------------------------|------------------|-0---------------|
B|------------------|-4------------------------|------------------|-5---------------|
G|-6-----6-----2----|-4------------------------|-6-----6-----2----|-4----------4----|
D|-6-----4-----2----|-4------------------------|-6-----4-----2----|-2-----4----6----|
A|-4-----4-----0----|-2-----7---7----6---------|-4-----4-----0----|-2-----4----6----|
E|-4----------------|-------5---4----4---4--4--|-4----------------|-------2----4----|


E|------------------|--------------------------|------------------|-------------|----------------------|
B|------------------|-4------------------------|------------------|-2-----1-----|----------------------|
G|-6-----6-----2----|-4------------------------|-6-----6-----2----|-1-----1-----|-2-----2--------------|
D|-6-----4-----2----|-4------------------------|-6-----4-----2----|-1-----1-----|-2-----2--------------|
A|-4-----4-----0----|-2-----7---7----6---------|-4-----4-----0----|-------------|-0-----0----2----4----|
E|-4----------------|-------5---4----4---4--4--|-4----------------|-------------|----------------------|


E|-----------------|----------------------|----------------------|----------------------|
B|-----------------|----------------------|----------------------|----------------------|
G|-----------------|-2-----2--------------|----------------------|-2-----2--------------|
D|-6---------------|-2-----2----4---------|----------------------|-2-----2--------------|
A|-4-----4----6----|-0-----0----2---------|-6-----4---------6----|-0-----0----2----4----|
E|-------2----4----|-----------------5----|-4-----2---2--2--4----|----------------------|


E|-----------------|----------------------|--------|---------------------------------|
B|-----------------|----------------------|--------|---------------------------------|
G|-----------------|-2-----2--------------|--------|---------------------------------|
D|-6---------------|-2-----2----4---------|--------|-6---6---------------------------|
A|-4-----4----6----|-0-----0----2---------|-6------|-4---4---4---4---7---4---4---6---|
E|-------2----4----|------------2----5----|-4------|---------------------------------|


E|---------------------------------|---------------------------------|---------------------------------|
B|---------------------------------|---------------------------------|---------------------------------|
G|---------------------------------|---------------------------------|---------------------------------|
D|---------------------------------|-7---7---------------------------|---------------------------------|
A|-4---4---9---4---7---4---6---4---|-4---4---4---4---7---4---4---6---|-4---4---9---4---7---4---6---4---|
E|---------------------------------|---------------------------------|---------------------------------|


E|---------------------------------|---------------------------------|---------------------------------|
B|---------------------------------|---------------------------------|---------------------------------|
G|---------------------------------|---------------------------------|---------------------------------|
D|-2---2---------------------------|---------------------------------|-4---4---------------------------|
A|-0---0---0---0---2---0---0---4---|-0---0---6---0---4---0---2---0---|-2---2---2---2---4---2---2---6---|
E|---------------------------------|---------------------------------|---------------------------------|


E|---------------------------------|---------------------------------|---------------------------------|
B|---------------------------------|---------------------------------|---------------------------------|
G|---------------------------------|---------------------------------|---------------------------------|
D|---------------------------------|-6---6---------------------------|---------------------------------|
A|-2---2---7---2---6---2---4---2---|-4---4---4---4---7---4---4---6---|-4---4---9---4---7---4---6---4---|
E|---------------------------------|---------------------------------|---------------------------------|


E|---------------------------------|---------------------------------|---------------------------------|
B|---------------------------------|---------------------------------|---------------------------------|
G|---------------------------------|---------------------------------|---------------------------------|
D|-7---7---------------------------|---------------------------------|-2---2---------------------------|
A|-4---4---4---4---7---4---4---6---|-4---4---9---4---7---4---6---4---|-0---0---0---0---2---0---0---4---|
E|---------------------------------|---------------------------------|---------------------------------|


E|---------------------------------|----------------|------------------------|---------------------------------|
B|---------------------------------|----------------|------------------------|---------------------------------|
G|---------------------------------|----------------|------------------------|---------------------------------|
D|---------------------------------|-4---4----------|------------------------|-6---6---------------------------|
A|-0---0---6---0---4---0---2---0---|-2---2----------|-7---7--------6---------|-4---4---4---4---7---4---4---6---|
E|---------------------------------|----------------|-5---5--------4---------|---------------------------------|


E|---------------------------------|---------------------------------|---------------------------------|
B|---------------------------------|---------------------------------|---------------------------------|
G|---------------------------------|---------------------------------|---------------------------------|
D|---------------------------------|-7---7---------------------------|---------------------------------|
A|-4---4---9---4---7---4---6---4---|-4---4---4---4---7---4---4---6---|-4---4---9---4---7---4---6---4---|
E|---------------------------------|---------------------------------|---------------------------------|


E|---------------------------------|---------------------------------|---------------------------------|
B|---------------------------------|---------------------------------|---------------------------------|
G|---------------------------------|---------------------------------|---------------------------------|
D|-2---2---------------------------|---------------------------------|-4---4---------------------------|
A|-0---0---0---0---2---0---0---4---|-0---0---6---0---4---0---2---0---|-2---2---2---2---4---2---2---6---|
E|---------------------------------|---------------------------------|---------------------------------|


E|---------------------------------|---------------------------------|---------------------------------|
B|---------------------------------|---------------------------------|---------------------------------|
G|---------------------------------|---------------------------------|---------------------------------|
D|---------------------------------|-6---6---------------------------|---------------------------------|
A|-2---2---7---2---6---2---4---2---|-4---4---4---4---7---4---4---6---|-4---4---9---4---7---4---6---4---|
E|---------------------------------|---------------------------------|---------------------------------|


E|---------------------------------|---------------------------------|---------------------------------|
B|---------------------------------|---------------------------------|---------------------------------|
G|---------------------------------|---------------------------------|---------------------------------|
D|-7---7---------------------------|---------------------------------|-2---2---------------------------|
A|-4---4---4---4---7---4---4---6---|-4---4---9---4---7---4---6---4---|-0---0---0---0---2---0---0---4---|
E|---------------------------------|---------------------------------|---------------------------------|


E|---------------------------------|---------------------------------|---------------------------------|
B|---------------------------------|---------------------------------|---------------------------------|
G|---------------------------------|---------------------------------|---------------------------------|
D|---------------------------------|-4---4---------------------------|---------------------------------|
A|-0---0---6---0---4---0---2---0---|-2---2---2---2---4---2---2---6---|-2---2---7---2---6---2---4---2---|
E|---------------------------------|---------------------------------|---------------------------------|


E|---------------------------------|---------------------------------|---------------------------------|
B|---------------------------------|---------------------------------|---------------------------------|
G|---------------------------------|---------------------------------|---------------------------------|
D|-6---6---------------------------|---------------------------------|-7---7---------------------------|
A|-4---4---4---4---7---4---4---6---|-4---4---9---4---7---4---6---4---|-4---4---4---4---7---4---4---6---|
E|---------------------------------|---------------------------------|---------------------------------|


E|---------------------------------|---------------------------------|---------------------------------|
B|---------------------------------|---------------------------------|---------------------------------|
G|---------------------------------|---------------------------------|---------------------------------|
D|---------------------------------|-2---2---------------------------|---------------------------------|
A|-4---4---9---4---7---4---6---4---|-0---0---0---0---2---0---0---4---|-0---0---6---0---4---0---2---0---|
E|---------------------------------|---------------------------------|---------------------------------|


E|---------------------------------|---------------------------------|---------------------------------|
B|---------------------------------|---------------------------------|---------------------------------|
G|---------------------------------|---------------------------------|---------------------------------|
D|-4---4---------------------------|---------------------------------|-6---6---------------------------|
A|-2---2---2---2---4---2---2---6---|-2---2---7---2---6---2---4---2---|-4---4---4---4---7---4---4---6---|
E|---------------------------------|---------------------------------|---------------------------------|


E|---------------------------------|---------------------------------|---------------------------------|
B|---------------------------------|---------------------------------|---------------------------------|
G|---------------------------------|---------------------------------|---------------------------------|
D|---------------------------------|-7---7---------------------------|---------------------------------|
A|-4---4---9---4---7---4---6---4---|-4---4---4---4---7---4---4---6---|-4---4---9---4---7---4---6---4---|
E|---------------------------------|---------------------------------|---------------------------------|


E|---------------------------------|---------------------------------|---------------------------------|
B|---------------------------------|---------------------------------|---------------------------------|
G|---------------------------------|---------------------------------|---------------------------------|
D|-2---2---------------------------|---------------------------------|-4---4---------------------------|
A|-0---0---0---0---2---0---0---4---|-0---0---6---0---4---0---2---0---|-2---2---2---2---4---2---2---6---|
E|---------------------------------|---------------------------------|---------------------------------|


E|---------------------------------|---------------------------------|---------------------------------|
B|---------------------------------|---------------------------------|---------------------------------|
G|---------------------------------|---------------------------------|---------------------------------|
D|---------------------------------|-6---6---------------------------|---------------------------------|
A|-2---2---7---2---6---2---4---2---|-4---4---4---4---7---4---4---6---|-4---4---9---4---7---4---6---4---|
E|---------------------------------|---------------------------------|---------------------------------|


E|---------------------------------|---------------------------------|---------------------------------|
B|---------------------------------|---------------------------------|---------------------------------|
G|---------------------------------|---------------------------------|---------------------------------|
D|-7---7---------------------------|---------------------------------|-2---2---------------------------|
A|-4---4---4---4---7---4---4---6---|-4---4---9---4---7---4---6---4---|-0---0---0---0---2---0---0---4---|
E|---------------------------------|---------------------------------|---------------------------------|


E|---------------------------------|---------------------------------|---------------------------------|
B|---------------------------------|---------------------------------|---------------------------------|
G|---------------------------------|---------------------------------|---------------------------------|
D|---------------------------------|-4---4---------------------------|---------------------------------|
A|-0---0---6---0---4---0---2---0---|-2---2---2---2---4---2---2---6---|-2---2---7---2---6---2---4---2---|
E|---------------------------------|---------------------------------|---------------------------------|


E|---------------------------------|---------------------------------|---------------------------------|
B|---------------------------------|---------------------------------|---------------------------------|
G|---------------------------------|---------------------------------|---------------------------------|
D|-6---6---------------------------|---------------------------------|-7---7---------------------------|
A|-4---4---4---4---7---4---4---6---|-4---4---9---4---7---4---6---4---|-4---4---4---4---7---4---4---6---|
E|---------------------------------|---------------------------------|---------------------------------|


E|---------------------------------|---------------------------------|---------------------------------|
B|---------------------------------|---------------------------------|---------------------------------|
G|---------------------------------|---------------------------------|---------------------------------|
D|---------------------------------|-2---2---------------------------|---------------------------------|
A|-4---4---9---4---7---4---6---4---|-0---0---0---0---2---0---0---4---|-0---0---6---0---4---0---2---0---|
E|---------------------------------|---------------------------------|---------------------------------|


E|----------------|------------------------|------------------|--------------------------|
B|----------------|------------------------|------------------|-4------------------------|
G|----------------|------------------------|-6-----6-----2----|-4------------------------|
D|-4---4----------|------------------------|-6-----4-----2----|-4------------------------|
A|-2---2----------|-7---7--------6---------|-4-----4-----0----|-2-----7---7----6---------|
E|----------------|-5---5--------4---------|-4----------------|-------5---4----4---4--4--|


E|------------------|-0---------------|------------------|--------------------------|
B|------------------|-5---------------|------------------|-4------------------------|
G|-6-----6-----2----|-4----------4----|-6-----6-----2----|-4------------------------|
D|-6-----4-----2----|-2-----4----6----|-6-----4-----2----|-4------------------------|
A|-4-----4-----0----|-2-----4----6----|-4-----4-----0----|-2-----7---7----6---------|
E|-4----------------|-------2----4----|-4----------------|-------5---4----4---4--4--|


E|------------------|-------------|------------------|--------------------------|------------------|
B|------------------|-2-----1-----|------------------|-4------------------------|------------------|
G|-6-----6-----2----|-1-----1-----|-6-----6-----2----|-4------------------------|-6-----6-----2----|
D|-6-----4-----2----|-1-----1-----|-6-----4-----2----|-4------------------------|-6-----4-----2----|
A|-4-----4-----0----|-------------|-4-----4-----0----|-2-----7---7----6---------|-4-----4-----0----|
E|-4----------------|-------------|-4----------------|-------5---4----4---4--4--|-4----------------|


E|-0---------------|------------------|--------------------------|------------------|
B|-5---------------|------------------|-4------------------------|------------------|
G|-4----------4----|-6-----6-----2----|-4------------------------|-6-----6-----2----|
D|-2-----4----6----|-6-----4-----2----|-4------------------------|-6-----4-----2----|
A|-2-----4----6----|-4-----4-----0----|-2-----7---7----6---------|-4-----4-----0----|
E|-------2----4----|-4----------------|-------5---4----4---4--4--|-4----------------|


E|-------------|--------|--------|--------|--------|--------|--------|--------|--------|
B|-2-----1-----|--------|--------|--------|--------|--------|--------|--------|--------|
G|-1-----1-----|-6------|-6------|--------|--------|--------|--------|--------|--------|
D|-1-----1-----|-6------|-6------|--------|--------|--------|--------|--------|--------|
A|-------------|-4------|-4------|--------|--------|--------|--------|--------|--------|
E|-------------|-4------|-4------|--------|--------|--------|--------|--------|--------|


E|--------|--------|--------|--------|--------|--------|--------|--------|
B|--------|--------|--------|--------|--------|--------|--------|--------|
G|--------|--------|--------|--------|--------|--------|--------|--------|
D|--------|--------|--------|--------|--------|--------|--------|--------|
A|--------|--------|--------|--------|--------|--------|--------|--------|
E|--------|--------|--------|--------|--------|--------|--------|--------|





Track 5: Solo

E|--------|--------|--------|--------|--------|--------|--------|--------|--------|
B|--------|--------|--------|--------|--------|--------|--------|--------|--------|
G|--------|--------|--------|--------|--------|--------|--------|--------|--------|
D|--------|--------|--------|--------|--------|--------|--------|--------|--------|
A|--------|--------|--------|--------|--------|--------|--------|--------|--------|
E|--------|--------|--------|--------|--------|--------|--------|--------|--------|


E|--------|--------|--------|--------|--------|--------|--------|--------|--------|
B|--------|--------|--------|--------|--------|--------|--------|--------|--------|
G|--------|--------|--------|--------|--------|--------|--------|--------|--------|
D|--------|--------|--------|--------|--------|--------|--------|--------|--------|
A|--------|--------|--------|--------|--------|--------|--------|--------|--------|
E|--------|--------|--------|--------|--------|--------|--------|--------|--------|


E|--------|--------|--------|--------|--------|--------|--------|--------|--------|
B|--------|--------|--------|--------|--------|--------|--------|--------|--------|
G|--------|--------|--------|--------|--------|--------|--------|--------|--------|
D|--------|--------|--------|--------|--------|--------|--------|--------|--------|
A|--------|--------|--------|--------|--------|--------|--------|--------|--------|
E|--------|--------|--------|--------|--------|--------|--------|--------|--------|


E|--------|--------|--------|--------|--------|--------|--------|--------|--------|
B|--------|--------|--------|--------|--------|--------|--------|--------|--------|
G|--------|--------|--------|--------|--------|--------|--------|--------|--------|
D|--------|--------|--------|--------|--------|--------|--------|--------|--------|
A|--------|--------|--------|--------|--------|--------|--------|--------|--------|
E|--------|--------|--------|--------|--------|--------|--------|--------|--------|


E|--------|--------|--------|--------|--------------------------|-------------------------|
B|--------|--------|--------|--------|--------------------------|-------------------------|
G|--------|--------|--------|--------|-------13-14-16---16--16--|-14---14-16-14-13--13----|
D|--------|--------|--------|--------|--------------------------|-------------------------|
A|--------|--------|--------|--------|--------------------------|-------------------------|
E|--------|--------|--------|--------|--------------------------|-------------------------|


E|---------------------|----------17---16---14--|--------------------14-16-17-19-17-|
B|---------------------|------------------------|-17--------14-16-17----------------|
G|------16----14---13--|-13---13----------------|-----------------------------------|
D|---------------------|------------------------|-----------------------------------|
A|---------------------|------------------------|-----------------------------------|
E|---------------------|------------------------|-----------------------------------|


E|-16---16-16-16----16-19-17-16-|-17-19-14-19-16-19-14-19-16-19-16-17-19--19---19--|
B|------------------------------|--------------------------------------------------|
G|------------------------------|--------------------------------------------------|
D|------------------------------|--------------------------------------------------|
A|------------------------------|--------------------------------------------------|
E|------------------------------|--------------------------------------------------|


E|-19---17--17---16---16--|--------|--------|--------|--------|--------|--------|--------|
B|--------------------17--|-17-----|-17-----|--------|--------|--------|--------|--------|
G|------------------------|--------|--------|--------|--------|--------|--------|--------|
D|------------------------|--------|--------|--------|--------|--------|--------|--------|
A|------------------------|--------|--------|--------|--------|--------|--------|--------|
E|------------------------|--------|--------|--------|--------|--------|--------|--------|


E|--------|--------|--------|--------|--------|--------|--------|--------|--------|
B|--------|--------|--------|--------|--------|--------|--------|--------|--------|
G|--------|--------|--------|--------|--------|--------|--------|--------|--------|
D|--------|--------|--------|--------|--------|--------|--------|--------|--------|
A|--------|--------|--------|--------|--------|--------|--------|--------|--------|
E|--------|--------|--------|--------|--------|--------|--------|--------|--------|


E|--------|--------|--------|--------|--------|--------|--------|--------|--------|
B|--------|--------|--------|--------|--------|--------|--------|--------|--------|
G|--------|--------|--------|--------|--------|--------|--------|--------|--------|
D|--------|--------|--------|--------|--------|--------|--------|--------|--------|
A|--------|--------|--------|--------|--------|--------|--------|--------|--------|
E|--------|--------|--------|--------|--------|--------|--------|--------|--------|


E|--------|--------|--------|--------|--------|--------|--------|--------|--------|
B|--------|--------|--------|--------|--------|--------|--------|--------|--------|
G|--------|--------|--------|--------|--------|--------|--------|--------|--------|
D|--------|--------|--------|--------|--------|--------|--------|--------|--------|
A|--------|--------|--------|--------|--------|--------|--------|--------|--------|
E|--------|--------|--------|--------|--------|--------|--------|--------|--------|


E|--------|--------|--------|--------|--------|--------|--------|--------|--------|
B|--------|--------|--------|--------|--------|--------|--------|--------|--------|
G|--------|--------|--------|--------|--------|--------|--------|--------|--------|
D|--------|--------|--------|--------|--------|--------|--------|--------|--------|
A|--------|--------|--------|--------|--------|--------|--------|--------|--------|
E|--------|--------|--------|--------|--------|--------|--------|--------|--------|


E|--------|--------|--------|--------|--------|------19----19---|-19----19--19--17--16--|
B|--------|--------|--------|--------|--------|-----------------|-----------------------|
G|--------|--------|--------|--------|--------|-----------------|-----------------------|
D|--------|--------|--------|--------|--------|-----------------|-----------------------|
A|--------|--------|--------|--------|--------|-----------------|-----------------------|
E|--------|--------|--------|--------|--------|-----------------|-----------------------|


E|-19----17---16---|-16----16--16--14---|--------------14--16--17--16--14----------|
B|-----------------|--------------------|-17---16--17----------------------17--16--|
G|-----------------|--------------------|------------------------------------------|
D|-----------------|--------------------|------------------------------------------|
A|-----------------|--------------------|------------------------------------------|
E|-----------------|--------------------|------------------------------------------|


E|-17--16--14--------------------------12--14--16--|-14--12--11--------------------------------------|
B|-------------17--16--14--13--14--16--------------|-------------14--12--10--------------------------|
G|-------------------------------------------------|-------------------------13--11--9---------------|
D|-------------------------------------------------|-------------------------------------13--11--9---|
A|-------------------------------------------------|-------------------------------------------------|
E|-------------------------------------------------|-------------------------------------------------|


E|-------------------------------------------------|----------------------------|-------------------------------|
B|-12--10--9---------------10--9---7---------------|-9----9---9---9---21---9----|-10---22---10--12--10--14--12--|
G|-------------11--9---8---------------9---8---6---|----------------------------|-------------------------------|
D|-------------------------------------------------|----------------------------|-------------------------------|
A|-------------------------------------------------|----------------------------|-------------------------------|
E|-------------------------------------------------|----------------------------|-------------------------------|


E|-------------------------------|------------------------------------------|------------------------------------------|
B|-10----------------------------|------------------------------------------|--------------------------12--------------|
G|------13---14---13---11---9----|-21-9--14-9--21-9--13-9--21-9--14-9--21---|-21---14--13--11--13--14------14--13--11--|
D|-------------------------------|------------------------------------------|------------------------------------------|
A|-------------------------------|------------------------------------------|------------------------------------------|
E|-------------------------------|------------------------------------------|------------------------------------------|


E|-------------------------------------------------|-------------------------16--17--19--16--17--19--|
B|-------------------------------------------------|-17--19--21--17--19--21--------------------------|
G|-14--13--11--16--14--13--14--16--18--16--18--20--|-------------------------------------------------|
D|-------------------------------------------------|-------------------------------------------------|
A|-------------------------------------------------|-------------------------------------------------|
E|-------------------------------------------------|-------------------------------------------------|


E|-17--19--21--17--19--21--21----21--|-21---17--19--21--19--17--16--17--19--21--|-16--17--19--21--19--17--19--17--16--19--17--16--|
B|-----------------------------------|------------------------------------------|-------------------------------------------------|
G|-----------------------------------|------------------------------------------|-------------------------------------------------|
D|-----------------------------------|------------------------------------------|-------------------------------------------------|
A|-----------------------------------|------------------------------------------|-------------------------------------------------|
E|-----------------------------------|------------------------------------------|-------------------------------------------------|


E|-17--19--17--16--17--19--17--16--14--16--14--12--|-14--12--11--12--14--16--14--12--------------|
B|-------------------------------------------------|---------------------------------16--14--12--|
G|-------------------------------------------------|---------------------------------------------|
D|-------------------------------------------------|---------------------------------------------|
A|-------------------------------------------------|---------------------------------------------|
E|-------------------------------------------------|---------------------------------------------|


E|-------------------------16--14--12--------------|-------------------------------------------------|
B|-14--12--14--16--14--12--------------16--14--12--|-------------------------------------------------|
G|-------------------------------------------------|-14--13--16--14--13------------------------------|
D|-------------------------------------------------|---------------------16--13--14--16--14--13------|
A|-------------------------------------------------|---------------------------------------------16--|
E|-------------------------------------------------|-------------------------------------------------|


E|------------------|------------------------------------------|--------------------|
B|------------------|------------------------------4---5---7---|-7-----7----7---7---|
G|------------------|----------------------4---6---------------|--------------------|
D|------------------|------2---4---6---7-----------------------|--------------------|
A|-14----14---------|------------------------------------------|--------------------|
E|------------------|------------------------------------------|--------------------|


E|-------------------------------|-------------------------------------------------|
B|-7-----------------------------|-------------------------------------------------|
G|-------------------------------|-------------------------------------------------|
D|-------------------2---4---6---|-7---6---4---------------------------6---7---9---|
A|-------2---4---6---------------|-------------7---6---4---6---7---9---------------|
E|-------------------------------|-------------------------------------------------|


E|-------------------------------------------------|-------------------------------------------------|
B|-------------------------------------------------|-------------------------------------------------|
G|-------------------------11--9---8---------------|-14--13--11--------------------------13--14--16--|
D|-11--9---7---------------------------11--9---7---|-------------14--13--11--13--14--16--------------|
A|-------------11--9---7---------------------------|-------------------------------------------------|
E|-------------------------------------------------|-------------------------------------------------|


E|-------------------------------------------------|-------------------------------------------------|
B|-------------------------19--17--16--------------|-19--17--16--14--16--17--16--17--19--17--19--21--|
G|-18--16--14--------------------------18--16--14--|-------------------------------------------------|
D|-------------18--16--14--------------------------|-------------------------------------------------|
A|-------------------------------------------------|-------------------------------------------------|
E|-------------------------------------------------|-------------------------------------------------|


E|-19--17------17--19--21--21----|-21----21---21---|-21-----|--------|--------|--------|
B|---------21--------------------|-----------------|--------|--------|--------|--------|
G|-------------------------------|-----------------|--------|--------|--------|--------|
D|-------------------------------|-----------------|--------|--------|--------|--------|
A|-------------------------------|-----------------|--------|--------|--------|--------|
E|-------------------------------|-----------------|--------|--------|--------|--------|


E|--------|--------|--------|--------|--------|--------|--------|--------|--------|
B|--------|--------|--------|--------|--------|--------|--------|--------|--------|
G|--------|--------|--------|--------|--------|--------|--------|--------|--------|
D|--------|--------|--------|--------|--------|--------|--------|--------|--------|
A|--------|--------|--------|--------|--------|--------|--------|--------|--------|
E|--------|--------|--------|--------|--------|--------|--------|--------|--------|


E|--------|--------|--------|--------|--------|--------|--------|--------|--------|
B|--------|--------|--------|--------|--------|--------|--------|--------|--------|
G|--------|--------|--------|--------|--------|--------|--------|--------|--------|
D|--------|--------|--------|--------|--------|--------|--------|--------|--------|
A|--------|--------|--------|--------|--------|--------|--------|--------|--------|
E|--------|--------|--------|--------|--------|--------|--------|--------|--------|


E|--------|--------|--------|--------|--------|--------|--------|--------|--------|
B|--------|--------|--------|--------|--------|--------|--------|--------|--------|
G|--------|--------|--------|--------|--------|--------|--------|--------|--------|
D|--------|--------|--------|--------|--------|--------|--------|--------|--------|
A|--------|--------|--------|--------|--------|--------|--------|--------|--------|
E|--------|--------|--------|--------|--------|--------|--------|--------|--------|


E|--------|--------|--------|--------|--------|--------|--------|--------|--------|
B|--------|--------|--------|--------|--------|--------|--------|--------|--------|
G|--------|--------|--------|--------|--------|--------|--------|--------|--------|
D|--------|--------|--------|--------|--------|--------|--------|--------|--------|
A|--------|--------|--------|--------|--------|--------|--------|--------|--------|
E|--------|--------|--------|--------|--------|--------|--------|--------|--------|


E|--------|--------|--------|--------|--------|--------|--------|
B|--------|--------|--------|--------|--------|--------|--------|
G|--------|--------|--------|--------|--------|--------|--------|
D|--------|--------|--------|--------|--------|--------|--------|
A|--------|--------|--------|--------|--------|--------|--------|
E|--------|--------|--------|--------|--------|--------|--------|





Track 6: Untitled

G|--------|--------|--------|--------|----------------|------------------------|-----------------|
D|--------|--------|--------|--------|----------------|-----------6----2-------|-----------------|
A|--------|--------|--------|--------|-4------4---6---|-7-----7------------2---|-0-----0---------|
E|--------|--------|--------|--------|----------------|------------------------|-------------4---|


G|-------------|----------------|------------------------|-----------------|-------------|
D|-------------|----------------|-----------6----2-------|-----------------|-------------|
A|-------------|-4------4---6---|-7-----7------------2---|-0-----0---------|-------------|
E|-4------4----|----------------|------------------------|-------------4---|-4------4----|


G|----------------|------------------------|-----------------|-------------|----------------|
D|----------------|-----------6----2-------|-----------------|-------------|----------------|
A|-4------4---6---|-7-----7------------2---|-0-----0---------|-------------|-4------4---4---|
E|----------------|------------------------|-------------4---|-4------4----|----------------|


G|---------------------|---------------------|--------------------|----------------|
D|---------------------|------7---7----------|--------------------|----------------|
A|-7-------------------|-0--------------0----|--------------------|-4------4---4---|
E|------5---4-----4----|---------------------|-4----5---4---4-----|----------------|


G|---------------------|---------------------|--------------------|----------------|
D|---------------------|------7---7----------|--------------------|----------------|
A|-7-------------------|-0--------------0----|--------------------|-4------4---4---|
E|------5---4-----4----|---------------------|-4----5---4---4-----|----------------|


G|---------------------|---------------------|--------------------|----------------|
D|---------------------|------7---7----------|--------------------|----------------|
A|-7-------------------|-0--------------0----|--------------------|-4------4---4---|
E|------5---4-----4----|---------------------|-4----5---4---4-----|----------------|


G|---------------------|---------------------|--------------------|---------------------|
D|---------------------|------7---7----------|--------------------|---------------------|
A|-7-------------------|-0--------------0----|--------------------|-4-----4----4---0----|
E|------5---4-----4----|---------------------|-4----5---4---4-----|---------------------|


G|------------------------|---------------------|---------------------------|---------------------|
D|------------------------|---------------------|-2----2--------------------|---------------------|
A|-2----------------------|-4-----4----4---0----|----------2----------------|-4-----4----4---0----|
E|-------5---4----4---4---|---------------------|--------------2----7---4---|---------------------|


G|------------------------|---------------------|-------------|----------------|---------------------|
D|------------------------|---------------------|-------------|----------------|---------------------|
A|-2----------------------|-4-----4----4---0----|-4-----3-----|-4------4---4---|-7-------------------|
E|-------5---4----4---4---|---------------------|-------------|----------------|------5---4-----4----|


G|---------------------|--------------------|----------------|---------------------|
D|------7---7----------|--------------------|----------------|---------------------|
A|-0--------------0----|--------------------|-4------4---4---|-7-------------------|
E|---------------------|-4----5---4---4-----|----------------|------5---4-----4----|


G|---------------------|--------------------|----------------|---------------------|
D|------7---7----------|--------------------|----------------|---------------------|
A|-0--------------0----|--------------------|-4------4---4---|-7-------------------|
E|---------------------|-4----5---4---4-----|----------------|------5---4-----4----|


G|---------------------|--------------------|----------------|---------------------|
D|------7---7----------|--------------------|----------------|---------------------|
A|-0--------------0----|--------------------|-4------4---4---|-7-------------------|
E|---------------------|-4----5---4---4-----|----------------|------5---4-----4----|


G|---------------------|--------------------|----------------|---------------------|
D|------7---7----------|--------------------|----------------|---------------------|
A|-0--------------0----|--------------------|-4------4---4---|-7-------------------|
E|---------------------|-4----5---4---4-----|----------------|------5---4-----4----|


G|---------------------|--------------------|----------------|---------------------|
D|------7---7----------|--------------------|----------------|---------------------|
A|-0--------------0----|--------------------|-4------4---4---|-7-------------------|
E|---------------------|-4----5---4---4-----|----------------|------5---4-----4----|


G|---------------------|--------------------|---------------------|------------------------|
D|------7---7----------|--------------------|---------------------|------------------------|
A|-0--------------0----|--------------------|-4-----4----4---0----|-2----------------------|
E|---------------------|-4----5---4---4-----|---------------------|-------5---4----4---4---|


G|---------------------|---------------------------|---------------------|------------------------|
D|---------------------|-2----2--------------------|---------------------|------------------------|
A|-4-----4----4---0----|----------2----------------|-4-----4----4---0----|-2----------------------|
E|---------------------|--------------2----7---4---|---------------------|-------5---4----4---4---|


G|---------------------|-------------|--------------------------|-----------------------------|
D|---------------------|-------------|--------------------------|-----------------------------|
A|-4-----4----4---0----|-4-----3-----|-0---------0----2----4----|-4---4--4--------------------|
E|---------------------|-------------|-------0------------------|-----------5---4---2----4----|


G|----------------------|--------------|--------------------------|-----------------------------|
D|----------------------|--------------|--------------------------|-----------------------------|
A|----------------------|--------------|-0---------0----2----4----|-4---4--4--------------------|
E|-5-----5----7----5----|-4--5--4------|-------0------------------|-----------5---4---2----4----|


G|----------------------|-------------|----------------|--------|----------------|
D|----------------------|-------------|-6---6----------|--------|-7---7----------|
A|----------------------|-------------|----------------|--------|----------------|
E|-5-----5----7----5----|-4-----------|----------------|--------|----------------|


G|--------|----------------|------------|----------------|---------------------------------|
D|--------|-2---2----------|--------2---|-4---4----------|-4---4---4---4---4---4---4---4---|
A|--------|----------------|------------|----------------|---------------------------------|
E|--------|----------------|------------|----------------|---------------------------------|


G|------------------------------|------------------------------|---------------------------|
D|-6---6---6---6---6----6---6---|-6---6---6----4---4---6---6---|-7---------7---7---7---7---|
A|------------------------------|------------------------------|------0--------------------|
E|------------------------------|------------------------------|---------------------------|


G|------------------------------|------------------------------|---------------------------------|
D|-6---6---6---6---4----4---4---|-2----2---2---2---2---2---2---|-----2---2---2---2---2---2---2---|
A|------------------------------|------------------------------|---------------------------------|
E|------------------------------|------------------------------|---------------------------------|


G|----------------|-------------|------------------------------|------------------------------|
D|-4---4----------|-------------|-6---6---6---6---6----6---6---|-6---6---6----4---4---6---6---|
A|----------------|-7-----6-----|------------------------------|------------------------------|
E|----------------|-------------|------------------------------|------------------------------|


G|---------------------------|------------------------------|------------------------------|
D|-7---------7---7---7---7---|-6---6---6---6---4----4---4---|-2----2---2---2---2---2---2---|
A|------0--------------------|------------------------------|------------------------------|
E|---------------------------|------------------------------|------------------------------|


G|---------------------------------|---------------------------------|-----------------|
D|-----2---2---2---2---2---2---2---|-4---4---4---4---4---4---4---4---|-4---------4-----|
A|---------------------------------|---------------------------------|------4----------|
E|---------------------------------|---------------------------------|-----------------|


G|------------------------------|------------------------------|---------------------------|
D|-6---6---6---6---6----6---6---|-6---6---6----4---4---6---6---|-7---------7---7---7---7---|
A|------------------------------|------------------------------|------0--------------------|
E|------------------------------|------------------------------|---------------------------|


G|------------------------------|------------------------------|---------------------------------|
D|-6---6---6---6---4----4---4---|-2----2---2---2---2---2---2---|-----2---2---2---2---2---2---2---|
A|------------------------------|------------------------------|---------------------------------|
E|------------------------------|------------------------------|---------------------------------|


G|---------------------------------|-----------------|------------------------------|
D|-4---4---4---4---4---4---4---4---|-4---------4-----|-6---6---6---6---6----6---6---|
A|---------------------------------|------4----------|------------------------------|
E|---------------------------------|-----------------|------------------------------|


G|------------------------------|---------------------------|------------------------------|
D|-6---6---6----4---4---6---6---|-7---------7---7---7---7---|-6---6---6---6---4----4---4---|
A|------------------------------|------0--------------------|------------------------------|
E|------------------------------|---------------------------|------------------------------|


G|------------------------------|---------------------------------|---------------------------------|
D|-2----2---2---2---2---2---2---|-----2---2---2---2---2---2---2---|-4---4---4---4---4---4---4---4---|
A|------------------------------|---------------------------------|---------------------------------|
E|------------------------------|---------------------------------|---------------------------------|


G|-----------------|------------------------------|------------------------------|
D|-4---------4-----|-6---6---6---6---6----6---6---|-6---6---6----4---4---6---6---|
A|------4----------|------------------------------|------------------------------|
E|-----------------|------------------------------|------------------------------|


G|---------------------------|------------------------------|------------------------------|
D|-7---------7---7---7---7---|-6---6---6---6---4----4---4---|-2----2---2---2---2---2---2---|
A|------0--------------------|------------------------------|------------------------------|
E|---------------------------|------------------------------|------------------------------|


G|---------------------------------|---------------------------------|-----------------|
D|-----2---2---2---2---2---2---2---|-4---4---4---4---4---4---4---4---|-4---------4-----|
A|---------------------------------|---------------------------------|------4----------|
E|---------------------------------|---------------------------------|-----------------|


G|----------------|--------|----------------|--------|----------------|------------|
D|-6---6----------|--------|-7---7----------|--------|-2---2----------|--------2---|
A|----------------|--------|----------------|--------|----------------|------------|
E|----------------|--------|----------------|--------|----------------|------------|


G|----------------|---------------------------------|---------------------------------|
D|-4---4----------|-4---4---4---4---4---4---4---4---|-6---6---6---6---6---6---6---6---|
A|----------------|---------------------------------|---------------------------------|
E|----------------|---------------------------------|---------------------------------|


G|---------------------------------|---------------------------------|---------------------------------|
D|-6---6---6---6---4---4---6---6---|-7---7---7---7---7---7---7---7---|-6---6---6---6---4---4---4---4---|
A|---------------------------------|---------------------------------|---------------------------------|
E|---------------------------------|---------------------------------|---------------------------------|


G|------------------------------|---------------------------------|----------------|
D|-2----2---2---2---2---2---2---|-----2---2---2---2---2---2---2---|-4---4----------|
A|------------------------------|---------------------------------|----------------|
E|------------------------------|---------------------------------|----------------|


G|-------------|---------------------|------------------------|---------------------|
D|-------------|---------------------|------------------------|---------------------|
A|-7-----6-----|-4-----4----4---0----|-2----------------------|-4-----4----4---0----|
E|-------------|---------------------|-------5---4----4---4---|---------------------|


G|---------------------------|---------------------|------------------------|---------------------|
D|-2----2--------------------|---------------------|------------------------|---------------------|
A|----------2----------------|-4-----4----4---0----|-2----------------------|-4-----4----4---0----|
E|--------------2----7---4---|---------------------|-------5---4----4---4---|---------------------|


G|-------------|---------------------|------------------------|---------------------|
D|-------------|---------------------|------------------------|---------------------|
A|-4-----3-----|-4-----4----4---0----|-2----------------------|-4-----4----4---0----|
E|-------------|---------------------|-------5---4----4---4---|---------------------|


G|---------------------------|---------------------|------------------------|---------------------|
D|-2----2--------------------|---------------------|------------------------|---------------------|
A|----------2----------------|-4-----4----4---0----|-2----------------------|-4-----4----4---0----|
E|--------------2----7---4---|---------------------|-------5---4----4---4---|---------------------|


G|-------------|--------|--------|--------|--------|--------|--------|--------|--------|
D|-------------|--------|--------|--------|--------|--------|--------|--------|--------|
A|-4-----3-----|-4------|-4------|-4------|-4------|--------|--------|--------|--------|
E|-------------|--------|--------|--------|--------|--------|--------|--------|--------|


G|--------|--------|--------|--------|--------|--------|--------|--------|
D|--------|--------|--------|--------|--------|--------|--------|--------|
A|--------|--------|--------|--------|--------|--------|--------|--------|
E|--------|--------|--------|--------|--------|--------|--------|--------|