Site menu:

    

Browse: 0-9 A B C D E F G H I J K L N O P Q R S T U V W X Y Z

daniel harvey - above oath:



Title: Above Oath
Artist: 
Album: 
Author: Daniel Harvey


Track 1: Lead 1

E|---------------------------------|---------------------------------|---------------------------------|
B|---------------------------------|---------------------------------|-----------------------------7---|
G|-------------4-------6-------7---|-------------4-------6-------7---|-----7---6-------9---6-----------|
D|-4---4---4-------4-------4-------|-5---5---5-------5-------5-------|-7-----------7-----------7-------|
A|---------------------------------|---------------------------------|---------------------------------|
E|---------------------------------|---------------------------------|---------------------------------|


E|---------------------------------|---------------------------------|---------------------------------|
B|---------------------------------|---------------------------------|---------------------------------|
G|-----9-------7-------6-------7---|-------------4-------6-------7---|-------------4-------6-------7---|
D|-5-------5-------5-------5-------|-4---4---4-------4-------4-------|-5---5---5-------5-------5-------|
A|---------------------------------|---------------------------------|---------------------------------|
E|---------------------------------|---------------------------------|---------------------------------|


E|---------------------------------|---------------------------------|---------------------------------|
B|-----------------------------7---|---------------------------------|---------------------------------|
G|-----7---6-------9---6-----------|-----9-------7-------6-------7---|-------------4-------6-------7---|
D|-7-----------7-----------7-------|-5-------5-------5-------5-------|-4---4---4-------4-------4-------|
A|---------------------------------|---------------------------------|---------------------------------|
E|---------------------------------|---------------------------------|---------------------------------|


E|---------------------------------|---------------------------------|---------------------------------|
B|---------------------------------|-----------------------------7---|---------------------------------|
G|-------------4-------6-------7---|-----7---6-------9---6-----------|-----9-------7-------6-------7---|
D|-5---5---5-------5-------5-------|-7-----------7-----------7-------|-5-------5-------5-------5-------|
A|---------------------------------|---------------------------------|---------------------------------|
E|---------------------------------|---------------------------------|---------------------------------|


E|---------------------------------|---------------------------------|---------------------------------|
B|---------------------------------|---------------------------------|-----------------------------7---|
G|-------------4-------6-------7---|-------------4-------6-------7---|-----7---6-------9---6-----------|
D|-4---4---4-------4-------4-------|-5---5---5-------5-------5-------|-7-----------7-----------7-------|
A|---------------------------------|---------------------------------|---------------------------------|
E|---------------------------------|---------------------------------|---------------------------------|


E|---------------------------------|---------------------------------|---------------------------------|
B|---------------------------------|---------------------------------|---------------------------------|
G|-----9-------7-------6-------7---|-------------4-------6-------7---|-------------4-------6-------7---|
D|-5-------5-------5-------5-------|-4---4---4-------4-------4-------|-5---5---5-------5-------5-------|
A|---------------------------------|---------------------------------|---------------------------------|
E|---------------------------------|---------------------------------|---------------------------------|


E|---------------------------------|---------------------------------|---------------------------------|
B|-----------------------------7---|---------------------------------|---------------------------------|
G|-----7---6-------9---6-----------|-----9-------7-------6-------7---|-------------4-------6-------7---|
D|-7-----------7-----------7-------|-5-------5-------5-------5-------|-4---4---4-------4-------4-------|
A|---------------------------------|---------------------------------|---------------------------------|
E|---------------------------------|---------------------------------|---------------------------------|


E|---------------------------------|---------------------------------|--------|--------|
B|---------------------------------|-----------------------------7---|--------|--------|
G|-------------4-------6-------7---|-----7---6-------9---6-----------|--------|--------|
D|-5---5---5-------5-------5-------|-7-----------7-----------7-------|--------|--------|
A|---------------------------------|---------------------------------|--------|--------|
E|---------------------------------|---------------------------------|--------|--------|


E|--------|--------|--------|--------|--------|--------|--------|--------|--------|
B|--------|--------|--------|--------|--------|--------|--------|--------|--------|
G|--------|--------|--------|--------|--------|--------|--------|--------|--------|
D|--------|--------|--------|--------|--------|--------|--------|--------|--------|
A|--------|--------|--------|--------|--------|--------|--------|--------|--------|
E|--------|--------|--------|--------|--------|--------|--------|--------|--------|


E|--------|--------|--------|--------|--------|--------|--------|--------|--------|
B|--------|--------|--------|--------|--------|--------|--------|--------|--------|
G|--------|--------|--------|--------|--------|--------|--------|--------|--------|
D|--------|--------|--------|--------|--------|--------|--------|--------|--------|
A|--------|--------|--------|--------|--------|--------|--------|--------|--------|
E|--------|--------|--------|--------|--------|--------|--------|--------|--------|


E|--------|--------|--------|--------|--------|------------------------------|------------------------------|
B|--------|--------|--------|--------|--------|------------------------------|------------------------------|
G|--------|--------|--------|--------|--------|-4---4---4---4----4---4---4---|-4---4---4---4----4---4---4---|
D|--------|--------|--------|--------|--------|-4---4---4---4----4---4---4---|-4---4---4---4----4---4---4---|
A|--------|--------|--------|--------|--------|-2---2---2---2----2---2---2---|-2---2---2---2----2---2---2---|
E|--------|--------|--------|--------|--------|------------------------------|------------------------------|


E|---------------------------|---------------------------|------------------------------|
B|---------------------------|---------------------------|------------------------------|
G|---------------------------|---------------------------|-4---4---4---4----4---4---4---|
D|-5---5----5---5------------|-4---4----4---4------------|-4---4---4---4----4---4---4---|
A|-5---5----5---5----5---5---|-4---4----4---4----4---4---|-2---2---2---2----2---2---2---|
E|-3---3----3---3----3---3---|-2---2----2---2----2---2---|------------------------------|


E|------------------------------|---------------------------------|---------------------------------|
B|------------------------------|---------------------------------|---------------------------------|
G|-4---4---4---4----4---4---4---|---------------------------------|---------------------------------|
D|-4---4---4---4----4---4---4---|---------------------------------|---------------------------------|
A|-2---2---2---2----2---2---2---|-5---5-------------------5---5---|-7---7-------------------7---7---|
E|------------------------------|-3---3---3---3---3---3---3---3---|-5---5---5---5---5---5---5---5---|


E|------------------------------|------------------------------|---------------------------|
B|------------------------------|------------------------------|---------------------------|
G|-4---4---4---4----4---4---4---|-4---4---4---4----4---4---4---|---------------------------|
D|-4---4---4---4----4---4---4---|-4---4---4---4----4---4---4---|-5---5----5---5------------|
A|-2---2---2---2----2---2---2---|-2---2---2---2----2---2---2---|-5---5----5---5----5---5---|
E|------------------------------|------------------------------|-3---3----3---3----3---3---|


E|---------------------------|------------------------------|------------------------------|
B|---------------------------|------------------------------|------------------------------|
G|---------------------------|-4---4---4---4----4---4---4---|-4---4---4---4----4---4---4---|
D|-4---4----4---4------------|-4---4---4---4----4---4---4---|-4---4---4---4----4---4---4---|
A|-4---4----4---4----4---4---|-2---2---2---2----2---2---2---|-2---2---2---2----2---2---2---|
E|-2---2----2---2----2---2---|------------------------------|------------------------------|


E|---------------------------------|---------------------------------|---------------------------------|
B|---------------------------------|---------------------------------|---------------------------------|
G|---------------------------------|---------------------------------|-------------4-------6-------7---|
D|---------------------------------|---------------------------------|-4---4---4-------4-------4-------|
A|-5---5-------------------5---5---|-7---7-------------------7---7---|---------------------------------|
E|-3---3---3---3---3---3---3---3---|-5---5---5---5---5---5---5---5---|---------------------------------|


E|---------------------------------|---------------------------------|---------------------------------|
B|---------------------------------|-----------------------------7---|---------------------------------|
G|-------------4-------6-------7---|-----7---6-------9---6-----------|-----9-------7-------6-------7---|
D|-5---5---5-------5-------5-------|-7-----------7-----------7-------|-5-------5-------5-------5-------|
A|---------------------------------|---------------------------------|---------------------------------|
E|---------------------------------|---------------------------------|---------------------------------|


E|---------------------------------|---------------------------------|---------------------------------|
B|---------------------------------|---------------------------------|-----------------------------7---|
G|-------------4-------6-------7---|-------------4-------6-------7---|-----7---6-------9---6-----------|
D|-4---4---4-------4-------4-------|-5---5---5-------5-------5-------|-7-----------7-----------7-------|
A|---------------------------------|---------------------------------|---------------------------------|
E|---------------------------------|---------------------------------|---------------------------------|


E|---------------------------------|--------|-------------|--------|--------|--------|
B|---------------------------------|--------|-------------|--------|--------|--------|
G|-----9-------7-------6-------7---|-4------|-4-----------|--------|--------|--------|
D|-5-------5-------5-------5-------|-4------|-4-----------|--------|--------|--------|
A|---------------------------------|--------|-------------|--------|--------|--------|
E|---------------------------------|--------|-------------|--------|--------|--------|


E|--------|--------|--------|--------|--------|--------|--------|--------|--------|
B|--------|--------|--------|--------|--------|--------|--------|--------|--------|
G|--------|--------|--------|--------|--------|--------|--------|--------|--------|
D|--------|--------|--------|--------|--------|--------|--------|--------|--------|
A|--------|--------|--------|--------|--------|--------|--------|--------|--------|
E|--------|--------|--------|--------|--------|--------|--------|--------|--------|


E|--------|--------|--------|--------|--------|--------|--------|--------|--------|
B|--------|--------|--------|--------|--------|--------|--------|--------|--------|
G|--------|--------|--------|--------|--------|--------|--------|--------|--------|
D|--------|--------|--------|--------|--------|--------|--------|--------|--------|
A|--------|--------|--------|--------|--------|--------|--------|--------|--------|
E|--------|--------|--------|--------|--------|--------|--------|--------|--------|


E|--------|--------|--------|------------------------------|------------------------------|
B|--------|--------|--------|------------------------------|------------------------------|
G|--------|--------|--------|-4---4---4---4----4---4---4---|-4---4---4---4----4---4---4---|
D|--------|--------|--------|-4---4---4---4----4---4---4---|-4---4---4---4----4---4---4---|
A|--------|--------|--------|-2---2---2---2----2---2---2---|-2---2---2---2----2---2---2---|
E|--------|--------|--------|------------------------------|------------------------------|


E|---------------------------|---------------------------|------------------------------|
B|---------------------------|---------------------------|------------------------------|
G|---------------------------|---------------------------|-4---4---4---4----4---4---4---|
D|-5---5----5---5------------|-4---4----4---4------------|-4---4---4---4----4---4---4---|
A|-5---5----5---5----5---5---|-4---4----4---4----4---4---|-2---2---2---2----2---2---2---|
E|-3---3----3---3----3---3---|-2---2----2---2----2---2---|------------------------------|


E|------------------------------|---------------------------------|---------------------------------|
B|------------------------------|---------------------------------|---------------------------------|
G|-4---4---4---4----4---4---4---|---------------------------------|---------------------------------|
D|-4---4---4---4----4---4---4---|---------------------------------|---------------------------------|
A|-2---2---2---2----2---2---2---|-5---5-------------------5---5---|-7---7-------------------7---7---|
E|------------------------------|-3---3---3---3---3---3---3---3---|-5---5---5---5---5---5---5---5---|


E|------------------------------|------------------------------|---------------------------|
B|------------------------------|------------------------------|---------------------------|
G|-4---4---4---4----4---4---4---|-4---4---4---4----4---4---4---|---------------------------|
D|-4---4---4---4----4---4---4---|-4---4---4---4----4---4---4---|-5---5----5---5------------|
A|-2---2---2---2----2---2---2---|-2---2---2---2----2---2---2---|-5---5----5---5----5---5---|
E|------------------------------|------------------------------|-3---3----3---3----3---3---|


E|---------------------------|------------------------------|------------------------------|
B|---------------------------|------------------------------|------------------------------|
G|---------------------------|-4---4---4---4----4---4---4---|-4---4---4---4----4---4---4---|
D|-4---4----4---4------------|-4---4---4---4----4---4---4---|-4---4---4---4----4---4---4---|
A|-4---4----4---4----4---4---|-2---2---2---2----2---2---2---|-2---2---2---2----2---2---2---|
E|-2---2----2---2----2---2---|------------------------------|------------------------------|


E|---------------------------------|---------------------------------|------------------------------|
B|---------------------------------|---------------------------------|------------------------------|
G|---------------------------------|---------------------------------|------------------------------|
D|---------------------------------|---------------------------------|------4---0-------4---0-------|
A|-5---5-------------------5---5---|-7---7-------------------7---7---|--------------2-----------2---|
E|-3---3---3---3---3---3---3---3---|-5---5---5---5---5---5---5---5---|------------------------------|


E|------------------------------|-14--10--14--10------14--10------|---------------------------------|
B|------------------------------|-----------------12----------12--|-12--0-------12--0-------14--0---|
G|------11--7-------11--7-------|---------------------------------|---------11----------12----------|
D|--------------9-----------9---|---------------------------------|---------------------------------|
A|------------------------------|---------------------------------|---------------------------------|
E|------------------------------|---------------------------------|---------------------------------|


E|------------------|---------------------|-----------------|-----------------|----------------------------------------|
B|-15----12---------|------15--15---15----|-14----15--------|-----------------|-12---15---12---17--12--15--12--14--0---|
G|-------------11---|-11------------------|------------11---|-11----12---14---|----------------------------------------|
D|------------------|---------------------|-----------------|-----------------|----------------------------------------|
A|------------------|---------------------|-----------------|-----------------|----------------------------------------|
E|------------------|---------------------|-----------------|-----------------|----------------------------------------|


E|---------------------------------|--------------------------------|-----------------------------|
B|-11--0-------12--0-------14--0---|-12--11------12--11-------------|-----------------------------|
G|---------11----------11----------|---------12-----------12---11---|-9----12---11---11-------2---|
D|---------------------------------|--------------------------------|---------------------2-------|
A|---------------------------------|--------------------------------|-----------------------------|
E|---------------------------------|--------------------------------|-----------------------------|


E|------------------|------------------------------------------|-------------------------------------------------|
B|-3----------------|------------------------------------------|-------------------------------------------------|
G|-------4----------|------4---6---4---6---4---6---6---7---6---|-7---9---7---9---7---9---9---11--9---11--9---11--|
D|-------------4----|-4----------------------------------------|-------------------------------------------------|
A|------------------|------------------------------------------|-------------------------------------------------|
E|------------------|------------------------------------------|-------------------------------------------------|


E|-------------------------------------------------|------------------------------|
B|-------------------------------------------------|------------------------------|
G|-11--12--11--12--11--12--12--14--12--14--16--14--|-16--16--16--16---16--18--19--|
D|-------------------------------------------------|-16--16--16--16---16--18--19--|
A|-------------------------------------------------|-14--14--14--14---14--16--17--|
E|-------------------------------------------------|------------------------------|


E|---------------------------------|---------------------------------|---------------------------------|
B|---------------------------------|---------------------------------|---------------------------------|
G|-19--18--18--18--16--16--16--12--|-12--11--11--11--7---7---7---6---|-2---2-------------------2---2---|
D|-19--19--18--18--16--16--16--14--|-12--11--11--11--7---7---7---6---|-2---2-------------------2---2---|
A|-17--16--16--16--14--14--14--10--|-10--9---9---9---5---5---5---4---|-0---0---0---0---0---0---0---0---|
E|---------------------------------|---------------------------------|---------------------------------|


E|---------------------------------|---------------------------------|---------------------------------|
B|---------------------------------|---------------------------------|-----------------------------7---|
G|-------------4-------6-------7---|-------------4-------6-------7---|-----7---6-------9---6-----------|
D|-4---4---4-------4-------4-------|-5---5---5-------5-------5-------|-7-----------7-----------7-------|
A|---------------------------------|---------------------------------|---------------------------------|
E|---------------------------------|---------------------------------|---------------------------------|


E|---------------------------------|---------------------------------|---------------------------------|
B|---------------------------------|---------------------------------|---------------------------------|
G|-----9-------7-------6-------7---|-------------4-------6-------7---|-------------4-------6-------7---|
D|-5-------5-------5-------5-------|-4---4---4-------4-------4-------|-5---5---5-------5-------5-------|
A|---------------------------------|---------------------------------|---------------------------------|
E|---------------------------------|---------------------------------|---------------------------------|


E|---------------------------------|-------------|---------------------------------|
B|-----------------------------7---|-7-----------|---------------------------------|
G|-----7---6-------9---6-----------|-------------|-----------------4---4-----------|
D|-7-----------7-----------7-------|-------------|---------4---4-----------4---4---|
A|---------------------------------|-------------|-5---5---------------------------|
E|---------------------------------|-------------|---------------------------------|


E|---------------------------------|---------------------------------|---------------------------------|
B|---------------------------------|---------------------------------|---------------------------------|
G|-----------------4---4-----------|---------------------------------|---------------------------------|
D|---------4---4-----------4---4---|---------------------------------|---------------------------------|
A|-5---5---------------------------|---------2---2---5---5---2---2---|---------2---2---5---5---2---2---|
E|---------------------------------|-3---3---------------------------|-3---3---------------------------|


E|---------------------------------|---------------------------------|---------------------------------|
B|---------------------------------|---------------------------------|---------------------------------|
G|---------------------------------|-2---2---------------------------|-----------------7---7-----------|
D|-----------------2---2-----------|-----------------2---2-----------|---------4---4-----------4---4---|
A|-0---0---4---4-----------4---4---|---------4---4-----------4---4---|-5---5---------------------------|
E|---------------------------------|---------------------------------|---------------------------------|


E|---------------------------------|---------------------------------|----------------7----|
B|---------------------------------|-----------------8---8-----------|-----------8---------|
G|-----------------7---7-----------|---------4---4-----------4---4---|------4--------------|
D|---------4---4-----------4---4---|-5---5---------------------------|-5-------------------|
A|-5---5---------------------------|---------------------------------|---------------------|
E|---------------------------------|---------------------------------|---------------------|


E|-6-------------------3---9---6---------------6---|-12--9---------------9---14----|
B|-----8-----------5---------------8-------8-------|---------11------11------------|
G|---------9---------------------------9-----------|-------------12----------------|
D|-------------11----------------------------------|-------------------------------|
A|-------------------------------------------------|-------------------------------|
E|-------------------------------------------------|-------------------------------|


E|-14----------|------------------|---------------------|---------------------|-----------------|
B|-------------|------------------|---------------------|---------------------|-----------------|
G|-------------|------------------|---------------------|---------------------|-----------------|
D|-------------|------------------|---------------------|---------------------|-4----------4----|
A|--------9----|-7-----5-----4----|-4----4----4----4----|-4----4----4----4----|-4----------4----|
E|-------------|------------------|-2----2----2----2----|-2----2----2----2----|-2----------2----|


E|-----------------|------------------------------|------------------------------|
B|-----------------|------------------------------|------------------------------|
G|-----------------|-4---4---4---4----4---4---4---|-4---4---4---4----4---4---4---|
D|-------4---------|-4---4---4---4----4---4---4---|-4---4---4---4----4---4---4---|
A|-------4---------|-2---2---2---2----2---2---2---|-2---2---2---2----2---2---2---|
E|-------2---------|------------------------------|------------------------------|


E|---------------------------|---------------------------|------------------------------|
B|---------------------------|---------------------------|------------------------------|
G|---------------------------|---------------------------|-4---4---4---4----4---4---4---|
D|-5---5----5---5------------|-4---4----4---4------------|-4---4---4---4----4---4---4---|
A|-5---5----5---5----5---5---|-4---4----4---4----4---4---|-2---2---2---2----2---2---2---|
E|-3---3----3---3----3---3---|-2---2----2---2----2---2---|------------------------------|


E|------------------------------|---------------------------------|---------------------------------|
B|------------------------------|---------------------------------|---------------------------------|
G|-4---4---4---4----4---4---4---|---------------------------------|---------------------------------|
D|-4---4---4---4----4---4---4---|---------------------------------|---------------------------------|
A|-2---2---2---2----2---2---2---|-5---5-------------------5---5---|-7---7-------------------7---7---|
E|------------------------------|-3---3---3---3---3---3---3---3---|-5---5---5---5---5---5---5---5---|


E|------------------------------|------------------------------|---------------------------|
B|------------------------------|------------------------------|---------------------------|
G|-4---4---4---4----4---4---4---|-4---4---4---4----4---4---4---|---------------------------|
D|-4---4---4---4----4---4---4---|-4---4---4---4----4---4---4---|-5---5----5---5------------|
A|-2---2---2---2----2---2---2---|-2---2---2---2----2---2---2---|-5---5----5---5----5---5---|
E|------------------------------|------------------------------|-3---3----3---3----3---3---|


E|---------------------------|------------------------------|------------------------------|
B|---------------------------|------------------------------|------------------------------|
G|---------------------------|-4---4---4---4----4---4---4---|-4---4---4---4----4---4---4---|
D|-4---4----4---4------------|-4---4---4---4----4---4---4---|-4---4---4---4----4---4---4---|
A|-4---4----4---4----4---4---|-2---2---2---2----2---2---2---|-2---2---2---2----2---2---2---|
E|-2---2----2---2----2---2---|------------------------------|------------------------------|


E|---------------------------------|---------------------------------|---------------------------------|
B|---------------------------------|---------------------------------|---------------------------------|
G|---------------------------------|---------------------------------|-4-------4-----------4---4---4---|
D|---------------------------------|---------------------------------|-4-------4-----------4---4---4---|
A|-5---5-------------------5---5---|-7---7-------------------7---7---|-2-------2-----------2---2---2---|
E|-3---3---3---3---3---3---3---3---|-5---5---5---5---5---5---5---5---|-----------------2-----------2---|





Track 2: Lead 2

E|--------|--------|--------|--------|--------|--------|--------|--------|--------|
B|--------|--------|--------|--------|--------|--------|--------|--------|--------|
G|--------|--------|--------|--------|--------|--------|--------|--------|-4------|
D|--------|--------|--------|--------|--------|--------|--------|--------|-4------|
A|--------|--------|--------|--------|--------|--------|--------|--------|-2------|
E|--------|--------|--------|--------|--------|--------|--------|--------|--------|


E|--------|--------|--------|--------|--------|--------|------------------------------|
B|--------|--------|--------|--------|--------|--------|------------------------------|
G|--------|-7------|-7------|-4------|--------|-7------|-7----------------------------|
D|-5------|-7------|-7------|-4------|-5------|-7------|-7----------------------------|
A|-5------|-5------|-5------|-2------|-5------|-5------|-5--------5-------4---5---5---|
E|-3------|--------|--------|--------|-3------|--------|------3-------3-------3---3---|


E|---------------------------------|---------------------------------|---------------------------------|
B|---------------------------------|---------------------------------|---------------------------------|
G|-4---4---4---4---4---4---4---4---|---------------------------------|-7---7---7---7---7---7---7---7---|
D|-4---4---4---4---4---4---4---4---|-5---5---5---5---5---5---5---5---|-7---7---7---7---7---7---7---7---|
A|-2---2---2---2---2---2---2---2---|-5---5---5---5---5---5---5---5---|-5---5---5---5---5---5---5---5---|
E|---------------------------------|-3---3---3---3---3---3---3---3---|---------------------------------|


E|---------------------------------|-2---2---2---2---2---2---2---2---|-3---3---3---3---3---3---3---3---|
B|---------------------------------|---------------------------------|---------------------------------|
G|---------------------------------|-4---4---4---4---4---4---4---4---|---------------------------------|
D|-7---7---7---7---7---7---7---7---|-4---4---4---4---4---4---4---4---|-5---5---5---5---5---5---5---5---|
A|-7---7---7---7---7---7---7---7---|-2---2---2---2---2---2---2---2---|-5---5---5---5---5---5---5---5---|
E|-5---5---5---5---5---5---5---5---|---------------------------------|-3---3---3---3---3---3---3---3---|


E|-5---5---5---5---5---5---5---5---|---------------------------|--------|--------|
B|---------------------------------|---------------------------|--------|--------|
G|-7---7---7---7---7---7---7---7---|-11--11---11--6---6----6---|--------|--------|
D|-7---7---7---7---7---7---7---7---|-9---9----9---4---4----4---|--------|--------|
A|-5---5---5---5---5---5---5---5---|-9---9----9---4---4----4---|--------|--------|
E|---------------------------------|---------------------------|--------|--------|


E|--------|--------|--------|--------|--------|--------|--------|--------|--------|
B|--------|--------|--------|--------|--------|--------|--------|--------|--------|
G|--------|--------|--------|--------|--------|--------|--------|--------|--------|
D|--------|--------|--------|--------|--------|--------|--------|--------|--------|
A|--------|--------|--------|--------|--------|--------|--------|--------|--------|
E|--------|--------|--------|--------|--------|--------|--------|--------|--------|


E|--------|--------|--------|--------|--------|--------|--------|--------|--------|
B|--------|--------|--------|--------|--------|--------|--------|--------|--------|
G|--------|--------|--------|--------|--------|--------|--------|--------|--------|
D|--------|--------|--------|--------|--------|--------|--------|--------|--------|
A|--------|--------|--------|--------|--------|--------|--------|--------|--------|
E|--------|--------|--------|--------|--------|--------|--------|--------|--------|


E|--------|--------|--------|--------|------------------------------|------------------------------|
B|--------|--------|--------|--------|------------------------------|------------------------------|
G|--------|--------|--------|--------|-4---4---4---4----4---4---4---|-4---4---4---4----4---4---4---|
D|--------|--------|--------|--------|-4---4---4---4----4---4---4---|-4---4---4---4----4---4---4---|
A|--------|--------|--------|--------|-2---2---2---2----2---2---2---|-2---2---2---2----2---2---2---|
E|--------|--------|--------|--------|------------------------------|------------------------------|


E|---------------------------|---------------------------|------------------------------|
B|---------------------------|---------------------------|------------------------------|
G|---------------------------|---------------------------|-4---4---4---4----4---4---4---|
D|-5---5----5---5------------|-4---4----4---4------------|-4---4---4---4----4---4---4---|
A|-5---5----5---5----5---5---|-4---4----4---4----4---4---|-2---2---2---2----2---2---2---|
E|-3---3----3---3----3---3---|-2---2----2---2----2---2---|------------------------------|


E|------------------------------|---------------------------------|---------------------------------|
B|------------------------------|---------------------------------|---------------------------------|
G|-4---4---4---4----4---4---4---|---------------------------------|---------------------------------|
D|-4---4---4---4----4---4---4---|---------------------------------|---------------------------------|
A|-2---2---2---2----2---2---2---|-5---5-------------------5---5---|-7---7-------------------7---7---|
E|------------------------------|-3---3---3---3---3---3---3---3---|-5---5---5---5---5---5---5---5---|


E|------------------------------|---------------------------|------------------------|
B|------------------------------|---------------------------|------------------------|
G|-4---4---4---4----4---6---7---|-7---7---7---12----11------|-12--12---11----12--12--|
D|-4---4---4---4----4---6---7---|-7---7---7---12----12--12--|-12--12---11----12--12--|
A|-2---2---2---2----2---4---5---|-5---5---5---10----10------|-10--10---9-----10--10--|
E|------------------------------|---------------------------|------------------------|


E|------------------------|------------------------------|---------------------------------|
B|------------------------|------------------------------|---------------------------------|
G|-14--14---12----12--14--|-16--16--16--16---16--18--19--|-19--18--18--18--16--16--16--12--|
D|-14--14---12----11--11--|-16--16--16--16---16--18--19--|-19--19--18--18--16--16--16--14--|
A|-12--12---10----10--12--|-14--14--14--14---14--16--17--|-17--16--16--16--14--14--14--10--|
E|------------------------|------------------------------|---------------------------------|


E|---------------------------------|---------------------------------|---------------------------------|
B|---------------------------------|---------------------------------|---------------------------------|
G|-12--11--11--11--7---7---7---6---|-2---2-------------------2---2---|-4---4---4---4---4---4---4---4---|
D|-12--11--11--11--7---7---7---6---|-2---2-------------------2---2---|-4---4---4---4---4---4---4---4---|
A|-10--9---9---9---5---5---5---4---|-0---0---0---0---0---0---0---0---|-2---2---2---2---2---2---2---2---|
E|---------------------------------|---------------------------------|---------------------------------|


E|---------------------------------|---------------------------------|---------------------------------|
B|---------------------------------|---------------------------------|---------------------------------|
G|---------------------------------|-7---7---7---7---7---7---7---7---|---------------------------------|
D|-5---5---5---5---5---5---5---5---|-7---7---7---7---7---7---7---7---|-7---7---7---7---7---7---7---7---|
A|-5---5---5---5---5---5---5---5---|-5---5---5---5---5---5---5---5---|-7---7---7---7---7---7---7---7---|
E|-3---3---3---3---3---3---3---3---|---------------------------------|-5---5---5---5---5---5---5---5---|


E|---------------------------------|---------------------------------|---------------------------------|
B|---------------------------------|---------------------------------|---------------------------------|
G|-4---4---4---4---4---4---4---4---|---------------------------------|-7---7---7---7---7---7---7---7---|
D|-4---4---4---4---4---4---4---4---|-5---5---5---5---5---5---5---5---|-7---7---7---7---7---7---7---7---|
A|-2---2---2---2---2---2---2---2---|-5---5---5---5---5---5---5---5---|-5---5---5---5---5---5---5---5---|
E|---------------------------------|-3---3---3---3---3---3---3---3---|---------------------------------|


E|---------------------------------|-----------------------|---------------------------------|
B|---------------------------------|-----------------------|---------------------------------|
G|---------------------------------|-4-----4---------------|---------------------------------|
D|-7---7---7---7---7---7---7---7---|-4-----4---------------|-------------2-------------------|
A|-7---7---7---7---7---7---7---7---|-2-----2-----------1---|-2---4---5-------5---4---2---1---|
E|-5---5---5---5---5---5---5---5---|-2-----2---2---3-------|---------------------------------|


E|--------|--------|--------|--------|--------|--------|--------|--------|--------|
B|--------|--------|--------|--------|--------|--------|--------|--------|--------|
G|--------|--------|--------|--------|--------|--------|--------|--------|--------|
D|--------|--------|--------|--------|--------|--------|--------|--------|--------|
A|--------|--------|--------|--------|--------|--------|--------|--------|--------|
E|--------|--------|--------|--------|--------|--------|--------|--------|--------|


E|--------|--------|--------|--------|--------|--------|--------|--------|--------|
B|--------|--------|--------|--------|--------|--------|--------|--------|--------|
G|--------|--------|--------|--------|--------|--------|--------|--------|--------|
D|--------|--------|--------|--------|--------|--------|--------|--------|--------|
A|--------|--------|--------|--------|--------|--------|--------|--------|--------|
E|--------|--------|--------|--------|--------|--------|--------|--------|--------|


E|--------|--------|--------|--------|--------|--------|------------------------------|
B|--------|--------|--------|--------|--------|--------|------------------------------|
G|--------|--------|--------|--------|--------|--------|-4---4---4---4----4---4---4---|
D|--------|--------|--------|--------|--------|--------|-4---4---4---4----4---4---4---|
A|--------|--------|--------|--------|--------|--------|-2---2---2---2----2---2---2---|
E|--------|--------|--------|--------|--------|--------|------------------------------|


E|------------------------------|---------------------------|---------------------------|
B|------------------------------|---------------------------|---------------------------|
G|-4---4---4---4----4---4---4---|---------------------------|---------------------------|
D|-4---4---4---4----4---4---4---|-5---5----5---5------------|-4---4----4---4------------|
A|-2---2---2---2----2---2---2---|-5---5----5---5----5---5---|-4---4----4---4----4---4---|
E|------------------------------|-3---3----3---3----3---3---|-2---2----2---2----2---2---|


E|------------------------------|------------------------------|---------------------------------|
B|------------------------------|------------------------------|---------------------------------|
G|-4---4---4---4----4---4---4---|-4---4---4---4----4---4---4---|---------------------------------|
D|-4---4---4---4----4---4---4---|-4---4---4---4----4---4---4---|---------------------------------|
A|-2---2---2---2----2---2---2---|-2---2---2---2----2---2---2---|-5---5-------------------5---5---|
E|------------------------------|------------------------------|-3---3---3---3---3---3---3---3---|


E|---------------------------------|------------------------------|---------------------------|
B|---------------------------------|------------------------------|---------------------------|
G|---------------------------------|-4---4---4---4----4---6---7---|-7---7---7---12----11------|
D|---------------------------------|-4---4---4---4----4---6---7---|-7---7---7---12----12--12--|
A|-7---7-------------------7---7---|-2---2---2---2----2---4---5---|-5---5---5---10----10------|
E|-5---5---5---5---5---5---5---5---|------------------------------|---------------------------|


E|------------------------|------------------------|------------------------------|
B|------------------------|------------------------|------------------------------|
G|-12--12---11----12--12--|-14--14---12----12--14--|-16--16--16--16---16--18--19--|
D|-12--12---11----12--12--|-14--14---12----11--11--|-16--16--16--16---16--18--19--|
A|-10--10---9-----10--10--|-12--12---10----10--12--|-14--14--14--14---14--16--17--|
E|------------------------|------------------------|------------------------------|


E|---------------------------------|---------------------------------|---------------------------------|
B|---------------------------------|---------------------------------|---------------------------------|
G|-19--18--18--18--16--16--16--12--|-12--11--11--11--7---7---7---6---|-2---2-------------------2---2---|
D|-19--19--18--18--16--16--16--14--|-12--11--11--11--7---7---7---6---|-2---2-------------------2---2---|
A|-17--16--16--16--14--14--14--10--|-10--9---9---9---5---5---5---4---|-0---0---0---0---0---0---0---0---|
E|---------------------------------|---------------------------------|---------------------------------|


E|----------------|-2---2----------|-7---7---------------------|-------------------------2---2---|
B|----------------|-2---2----------|-7---7---------------------|-------------------------2---2---|
G|-4---4----------|-4---4----------|-7---7---------------------|-------------------------2---2---|
D|-4---4----------|-4---4----------|-9---9---------------------|-----------------4---4---4---4---|
A|-2---2----------|-2---2----------|-9---9---------------------|-4---4---4---4---4---4---4---4---|
E|----------------|----------------|-7---7---------7---5---2---|-2---2---2---2---2---2---2---2---|


E|------------------------------|------------------------------|------------------------------|
B|------------------------------|------------------------------|------------------------------|
G|-4---4----4---4---4---4---4---|-4---4---4---4---4---4----4---|------------------------------|
D|-4---4----4---4---4---4---4---|-4---4---4---4---4---4----4---|-5---5----5---5---5---5---5---|
A|-2---2----2---2---2---2---2---|-2---2---2---2---2---2----2---|-5---5----5---5---5---5---5---|
E|------------------------------|------------------------------|-3---3----3---3---3---3---3---|


E|------------------------------|------------------------------|------------------------------|
B|------------------------------|------------------------------|------------------------------|
G|------------------------------|-4---4----4---4---4---4---4---|-4---4---4---4---4---4----4---|
D|-4---4---4---4---4---4----4---|-4---4----4---4---4---4---4---|-4---4---4---4---4---4----4---|
A|-4---4---4---4---4---4----4---|-2---2----2---2---2---2---2---|-2---2---2---2---2---2----2---|
E|-2---2---2---2---2---2----2---|------------------------------|------------------------------|


E|---------------------------|------------------------------|------------------------------|
B|---------------------------|------------------------------|------------------------------|
G|---------------------------|------------------------------|-4---4----4---4---4---4---4---|
D|-5---5----5---5---5----5---|-7---7----7---7---7---7---7---|-4---4----4---4---4---4---4---|
A|-5---5----5---5---5----5---|-7---7----7---7---7---7---7---|-2---2----2---2---2---2---2---|
E|-3---3----3---3---3----3---|-5---5----5---5---5---5---5---|------------------------------|


E|------------------------------|------------------------------|------------------------------|
B|------------------------------|------------------------------|------------------------------|
G|-4---4---4---4---4---4----4---|------------------------------|------------------------------|
D|-4---4---4---4---4---4----4---|-5---5----5---5---5---5---5---|-4---4---4---4---4---4----4---|
A|-2---2---2---2---2---2----2---|-5---5----5---5---5---5---5---|-4---4---4---4---4---4----4---|
E|------------------------------|-3---3----3---3---3---3---3---|-2---2---2---2---2---2----2---|


E|------------------------------|------------------------------|---------------------------------|
B|------------------------------|------------------------------|---------------------------------|
G|-4---4----4---4---4---4---4---|-4---4---4---4---4---4----4---|---------------------------------|
D|-4---4----4---4---4---4---4---|-4---4---4---4---4---4----4---|---------------------------------|
A|-2---2----2---2---2---2---2---|-2---2---2---2---2---2----2---|-5---5-------------------5---5---|
E|------------------------------|------------------------------|-3---3---3---3---3---3---3---3---|


E|---------------------------------|---------------------------------|---------------------------------|
B|---------------------------------|---------------------------------|---------------------------------|
G|---------------------------------|-4---4---4---4---4---4---4---4---|---------------------------------|
D|---------------------------------|-4---4---4---4---4---4---4---4---|-5---5---5---5---5---5---5---5---|
A|-7---7-------------------7---7---|-2---2---2---2---2---2---2---2---|-5---5---5---5---5---5---5---5---|
E|-5---5---5---5---5---5---5---5---|---------------------------------|-3---3---3---3---3---3---3---3---|


E|---------------------------------|---------------------------------|---------------------------------|
B|---------------------------------|---------------------------------|---------------------------------|
G|-7---7---7---7---7---7---7---7---|---------------------------------|-4---4---4---4---4---4---4---4---|
D|-7---7---7---7---7---7---7---7---|-7---7---7---7---7---7---7---7---|-4---4---4---4---4---4---4---4---|
A|-5---5---5---5---5---5---5---5---|-7---7---7---7---7---7---7---7---|-2---2---2---2---2---2---2---2---|
E|---------------------------------|-5---5---5---5---5---5---5---5---|---------------------------------|


E|---------------------------------|---------------------------------|-------------|
B|---------------------------------|---------------------------------|-------------|
G|---------------------------------|-7---7---7---7---7---7---7---7---|-------------|
D|-5---5---5---5---5---5---5---5---|-7---7---7---7---7---7---7---7---|-4-----------|
A|-5---5---5---5---5---5---5---5---|-5---5---5---5---5---5---5---5---|-4-----------|
E|-3---3---3---3---3---3---3---3---|---------------------------------|-2-----------|


E|--------|--------|--------|--------|--------|----------------|---------------------------------|
B|--------|--------|--------|--------|--------|----------------|---------------------------------|
G|-4------|-4------|-4------|-4------|--------|----------------|---------------------------------|
D|-4------|-4------|-4------|-4------|--------|----------------|---------------------------------|
A|-2------|-2------|-2------|-2------|--------|--------4---4---|-5---5---5---5---5---5---5---5---|
E|--------|--------|--------|--------|--------|----------------|---------------------------------|


E|---------------------------------|---------------------------------|---------------------------|
B|---------------------------------|---------------------------------|----------------------8----|
G|---------------------------------|---------------------------------|---------------------------|
D|---------------------------------|---------------------------------|-----------------5----5----|
A|-5---5---5---5---5---5---5---5---|---------------------------------|-5---5---5---5-------------|
E|---------------------------------|-3---3---3---3---3---3---3---3---|---------------------------|


E|-------------|--------------------|------------------|------------------|---------------------|
B|-11----8-----|--------------------|------------------|------------------|---------------------|
G|-8-----5-----|-9-----6----6---6---|-6----------------|------------------|---------------------|
D|-8-----5-----|-7-----4----4---4---|-4----------------|------------------|---------------------|
A|-------------|-7-----4----4---4---|-4-----4-----12---|-10----9-----7----|---------------------|
E|-------------|--------------------|------------------|------------------|-2----2----2----2----|


E|---------------------|---------------------------------|---------------------------------|
B|---------------------|-12--0-------12--0-------14--0---|-----14--0-------15--0-------0---|
G|---------------------|---------11----------11----------|-11----------11----------11------|
D|---------------------|---------------------------------|---------------------------------|
A|---------------------|---------------------------------|---------------------------------|
E|-2----2----2----2----|---------------------------------|---------------------------------|


E|------------------------------|------------------------------|---------------------------|
B|------------------------------|------------------------------|---------------------------|
G|-4---4---4---4----4---4---4---|-4---4---4---4----4---4---4---|---------------------------|
D|-4---4---4---4----4---4---4---|-4---4---4---4----4---4---4---|-5---5----5---5------------|
A|-2---2---2---2----2---2---2---|-2---2---2---2----2---2---2---|-5---5----5---5----5---5---|
E|------------------------------|------------------------------|-3---3----3---3----3---3---|


E|---------------------------|------------------------------|------------------------------|
B|---------------------------|------------------------------|------------------------------|
G|---------------------------|-4---4---4---4----4---4---4---|-4---4---4---4----4---4---4---|
D|-4---4----4---4------------|-4---4---4---4----4---4---4---|-4---4---4---4----4---4---4---|
A|-4---4----4---4----4---4---|-2---2---2---2----2---2---2---|-2---2---2---2----2---2---2---|
E|-2---2----2---2----2---2---|------------------------------|------------------------------|


E|---------------------------------|---------------------------------|------------------------------|
B|---------------------------------|---------------------------------|------------------------------|
G|---------------------------------|---------------------------------|-4---4---4---4----4---6---7---|
D|---------------------------------|---------------------------------|-4---4---4---4----4---6---7---|
A|-5---5-------------------5---5---|-7---7-------------------7---7---|-2---2---2---2----2---4---5---|
E|-3---3---3---3---3---3---3---3---|-5---5---5---5---5---5---5---5---|------------------------------|


E|---------------------------|------------------------|------------------------|------------------------------|
B|---------------------------|------------------------|------------------------|------------------------------|
G|-7---7---7---12----11------|-12--12---11----12--12--|-14--14---12----12--14--|-16--16--16--16---16--18--19--|
D|-7---7---7---12----12--12--|-12--12---11----12--12--|-14--14---12----11--11--|-16--16--16--16---16--18--19--|
A|-5---5---5---10----10------|-10--10---9-----10--10--|-12--12---10----10--12--|-14--14--14--14---14--16--17--|
E|---------------------------|------------------------|------------------------|------------------------------|


E|---------------------------------|---------------------------------|---------------------------------|
B|---------------------------------|---------------------------------|---------------------------------|
G|-19--18--18--18--16--16--16--12--|-12--11--11--11--7---7---7---6---|-2---2-------------------2---2---|
D|-19--19--18--18--16--16--16--14--|-12--11--11--11--7---7---7---6---|-2---2-------------------2---2---|
A|-17--16--16--16--14--14--14--10--|-10--9---9---9---5---5---5---4---|-0---0---0---0---0---0---0---0---|
E|---------------------------------|---------------------------------|---------------------------------|


E|---------------------------------|
B|---------------------------------|
G|-4-------4-------4---4---4---4---|
D|-2-------2-------2---2---4---2---|
A|-2-------2-------2---2---2---2---|
E|---------------------------------|





Track 3: Verse 1

E|--------|--------|--------|--------|--------|--------|--------|--------|--------|
B|--------|--------|--------|--------|--------|--------|--------|--------|--------|
G|--------|--------|--------|--------|--------|--------|--------|--------|--------|
D|--------|--------|--------|--------|--------|--------|--------|--------|--------|
A|--------|--------|--------|--------|--------|--------|--------|--------|--------|
E|--------|--------|--------|--------|--------|--------|--------|--------|--------|


E|--------|--------|--------|--------|--------|--------|--------|--------|--------|
B|--------|--------|--------|--------|--------|--------|--------|--------|--------|
G|--------|--------|--------|--------|--------|--------|--------|--------|--------|
D|--------|--------|--------|--------|--------|--------|--------|--------|--------|
A|--------|--------|--------|--------|--------|--------|--------|--------|--------|
E|--------|--------|--------|--------|--------|--------|--------|--------|--------|


E|--------|--------|--------|--------|--------|--------|------------------------------|
B|--------|--------|--------|--------|--------|--------|------------------------------|
G|--------|--------|--------|--------|--------|--------|-4----------------------------|
D|--------|--------|--------|--------|--------|--------|-4----------------------------|
A|--------|--------|--------|--------|--------|--------|-2----2---2---2---2---2---2---|
E|--------|--------|--------|--------|--------|--------|------------------------------|


E|------------------------------|------------------------------|------------------------------|
B|------------------------------|------------------------------|------------------------------|
G|-------------------------4----|-4----------------------------|-------------------------4----|
D|-------------------------4----|-4----------------------------|-------------------------4----|
A|-2---2---2---2---2---2---2----|-2----2---2---2---2---2---2---|-2---2---2---2---2---2---2----|
E|------------------------------|------------------------------|------------------------------|


E|------------------------------|---------------------------------|------------------------------|
B|------------------------------|---------------------------------|------------------------------|
G|-2----------------------------|---------------------------------|------------------------------|
D|-2----------------------------|---------------------------------|------------------------------|
A|-0----4---4---4---4---4---4---|-4---4---4---4---4---4---4---4---|-2----2---2---2---2---2---2---|
E|------------------------------|---------------------------------|-3----------------------------|


E|------------------------------|------------------------------|------------------------------|
B|------------------------------|------------------------------|------------------------------|
G|------------------------------|-4----------------------------|-------------------------4----|
D|------------------------------|-4----------------------------|-------------------------4----|
A|-2----2---2---2---2---2---2---|-2----2---2---2---2---2---2---|-2---2---2---2---2---2---2----|
E|-2----------------------------|------------------------------|------------------------------|


E|------------------------------|------------------------------|------------------------------|
B|------------------------------|------------------------------|------------------------------|
G|-4----------------------------|-------------------------4----|-2----------------------------|
D|-4----------------------------|-------------------------4----|-2----------------------------|
A|-2----2---2---2---2---2---2---|-2---2---2---2---2---2---2----|-0----4---4---4---4---4---4---|
E|------------------------------|------------------------------|------------------------------|


E|---------------------------------|------------------------------|------------------------------|
B|---------------------------------|------------------------------|------------------------------|
G|---------------------------------|------------------------------|------------------------------|
D|---------------------------------|------------------------------|------------------------------|
A|-4---4---4---4---4---4---4---4---|-2----2---2---2---2---2---2---|-2----2---2---2---2---2---2---|
E|---------------------------------|-3----------------------------|-2----------------------------|


E|------------------------------|------------------------------|------------------------------|
B|------------------------------|------------------------------|------------------------------|
G|-4----4---4---4---4---4---4---|-7----7---7---7---7---7---7---|------------------------------|
D|-4----4---4---4---4---4---4---|-7----7---7---7---7---7---7---|-7----7---7---7---7---7---7---|
A|-2----2---2---2---2---2---2---|-5----5---5---5---5---5---5---|-7----7---7---7---7---7---7---|
E|------------------------------|------------------------------|-5----5---5---5---5---5---5---|


E|------------------------------|------------------------------|------------------------------|
B|------------------------------|------------------------------|------------------------------|
G|------------------------------|-4----4---4---4---4---4---4---|-7----7---7---7---7---7---7---|
D|-7----7---7---7---7---7---7---|-4----4---4---4---4---4---4---|-7----7---7---7---7---7---7---|
A|-7----7---7---7---7---7---7---|-2----2---2---2---2---2---2---|-5----5---5---5---5---5---5---|
E|-5----5---5---5---5---5---5---|------------------------------|------------------------------|


E|---------------------------------|---------------------------------|--------|--------|
B|---------------------------------|---------------------------------|--------|--------|
G|-6---6---6---6-------------------|---------------------------------|--------|--------|
D|-7---7---7---7-----------0---2---|-4---2---0-------2---0-----------|--------|--------|
A|-4---4---4---4---4---5-----------|-------------4-----------4---1---|--------|--------|
E|---------------------------------|---------------------------------|--------|--------|


E|--------|--------|--------|--------|--------|--------|--------|--------|--------|
B|--------|--------|--------|--------|--------|--------|--------|--------|--------|
G|--------|--------|--------|--------|--------|--------|--------|--------|--------|
D|--------|--------|--------|--------|--------|--------|--------|--------|--------|
A|--------|--------|--------|--------|--------|--------|--------|--------|--------|
E|--------|--------|--------|--------|--------|--------|--------|--------|--------|


E|--------|--------|--------|--------|--------|--------|--------|--------|--------|
B|--------|--------|--------|--------|--------|--------|--------|--------|--------|
G|--------|--------|--------|--------|--------|--------|--------|--------|--------|
D|--------|--------|--------|--------|--------|--------|--------|--------|--------|
A|--------|--------|--------|--------|--------|--------|--------|--------|--------|
E|--------|--------|--------|--------|--------|--------|--------|--------|--------|


E|--------|--------|--------|--------|--------|--------|------------------------------|
B|--------|--------|--------|--------|--------|--------|------------------------------|
G|--------|--------|--------|--------|--------|--------|-4----------------------------|
D|--------|--------|--------|--------|--------|--------|-4----------------------------|
A|--------|--------|--------|--------|--------|--------|-2----2---2---2---2---2---2---|
E|--------|--------|--------|--------|--------|--------|------------------------------|


E|------------------------------|------------------------------|------------------------------|
B|------------------------------|------------------------------|------------------------------|
G|-------------------------4----|-4----------------------------|-------------------------4----|
D|-------------------------4----|-4----------------------------|-------------------------4----|
A|-2---2---2---2---2---2---2----|-2----2---2---2---2---2---2---|-2---2---2---2---2---2---2----|
E|------------------------------|------------------------------|------------------------------|


E|------------------------------|---------------------------------|------------------------------|
B|------------------------------|---------------------------------|------------------------------|
G|-2----------------------------|---------------------------------|------------------------------|
D|-2----------------------------|---------------------------------|------------------------------|
A|-0----4---4---4---4---4---4---|-4---4---4---4---4---4---4---4---|-2----2---2---2---2---2---2---|
E|------------------------------|---------------------------------|-3----------------------------|


E|------------------------------|------------------------------|------------------------------|
B|------------------------------|------------------------------|------------------------------|
G|------------------------------|-4----------------------------|-------------------------4----|
D|------------------------------|-4----------------------------|-------------------------4----|
A|-2----2---2---2---2---2---2---|-2----2---2---2---2---2---2---|-2---2---2---2---2---2---2----|
E|-2----------------------------|------------------------------|------------------------------|


E|------------------------------|------------------------------|------------------------------|
B|------------------------------|------------------------------|------------------------------|
G|-4----------------------------|-------------------------4----|-2----------------------------|
D|-4----------------------------|-------------------------4----|-2----------------------------|
A|-2----2---2---2---2---2---2---|-2---2---2---2---2---2---2----|-0----4---4---4---4---4---4---|
E|------------------------------|------------------------------|------------------------------|


E|---------------------------------|------------------------------|------------------------------|
B|---------------------------------|------------------------------|------------------------------|
G|---------------------------------|------------------------------|------------------------------|
D|---------------------------------|------------------------------|------------------------------|
A|-4---4---4---4---4---4---4---4---|-2----2---2---2---2---2---2---|-2----2---2---2---2---2---2---|
E|---------------------------------|-3----------------------------|-2----------------------------|


E|------------------------------|------------------------------|------------------------------|
B|------------------------------|------------------------------|------------------------------|
G|-4----4---4---4---4---4---4---|-7----7---7---7---7---7---7---|------------------------------|
D|-4----4---4---4---4---4---4---|-7----7---7---7---7---7---7---|-7----7---7---7---7---7---7---|
A|-2----2---2---2---2---2---2---|-5----5---5---5---5---5---5---|-7----7---7---7---7---7---7---|
E|------------------------------|------------------------------|-5----5---5---5---5---5---5---|


E|------------------------------|------------------------------|------------------------------|
B|------------------------------|------------------------------|------------------------------|
G|------------------------------|-4----4---4---4---4---4---4---|-7----7---7---7---7---7---7---|
D|-7----7---7---7---7---7---7---|-4----4---4---4---4---4---4---|-7----7---7---7---7---7---7---|
A|-7----7---7---7---7---7---7---|-2----2---2---2---2---2---2---|-5----5---5---5---5---5---5---|
E|-5----5---5---5---5---5---5---|------------------------------|------------------------------|


E|---------------------------------|---------------------------------|--------|--------|
B|---------------------------------|---------------------------------|--------|--------|
G|-6---6---6---6-------------------|---------------------------------|--------|--------|
D|-7---7---7---7-----------0---2---|-4---2---0-------2---0-----------|--------|--------|
A|-4---4---4---4---4---5-----------|-------------4-----------4---1---|--------|--------|
E|---------------------------------|---------------------------------|--------|--------|


E|--------|--------|--------|--------|--------|--------|--------|--------|--------|
B|--------|--------|--------|--------|--------|--------|--------|--------|--------|
G|--------|--------|--------|--------|--------|--------|--------|--------|--------|
D|--------|--------|--------|--------|--------|--------|--------|--------|--------|
A|--------|--------|--------|--------|--------|--------|--------|--------|--------|
E|--------|--------|--------|--------|--------|--------|--------|--------|--------|


E|--------|--------|--------|--------|--------|--------|--------|--------|--------|
B|--------|--------|--------|--------|--------|--------|--------|--------|--------|
G|--------|--------|--------|--------|--------|--------|--------|--------|--------|
D|--------|--------|--------|--------|--------|--------|--------|--------|--------|
A|--------|--------|--------|--------|--------|--------|--------|--------|--------|
E|--------|--------|--------|--------|--------|--------|--------|--------|--------|


E|--------|--------|--------|--------|--------|--------|--------|--------|--------|
B|--------|--------|--------|--------|--------|--------|--------|--------|--------|
G|--------|--------|--------|--------|--------|--------|--------|--------|--------|
D|--------|--------|--------|--------|--------|--------|--------|--------|--------|
A|--------|--------|--------|--------|--------|--------|--------|--------|--------|
E|--------|--------|--------|--------|--------|--------|--------|--------|--------|


E|--------|--------|--------|--------|--------|--------|--------|--------|--------|
B|--------|--------|--------|--------|--------|--------|--------|--------|--------|
G|--------|--------|--------|--------|--------|--------|--------|--------|--------|
D|--------|--------|--------|--------|--------|--------|--------|--------|--------|
A|--------|--------|--------|--------|--------|--------|--------|--------|--------|
E|--------|--------|--------|--------|--------|--------|--------|--------|--------|


E|--------|--------|--------|--------|--------|--------|--------|--------|--------|
B|--------|--------|--------|--------|--------|--------|--------|--------|--------|
G|--------|--------|--------|--------|--------|--------|--------|--------|--------|
D|--------|--------|--------|--------|--------|--------|--------|--------|--------|
A|--------|--------|--------|--------|--------|--------|--------|--------|--------|
E|--------|--------|--------|--------|--------|--------|--------|--------|--------|


E|--------|--------|--------|--------|--------|--------|--------|--------|--------|
B|--------|--------|--------|--------|--------|--------|--------|--------|--------|
G|--------|--------|--------|--------|--------|--------|--------|--------|--------|
D|--------|--------|--------|--------|--------|--------|--------|--------|--------|
A|--------|--------|--------|--------|--------|--------|--------|--------|--------|
E|--------|--------|--------|--------|--------|--------|--------|--------|--------|


E|--------|--------|--------|--------|--------|--------|--------|--------|--------|
B|--------|--------|--------|--------|--------|--------|--------|--------|--------|
G|--------|--------|--------|--------|--------|--------|--------|--------|--------|
D|--------|--------|--------|--------|--------|--------|--------|--------|--------|
A|--------|--------|--------|--------|--------|--------|--------|--------|--------|
E|--------|--------|--------|--------|--------|--------|--------|--------|--------|


E|--------|--------|--------|--------|--------|--------|--------|--------|--------|
B|--------|--------|--------|--------|--------|--------|--------|--------|--------|
G|--------|--------|--------|--------|--------|--------|--------|--------|--------|
D|--------|--------|--------|--------|--------|--------|--------|--------|--------|
A|--------|--------|--------|--------|--------|--------|--------|--------|--------|
E|--------|--------|--------|--------|--------|--------|--------|--------|--------|


E|--------|--------|--------|--------|--------|
B|--------|--------|--------|--------|--------|
G|--------|--------|--------|--------|--------|
D|--------|--------|--------|--------|--------|
A|--------|--------|--------|--------|--------|
E|--------|--------|--------|--------|--------|





Track 4: Verse 2

E|--------|--------|--------|--------|--------|--------|--------|--------|--------|
B|--------|--------|--------|--------|--------|--------|--------|--------|--------|
G|--------|--------|--------|--------|--------|--------|--------|--------|--------|
D|--------|--------|--------|--------|--------|--------|--------|--------|--------|
A|--------|--------|--------|--------|--------|--------|--------|--------|--------|
E|--------|--------|--------|--------|--------|--------|--------|--------|--------|


E|--------|--------|--------|--------|--------|--------|--------|--------|--------|
B|--------|--------|--------|--------|--------|--------|--------|--------|--------|
G|--------|--------|--------|--------|--------|--------|--------|--------|--------|
D|--------|--------|--------|--------|--------|--------|--------|--------|--------|
A|--------|--------|--------|--------|--------|--------|--------|--------|--------|
E|--------|--------|--------|--------|--------|--------|--------|--------|--------|


E|--------|--------|--------|--------|--------|--------|------------------------------|
B|--------|--------|--------|--------|--------|--------|------------------------------|
G|--------|--------|--------|--------|--------|--------|-4----------------------------|
D|--------|--------|--------|--------|--------|--------|-4----------------------------|
A|--------|--------|--------|--------|--------|--------|------5---5---5---5---5---5---|
E|--------|--------|--------|--------|--------|--------|------------------------------|


E|------------------------------|------------------------------|---------------------------------|
B|------------------------------|------------------------------|---------------------------------|
G|-------------------------4----|-6----------------------------|---------------------------------|
D|-------------------------4----|-4----------------------------|---------------------------------|
A|-5---5---5---5---5---5--------|------4---4---4---4---4---4---|-4---4---4---4---4---4---4---4---|
E|------------------------------|------------------------------|---------------------------------|


E|------------------------------|---------------------------------|------------------------------|
B|------------------------------|---------------------------------|------------------------------|
G|-2----------------------------|---------------------------------|------------------------------|
D|-2----------------------------|---------------------------------|-5----------------------------|
A|------0---0---0---0---0---0---|-0---0---0---0---0---0---0---0---|-5----------------------------|
E|------------------------------|---------------------------------|-3----3---3---3---3---3---3---|


E|------------------------------|------------------------------|------------------------------|
B|------------------------------|------------------------------|------------------------------|
G|------------------------------|-4----------------------------|-------------------------4----|
D|------------------------------|-4----------------------------|-------------------------4----|
A|-2----------------------------|------5---5---5---5---5---5---|-5---5---5---5---5---5--------|
E|-2----2---2---2---2---2---2---|------------------------------|------------------------------|


E|------------------------------|---------------------------------|------------------------------|
B|------------------------------|---------------------------------|------------------------------|
G|-6----------------------------|---------------------------------|-2----------------------------|
D|-4----------------------------|---------------------------------|-2----------------------------|
A|------4---4---4---4---4---4---|-4---4---4---4---4---4---4---4---|------0---0---0---0---0---0---|
E|------------------------------|---------------------------------|------------------------------|


E|---------------------------------|------------------------------|------------------------------|
B|---------------------------------|------------------------------|------------------------------|
G|---------------------------------|------------------------------|------------------------------|
D|---------------------------------|-5----------------------------|------------------------------|
A|-0---0---0---0---0---0---0---0---|-5----------------------------|-2----------------------------|
E|---------------------------------|-3----3---3---3---3---3---3---|-2----2---2---2---2---2---2---|


E|------------------------------|------------------------------|------------------------------|
B|------------------------------|------------------------------|------------------------------|
G|-4----4---4---4---4---4---4---|-7----7---7---7---7---7---7---|------------------------------|
D|-4----4---4---4---4---4---4---|-7----7---7---7---7---7---7---|-7----7---7---7---7---7---7---|
A|-2----2---2---2---2---2---2---|-5----5---5---5---5---5---5---|-7----7---7---7---7---7---7---|
E|------------------------------|------------------------------|-5----5---5---5---5---5---5---|


E|------------------------------|------------------------------|------------------------------|
B|------------------------------|------------------------------|------------------------------|
G|------------------------------|-4----4---4---4---4---4---4---|-7----7---7---7---7---7---7---|
D|-7----7---7---7---7---7---7---|-4----4---4---4---4---4---4---|-7----7---7---7---7---7---7---|
A|-7----7---7---7---7---7---7---|-2----2---2---2---2---2---2---|-5----5---5---5---5---5---5---|
E|-5----5---5---5---5---5---5---|------------------------------|------------------------------|


E|---------------------------------|---------------------------------|--------|--------|
B|---------------------------------|---------------------------------|--------|--------|
G|-6---6---6---6---6---6---6---6---|---------------------------------|--------|--------|
D|-7---7---7---7---7---7---7---7---|-7---5---4-------5---4-----------|--------|--------|
A|-4---4---4---4---4---4---4---4---|-------------7-----------7---4---|--------|--------|
E|---------------------------------|---------------------------------|--------|--------|


E|--------|--------|--------|--------|--------|--------|--------|--------|--------|
B|--------|--------|--------|--------|--------|--------|--------|--------|--------|
G|--------|--------|--------|--------|--------|--------|--------|--------|--------|
D|--------|--------|--------|--------|--------|--------|--------|--------|--------|
A|--------|--------|--------|--------|--------|--------|--------|--------|--------|
E|--------|--------|--------|--------|--------|--------|--------|--------|--------|


E|--------|--------|--------|--------|--------|--------|--------|--------|--------|
B|--------|--------|--------|--------|--------|--------|--------|--------|--------|
G|--------|--------|--------|--------|--------|--------|--------|--------|--------|
D|--------|--------|--------|--------|--------|--------|--------|--------|--------|
A|--------|--------|--------|--------|--------|--------|--------|--------|--------|
E|--------|--------|--------|--------|--------|--------|--------|--------|--------|


E|--------|--------|--------|--------|--------|--------|------------------------------|
B|--------|--------|--------|--------|--------|--------|------------------------------|
G|--------|--------|--------|--------|--------|--------|-4----------------------------|
D|--------|--------|--------|--------|--------|--------|-4----------------------------|
A|--------|--------|--------|--------|--------|--------|------5---5---5---5---5---5---|
E|--------|--------|--------|--------|--------|--------|------------------------------|


E|------------------------------|------------------------------|---------------------------------|
B|------------------------------|------------------------------|---------------------------------|
G|-------------------------4----|-6----------------------------|---------------------------------|
D|-------------------------4----|-4----------------------------|---------------------------------|
A|-5---5---5---5---5---5--------|------4---4---4---4---4---4---|-4---4---4---4---4---4---4---4---|
E|------------------------------|------------------------------|---------------------------------|


E|------------------------------|---------------------------------|------------------------------|
B|------------------------------|---------------------------------|------------------------------|
G|-2----------------------------|---------------------------------|------------------------------|
D|-2----------------------------|---------------------------------|-5----------------------------|
A|------0---0---0---0---0---0---|-0---0---0---0---0---0---0---0---|-5----------------------------|
E|------------------------------|---------------------------------|-3----3---3---3---3---3---3---|


E|------------------------------|------------------------------|------------------------------|
B|------------------------------|------------------------------|------------------------------|
G|------------------------------|-4----------------------------|-------------------------4----|
D|------------------------------|-4----------------------------|-------------------------4----|
A|-2----------------------------|------5---5---5---5---5---5---|-5---5---5---5---5---5--------|
E|-2----2---2---2---2---2---2---|------------------------------|------------------------------|


E|------------------------------|---------------------------------|------------------------------|
B|------------------------------|---------------------------------|------------------------------|
G|-6----------------------------|---------------------------------|-2----------------------------|
D|-4----------------------------|---------------------------------|-2----------------------------|
A|------4---4---4---4---4---4---|-4---4---4---4---4---4---4---4---|------0---0---0---0---0---0---|
E|------------------------------|---------------------------------|------------------------------|


E|---------------------------------|------------------------------|------------------------------|
B|---------------------------------|------------------------------|------------------------------|
G|---------------------------------|------------------------------|------------------------------|
D|---------------------------------|-5----------------------------|------------------------------|
A|-0---0---0---0---0---0---0---0---|-5----------------------------|-2----------------------------|
E|---------------------------------|-3----3---3---3---3---3---3---|-2----2---2---2---2---2---2---|


E|------------------------------|------------------------------|------------------------------|
B|------------------------------|------------------------------|------------------------------|
G|-4----4---4---4---4---4---4---|-7----7---7---7---7---7---7---|------------------------------|
D|-4----4---4---4---4---4---4---|-7----7---7---7---7---7---7---|-7----7---7---7---7---7---7---|
A|-2----2---2---2---2---2---2---|-5----5---5---5---5---5---5---|-7----7---7---7---7---7---7---|
E|------------------------------|------------------------------|-5----5---5---5---5---5---5---|


E|------------------------------|------------------------------|------------------------------|
B|------------------------------|------------------------------|------------------------------|
G|------------------------------|-4----4---4---4---4---4---4---|-7----7---7---7---7---7---7---|
D|-7----7---7---7---7---7---7---|-4----4---4---4---4---4---4---|-7----7---7---7---7---7---7---|
A|-7----7---7---7---7---7---7---|-2----2---2---2---2---2---2---|-5----5---5---5---5---5---5---|
E|-5----5---5---5---5---5---5---|------------------------------|------------------------------|


E|---------------------------------|---------------------------------|--------|--------|
B|---------------------------------|---------------------------------|--------|--------|
G|-6---6---6---6---6---6---6---6---|---------------------------------|--------|--------|
D|-7---7---7---7---7---7---7---7---|-7---5---4-------5---4-----------|--------|--------|
A|-4---4---4---4---4---4---4---4---|-------------7-----------7---4---|--------|--------|
E|---------------------------------|---------------------------------|--------|--------|


E|--------|--------|--------|--------|--------|--------|--------|--------|--------|
B|--------|--------|--------|--------|--------|--------|--------|--------|--------|
G|--------|--------|--------|--------|--------|--------|--------|--------|--------|
D|--------|--------|--------|--------|--------|--------|--------|--------|--------|
A|--------|--------|--------|--------|--------|--------|--------|--------|--------|
E|--------|--------|--------|--------|--------|--------|--------|--------|--------|


E|--------|--------|--------|--------|--------|--------|--------|--------|--------|
B|--------|--------|--------|--------|--------|--------|--------|--------|--------|
G|--------|--------|--------|--------|--------|--------|--------|--------|--------|
D|--------|--------|--------|--------|--------|--------|--------|--------|--------|
A|--------|--------|--------|--------|--------|--------|--------|--------|--------|
E|--------|--------|--------|--------|--------|--------|--------|--------|--------|


E|--------|--------|--------|--------|--------|--------|--------|--------|--------|
B|--------|--------|--------|--------|--------|--------|--------|--------|--------|
G|--------|--------|--------|--------|--------|--------|--------|--------|--------|
D|--------|--------|--------|--------|--------|--------|--------|--------|--------|
A|--------|--------|--------|--------|--------|--------|--------|--------|--------|
E|--------|--------|--------|--------|--------|--------|--------|--------|--------|


E|--------|--------|--------|--------|--------|--------|--------|--------|--------|
B|--------|--------|--------|--------|--------|--------|--------|--------|--------|
G|--------|--------|--------|--------|--------|--------|--------|--------|--------|
D|--------|--------|--------|--------|--------|--------|--------|--------|--------|
A|--------|--------|--------|--------|--------|--------|--------|--------|--------|
E|--------|--------|--------|--------|--------|--------|--------|--------|--------|


E|--------|--------|--------|--------|--------|--------|--------|--------|--------|
B|--------|--------|--------|--------|--------|--------|--------|--------|--------|
G|--------|--------|--------|--------|--------|--------|--------|--------|--------|
D|--------|--------|--------|--------|--------|--------|--------|--------|--------|
A|--------|--------|--------|--------|--------|--------|--------|--------|--------|
E|--------|--------|--------|--------|--------|--------|--------|--------|--------|


E|--------|--------|--------|--------|--------|--------|--------|--------|--------|
B|--------|--------|--------|--------|--------|--------|--------|--------|--------|
G|--------|--------|--------|--------|--------|--------|--------|--------|--------|
D|--------|--------|--------|--------|--------|--------|--------|--------|--------|
A|--------|--------|--------|--------|--------|--------|--------|--------|--------|
E|--------|--------|--------|--------|--------|--------|--------|--------|--------|


E|--------|--------|--------|--------|--------|--------|--------|--------|--------|
B|--------|--------|--------|--------|--------|--------|--------|--------|--------|
G|--------|--------|--------|--------|--------|--------|--------|--------|--------|
D|--------|--------|--------|--------|--------|--------|--------|--------|--------|
A|--------|--------|--------|--------|--------|--------|--------|--------|--------|
E|--------|--------|--------|--------|--------|--------|--------|--------|--------|


E|--------|--------|--------|--------|--------|--------|--------|--------|--------|
B|--------|--------|--------|--------|--------|--------|--------|--------|--------|
G|--------|--------|--------|--------|--------|--------|--------|--------|--------|
D|--------|--------|--------|--------|--------|--------|--------|--------|--------|
A|--------|--------|--------|--------|--------|--------|--------|--------|--------|
E|--------|--------|--------|--------|--------|--------|--------|--------|--------|


E|--------|--------|--------|--------|--------|
B|--------|--------|--------|--------|--------|
G|--------|--------|--------|--------|--------|
D|--------|--------|--------|--------|--------|
A|--------|--------|--------|--------|--------|
E|--------|--------|--------|--------|--------|





Track 5: Bass

G|--------|--------|--------|--------|--------|--------|--------|--------|--------|
D|--------|--------|--------|--------|--------|--------|--------|--------|--------|
A|--------|--------|--------|--------|--------|--------|--------|--------|-2------|
E|--------|--------|--------|--------|--------|--------|--------|--------|--------|


G|--------|--------|-------------|--------|--------|--------|--------------------|
D|--------|--------|--------5----|--------|--------|--------|--------------------|
A|--------|-5------|-5-----------|-2------|--------|-5------|-5------------------|
E|-3------|--------|-------------|--------|-3------|--------|-------5----5---5---|


G|---------------------------------|---------------------------------|---------------------------------|
D|---------------------------------|---------------------------------|---------------------------------|
A|-2---2---2---2---2---2---2---2---|---------------------------------|-5---5---5---5---5---5---5---5---|
E|---------------------------------|-3---3---3---3---3---3---3---3---|---------------------------------|


G|------------------------------|---------------------------------|---------------------------------|
D|------------------------------|---------------------------------|---------------------------------|
A|-7----7---5---5---5---4---4---|-2---2---2---2---2---2---2---2---|---------------------------------|
E|------------------------------|---------------------------------|-3---3---3---3---3---3---3---3---|


G|---------------------------------|--------|---------------------------|---------------------------|
D|---------------------------------|--------|---------------------------|---------------------------|
A|-5---5---5---5---5---5---5---5---|--------|-2----2---2---0---2---5----|-5----2---2----2---0---2---|
E|---------------------------------|--------|---------------------------|---------------------------|


G|------------------------------|------------------------------|------------------------------|
D|------------------------------|------------------------------|------------------------------|
A|-4----4---4---4---4---4---4---|-4---4---4---2----2---2---2---|-0---0---0---0----0---0---0---|
E|------------------------------|------------------------------|------------------------------|


G|------------------------------|------------------------------|------------------------------|
D|------------------------------|------------------------------|------------------------------|
A|-4---4---4---4----4---4---4---|------------------------------|------------------------------|
E|------------------------------|-3----3---3---3---3---3---3---|-2----2---2---2---2---2---2---|


G|---------------------------|---------------------------|------------------------------|
D|---------------------------|---------------------------|------------------------------|
A|-2----2---2---0---2---5----|-5----2---2----2---0---2---|-4----4---4---4---4---4---4---|
E|---------------------------|---------------------------|------------------------------|


G|------------------------------|------------------------------|------------------------------|
D|------------------------------|------------------------------|------------------------------|
A|-4---4---4---2----2---2---2---|-0---0---0---0----0---0---0---|-4---4---4---4----4---4---4---|
E|------------------------------|------------------------------|------------------------------|


G|------------------------------|------------------------------|------------------------------|
D|------------------------------|------------------------------|------------------------------|
A|------------------------------|------------------------------|-2----2---2---2---2---2---2---|
E|-3----3---3---3---3---3---3---|-2----2---2---2---2---2---2---|------------------------------|


G|------------------------------|------------------------------|------------------------------|
D|------------------------------|------------------------------|------------------------------|
A|-5----5---5---5---5---5---5---|------------------------------|------------------------------|
E|------------------------------|-5----5---5---5---5---5---5---|-5----5---5---5---5---5---5---|


G|------------------------------|------------------------------|---------------------------------|
D|------------------------------|------------------------------|---------------------------------|
A|-2----2---2---2---2---2---2---|-5----5---5---5---5---5---5---|-4---4---4---4---4---4---4---4---|
E|------------------------------|------------------------------|---------------------------------|


G|--------|------------------------------|------------------------------|---------------------------|
D|--------|------------------------------|------------------------------|---------------------------|
A|--------|-2---2---2---2----2---4---5---|-5---5---5---5----5---5---5---|---------------------------|
E|--------|------------------------------|------------------------------|-3---3----3---3----3---3---|


G|---------------------------|------------------------------|------------------------------|
D|---------------------------|------------------------------|-4---4---4---4----4---4---4---|
A|---------------------------|-2---2---2---2----2---4---5---|------------------------------|
E|-2---2----2---2----3---5---|------------------------------|------------------------------|


G|------------------------------|------------------------------|------------------------------|
D|-5---5--------------------5---|-7---7--------------------7---|------------------------------|
A|------------------------------|------------------------------|-2---2---2---2----2---4---5---|
E|---------3---3----3---3-------|---------5---5----5---5-------|------------------------------|


G|------------------------------|---------------------------|---------------------------|
D|------------------------------|---------------------------|---------------------------|
A|-5---5---5---5----5---5---5---|---------------------------|---------------------------|
E|------------------------------|-3---3----3---3----3---3---|-2---2----2---2----3---5---|


G|------------------------------|------------------------------|------------------------------|
D|------------------------------|-4---4---4---4----4---4---4---|-5---5--------------------5---|
A|-2---2---2---2----2---4---5---|------------------------------|------------------------------|
E|------------------------------|------------------------------|---------3---3----3---3-------|


G|------------------------------|---------------------------------|---------------------------------|
D|-7---7--------------------7---|---------------------------------|---------------------------------|
A|------------------------------|-2---2---2---2---2---2---2---2---|---------------------------------|
E|---------5---5----5---5-------|---------------------------------|-3---3---3---3---3---3---3---3---|


G|---------------------------------|------------------------------|---------------------------------|
D|---------------------------------|------------------------------|---------------------------------|
A|-5---5---5---5---5---5---5---5---|-7----7---5---5---5---4---4---|-2---2---2---2---2---2---2---2---|
E|---------------------------------|------------------------------|---------------------------------|


G|---------------------------------|---------------------------------|---------------------------|
D|---------------------------------|---------------------------------|---------------------------|
A|---------------------------------|-5---5---5---5---5---5---5---5---|-------------7-----5---4---|
E|-3---3---3---3---3---3---3---3---|---------------------------------|-5---5---5-----------------|


G|--------|-------------|---------------------------|---------------------------|------------------------------|
D|--------|-------------|---------------------------|---------------------------|------------------------------|
A|-2------|-2-----------|-2----2---2---0---2---5----|-5----2---2----2---0---2---|-4----4---4---4---4---4---4---|
E|--------|-------------|---------------------------|---------------------------|------------------------------|


G|------------------------------|------------------------------|------------------------------|
D|------------------------------|------------------------------|------------------------------|
A|-4---4---4---2----2---2---2---|-0---0---0---0----0---0---0---|-4---4---4---4----4---4---4---|
E|------------------------------|------------------------------|------------------------------|


G|------------------------------|------------------------------|---------------------------|
D|------------------------------|------------------------------|---------------------------|
A|------------------------------|------------------------------|-2----2---2---0---2---5----|
E|-3----3---3---3---3---3---3---|-2----2---2---2---2---2---2---|---------------------------|


G|---------------------------|------------------------------|------------------------------|
D|---------------------------|------------------------------|------------------------------|
A|-5----2---2----2---0---2---|-4----4---4---4---4---4---4---|-4---4---4---2----2---2---2---|
E|---------------------------|------------------------------|------------------------------|


G|------------------------------|------------------------------|------------------------------|
D|------------------------------|------------------------------|------------------------------|
A|-0---0---0---0----0---0---0---|-4---4---4---4----4---4---4---|------------------------------|
E|------------------------------|------------------------------|-3----3---3---3---3---3---3---|


G|------------------------------|------------------------------|------------------------------|
D|------------------------------|------------------------------|------------------------------|
A|------------------------------|-2----2---2---2---2---2---2---|-5----5---5---5---5---5---5---|
E|-2----2---2---2---2---2---2---|------------------------------|------------------------------|


G|------------------------------|------------------------------|------------------------------|
D|------------------------------|------------------------------|------------------------------|
A|------------------------------|------------------------------|-2----2---2---2---2---2---2---|
E|-5----5---5---5---5---5---5---|-5----5---5---5---5---5---5---|------------------------------|


G|------------------------------|---------------------------------|--------|------------------------------|
D|------------------------------|---------------------------------|--------|------------------------------|
A|-5----5---5---5---5---5---5---|-4---4---4---4---4---4---4---4---|--------|-2---2---2---2----2---4---5---|
E|------------------------------|---------------------------------|--------|------------------------------|


G|------------------------------|---------------------------|---------------------------|
D|------------------------------|---------------------------|---------------------------|
A|-5---5---5---5----5---5---5---|---------------------------|---------------------------|
E|------------------------------|-3---3----3---3----3---3---|-2---2----2---2----3---5---|


G|------------------------------|------------------------------|------------------------------|
D|------------------------------|-4---4---4---4----4---4---4---|-5---5--------------------5---|
A|-2---2---2---2----2---4---5---|------------------------------|------------------------------|
E|------------------------------|------------------------------|---------3---3----3---3-------|


G|------------------------------|------------------------------|------------------------------|
D|-7---7--------------------7---|------------------------------|------------------------------|
A|------------------------------|-2---2---2---2----2---4---5---|-5---5---5---5----5---5---5---|
E|---------5---5----5---5-------|------------------------------|------------------------------|


G|---------------------------|---------------------------|------------------------------|
D|---------------------------|---------------------------|------------------------------|
A|---------------------------|---------------------------|-2---2---2---2----2---4---5---|
E|-3---3----3---3----3---3---|-2---2----2---2----3---5---|------------------------------|


G|------------------------------|------------------------------|------------------------------|
D|-4---4---4---4----4---4---4---|-5---5--------------------5---|-7---7--------------------7---|
A|------------------------------|------------------------------|------------------------------|
E|------------------------------|---------3---3----3---3-------|---------5---5----5---5-------|


G|----------------|----------------|-4---4----------|---------------------------------|
D|----------------|-4---4----------|----------------|-------------------------4---4---|
A|-2---2----------|----------------|----------------|-----------------4---4-----------|
E|----------------|----------------|----------------|-2---2---2---2-------------------|


G|---------------------------------|---------------------------|---------------------------------|
D|---------------------------------|-4---4----4----------------|---------------------------------|
A|-2---2---2---2---2---2---2---2---|--------------5---5----5---|---------------------------------|
E|---------------------------------|---------------------------|-3---3---3---3---3---3---3---3---|


G|---------------------------------|---------------------------|------------------------------|
D|---------------------------------|---------------------------|-4---4----4-------------------|
A|---------------------------------|-2---2----2---2---2----2---|--------------5---5---5---5---|
E|-2---2---2---2---2---2---2---2---|---------------------------|------------------------------|


G|------------------------------|------------------------------|---------------------------------|
D|-5---5--------------------5---|-7---7--------------------7---|---------------------------------|
A|------------------------------|------------------------------|-2---2---2---2---2---2---2---2---|
E|---------3---3----3---3-------|---------5---5----5---5-------|---------------------------------|


G|---------------------------|---------------------------------|---------------------------------|
D|-4---4----4----------------|---------------------------------|---------------------------------|
A|--------------5---5----5---|---------------------------------|---------------------------------|
E|---------------------------|-3---3---3---3---3---3---3---3---|-2---2---2---2---2---2---2---2---|


G|------------------------------|------------------------------|------------------------------|
D|------------------------------|-4---4---4---4----4---4---4---|-5---5--------------------5---|
A|-2---2---2---2----2---4---5---|------------------------------|------------------------------|
E|------------------------------|------------------------------|---------3---3----3---3-------|


G|------------------------------|---------------------------------|---------------------------------|
D|-7---7--------------------7---|---------------------------------|---------------------------------|
A|------------------------------|-2---2---2---2---2---2---2---2---|---------------------------------|
E|---------5---5----5---5-------|---------------------------------|-3---3---3---3---3---3---3---3---|


G|---------------------------------|------------------------------|---------------------------------|
D|---------------------------------|------------------------------|---------------------------------|
A|-5---5---5---5---5---5---5---5---|-7----7---5---5---5---4---4---|-2---2---2---2---2---2---2---2---|
E|---------------------------------|------------------------------|---------------------------------|


G|---------------------------------|---------------------------------|-------------|
D|---------------------------------|---------------------------------|-------------|
A|---------------------------------|-5---5---5---5---5---5---5---5---|-------------|
E|-3---3---3---3---3---3---3---3---|---------------------------------|-2-----------|


G|--------|--------|--------|--------|--------|-----------------|------------------------|
D|--------|--------|--------|--------|--------|-----------------|------------------------|
A|-2------|-2------|-2------|-2------|-0------|-0----------4----|-5----5---5---5----5----|
E|--------|--------|--------|--------|--------|-----------------|------------------------|


G|---------------------------------|---------------------------------|--------------------|
D|---------------------------------|---------------------------------|--------------------|
A|-5---5---5---5---5---5---5---5---|---------------------------------|--------------------|
E|---------------------------------|-3---3---3---3---3---3---3---3---|-3---3---3----3-----|


G|-------------|-------------|-----------------|------------------|---------------------|
D|-3-----------|-------------|-----------------|------------------|---------------------|
A|-------5-----|-2-----------|-4-----4---------|------------------|---------------------|
E|-------------|-------3-----|------------5----|-3-----2-----0----|-2----2----2----2----|


G|---------------------|-----------------|-----------------|------------------------------|
D|---------------------|-----------------|-----------------|------------------------------|
A|---------------------|-----------------|-----------------|-2---2---2---2----2---4---5---|
E|-2----2----2----2----|-2----------2----|-------2---------|------------------------------|


G|------------------------------|---------------------------|---------------------------|
D|------------------------------|---------------------------|---------------------------|
A|-5---5---5---5----5---5---5---|---------------------------|---------------------------|
E|------------------------------|-3---3----3---3----3---3---|-2---2----2---2----3---5---|


G|------------------------------|------------------------------|------------------------------|
D|------------------------------|-4---4---4---4----4---4---4---|-5---5--------------------5---|
A|-2---2---2---2----2---4---5---|------------------------------|------------------------------|
E|------------------------------|------------------------------|---------3---3----3---3-------|


G|------------------------------|------------------------------|------------------------------|
D|-7---7--------------------7---|------------------------------|------------------------------|
A|------------------------------|-2---2---2---2----2---4---5---|-5---5---5---5----5---5---5---|
E|---------5---5----5---5-------|------------------------------|------------------------------|


G|---------------------------|---------------------------|------------------------------|
D|---------------------------|---------------------------|------------------------------|
A|---------------------------|---------------------------|-2---2---2---2----2---4---5---|
E|-3---3----3---3----3---3---|-2---2----2---2----3---5---|------------------------------|


G|------------------------------|------------------------------|------------------------------|
D|-4---4---4---4----4---4---4---|-5---5--------------------5---|-7---7--------------------7---|
A|------------------------------|------------------------------|------------------------------|
E|------------------------------|---------3---3----3---3-------|---------5---5----5---5-------|


G|---------------------------|
D|---------------------------|
A|-2----2--------2-------2---|
E|---------------------------|