Site menu:

    

Browse: 0-9 A B C D E F G H I J K L N O P Q R S T U V W X Y Z

cold - no one:



Title: No One
Artist: 
Album: 13 Ways to Bleed on Stage
Author: Cold


Track 1: Gtr. 1 (clean elec. w/flanger)

 C|---------------------------|---------------------------|---------------------------|
 G|---------------------------|---------------------------|---------------------------|
D#|---------------------------|---------------------------|---------------------------|
A#|-----9--------9--------10--|-10------10-------10-------|-----10-------10-----------|
 F|-0--------0--------0-------|-----0--------0--------0---|-8--------8--------0---7---|
 C|---------------------------|---------------------------|---------------------------|


 C|---------------------------------|---------------------------|---------------------------|
 G|---------------------------------|---------------------------|---------------------------|
D#|---------------------------------|---------------------------|---------------------------|
A#|-----9---9---9---9---9---9-------|-----9--------9--------10--|-10------10-------10-------|
 F|-7---------------------------0---|-0--------0--------0-------|-----0--------0--------0---|
 C|---------------------------------|---------------------------|---------------------------|


 C|---------------------------|---------------------------------|---------------------------|
 G|---------------------------|---------------------------------|---------------------------|
D#|---------------------------|---------------------------------|---------------------------|
A#|-----10-------10-----------|-----9---9---9---9---9---9-------|-----9--------9--------10--|
 F|-8--------8--------0---7---|-7---------------------------0---|-0--------0--------0-------|
 C|---------------------------|---------------------------------|---------------------------|


 C|---------------------------|---------------------------|---------------------------------|
 G|---------------------------|---------------------------|---------------------------------|
D#|---------------------------|---------------------------|---------------------------------|
A#|-10------10-------10-------|-----10-------10-----------|-----9---9---9---9---9---9-------|
 F|-----0--------0--------0---|-8--------8--------0---7---|-7---------------------------0---|
 C|---------------------------|---------------------------|---------------------------------|


 C|---------------------------|---------------------------|---------------------------|
 G|---------------------------|---------------------------|---------------------------|
D#|---------------------------|---------------------------|---------------------------|
A#|-----9--------9--------10--|-10------10-------10-------|-----10-------10-----------|
 F|-0--------0--------0-------|-----0--------0--------0---|-8--------8--------0---7---|
 C|---------------------------|---------------------------|---------------------------|


 C|---------------------------------|---------------------------|---------------------------|
 G|---------------------------------|---------------------------|---------------------------|
D#|---------------------------------|---------------------------|---------------------------|
A#|-----9---9---9---9---9---9-------|-----9--------9--------10--|-10------10-------10-------|
 F|-7---------------------------0---|-0--------0--------0-------|-----0--------0--------0---|
 C|---------------------------------|---------------------------|---------------------------|


 C|---------------------------|---------------------------------|--------|--------|
 G|---------------------------|---------------------------------|--------|--------|
D#|---------------------------|---------------------------------|--------|--------|
A#|-----10-------10-----------|-----9---9---9---9---9---9-------|--------|--------|
 F|-8--------8--------0---7---|-7---------------------------0---|--------|--------|
 C|---------------------------|---------------------------------|--------|--------|


 C|--------|--------|--------|--------|--------|--------|---------------------------|
 G|--------|--------|--------|--------|--------|--------|---------------------------|
D#|--------|--------|--------|--------|--------|--------|---------------------------|
A#|--------|--------|--------|--------|--------|--------|-----9--------9--------10--|
 F|--------|--------|--------|--------|--------|--------|-0--------0--------0-------|
 C|--------|--------|--------|--------|--------|--------|---------------------------|


 C|---------------------------|---------------------------|---------------------------------|
 G|---------------------------|---------------------------|---------------------------------|
D#|---------------------------|---------------------------|---------------------------------|
A#|-10------10-------10-------|-----10-------10-----------|-----9---9---9---9---9---9-------|
 F|-----0--------0--------0---|-8--------8--------0---7---|-7---------------------------0---|
 C|---------------------------|---------------------------|---------------------------------|


 C|---------------------------|---------------------------|---------------------------|
 G|---------------------------|---------------------------|---------------------------|
D#|---------------------------|---------------------------|---------------------------|
A#|-----9--------9--------10--|-10------10-------10-------|-----10-------10-----------|
 F|-0--------0--------0-------|-----0--------0--------0---|-8--------8--------0---7---|
 C|---------------------------|---------------------------|---------------------------|


 C|---------------------------------|---------------------------|---------------------------|
 G|---------------------------------|---------------------------|---------------------------|
D#|---------------------------------|---------------------------|---------------------------|
A#|-----9---9---9---9---9---9-------|-----9--------9--------10--|-10------10-------10-------|
 F|-7---------------------------0---|-0--------0--------0-------|-----0--------0--------0---|
 C|---------------------------------|---------------------------|---------------------------|


 C|---------------------------|---------------------------------|---------------------------|
 G|---------------------------|---------------------------------|---------------------------|
D#|---------------------------|---------------------------------|---------------------------|
A#|-----10-------10-----------|-----9---9---9---9---9---9-------|-----9--------9--------10--|
 F|-8--------8--------0---7---|-7---------------------------0---|-0--------0--------0-------|
 C|---------------------------|---------------------------------|---------------------------|


 C|---------------------------|---------------------------|---------------------------------|
 G|---------------------------|---------------------------|---------------------------------|
D#|---------------------------|---------------------------|---------------------------------|
A#|-10------10-------10-------|-----10-------10-----------|-----9---9---9---9---9---9-------|
 F|-----0--------0--------0---|-8--------8--------0---7---|-7---------------------------0---|
 C|---------------------------|---------------------------|---------------------------------|


 C|---------------------------|---------------------------|---------------------------|
 G|---------------------------|---------------------------|---------------------------|
D#|---------------------------|---------------------------|---------------------------|
A#|-----9--------9--------10--|-10------10-------10-------|-----10-------10-----------|
 F|-0--------0--------0-------|-----0--------0--------0---|-8--------8--------0---7---|
 C|---------------------------|---------------------------|---------------------------|


 C|---------------------------------|--------|--------|--------|--------|--------|
 G|---------------------------------|--------|--------|--------|--------|--------|
D#|---------------------------------|--------|--------|--------|--------|--------|
A#|-----9---9---9---9---9---9-------|--------|--------|--------|--------|--------|
 F|-7---------------------------0---|--------|--------|--------|--------|--------|
 C|---------------------------------|--------|--------|--------|--------|--------|


 C|--------|--------|--------|--------|--------|--------|--------|--------|--------|
 G|--------|--------|--------|--------|--------|--------|--------|--------|--------|
D#|--------|--------|--------|--------|--------|--------|--------|--------|--------|
A#|--------|--------|--------|--------|--------|--------|--------|--------|--------|
 F|--------|--------|--------|--------|--------|--------|--------|--------|--------|
 C|--------|--------|--------|--------|--------|--------|--------|--------|--------|


 C|--------|--------|---------------------------|-----------------------------------|
 G|--------|--------|---------------------------|-----------------------------------|
D#|--------|--------|---------------------------|-----------------------------------|
A#|--------|--------|-----7--------7--------9---|-9---9--10-9---7---7-------7---9---|
 F|--------|--------|-0--------0--------0-------|-----------------------0-----------|
 C|--------|--------|---------------------------|-----------------------------------|


 C|---------------------------------|---------------------------------|---------------------------|
 G|---------------------------------|---------------------------------|---------------------------|
D#|-------------9---9---9-----------|-------------7---7---7---7-------|---------------------------|
A#|-10--10--10--------------10--10--|-9---9---9-----------9-----------|-----7--------7--------9---|
 F|---------------------------------|-----------------------------0---|-0--------0--------0-------|
 C|---------------------------------|---------------------------------|---------------------------|


 C|-----------------------------------|---------------------------------|---------------------------------|
 G|-----------------------------------|---------------------------------|---------------------------------|
D#|-----------------------------------|-------------9---9---9-----------|-------------7---7---7---7-------|
A#|-9---9--10-9---7---7-------7---9---|-10--10--10--------------10--10--|-9---9---9-----------9-----------|
 F|-----------------------0-----------|---------------------------------|-----------------------------0---|
 C|-----------------------------------|---------------------------------|---------------------------------|


 C|---------------------------|-----------------------------------|---------------------------------|
 G|---------------------------|-----------------------------------|---------------------------------|
D#|---------------------------|-----------------------------------|-------------9---9---9-----------|
A#|-----7--------7--------9---|-9---9--10-9---7---7-------7---9---|-10--10--10--------------10--10--|
 F|-0--------0--------0-------|-----------------------0-----------|---------------------------------|
 C|---------------------------|-----------------------------------|---------------------------------|


 C|---------------------------------|--------|--------|--------|--------|--------|
 G|---------------------------------|--------|--------|--------|--------|--------|
D#|-------------7---7---7---7-------|--------|--------|--------|--------|--------|
A#|-9---9---9-----------9-----------|--------|--------|--------|--------|--------|
 F|-----------------------------0---|--------|--------|--------|--------|--------|
 C|---------------------------------|--------|--------|--------|--------|--------|


 C|--------|--------|--------|--------|--------|--------|--------|--------|--------|
 G|--------|--------|--------|--------|--------|--------|--------|--------|--------|
D#|--------|--------|--------|--------|--------|--------|--------|--------|--------|
A#|--------|--------|--------|--------|--------|--------|--------|--------|--------|
 F|--------|--------|--------|--------|--------|--------|--------|--------|--------|
 C|--------|--------|--------|--------|--------|--------|--------|--------|--------|


 C|--------|--------|--------|--------|--------|--------|--------|--------|--------|
 G|--------|--------|--------|--------|--------|--------|--------|--------|--------|
D#|--------|--------|--------|--------|--------|--------|--------|--------|--------|
A#|--------|--------|--------|--------|--------|--------|--------|--------|--------|
 F|--------|--------|--------|--------|--------|--------|--------|--------|--------|
 C|--------|--------|--------|--------|--------|--------|--------|--------|--------|


 C|--------|--------|--------|--------|--------|
 G|--------|--------|--------|--------|--------|
D#|--------|--------|--------|--------|--------|
A#|--------|--------|--------|--------|--------|
 F|--------|--------|--------|--------|--------|
 C|--------|--------|--------|--------|--------|





Track 2: Gtr. 2 (clean elec. w/slight delay)

 C|--------|--------|--------|--------|--------|--------|----------------|---------------------------|
 G|--------|--------|--------|--------|--------|--------|----------------|---------------------------|
D#|--------|--------|--------|--------|--------|--------|----------------|---------------------------|
A#|--------|--------|--------|--------|-14-----|-14-----|-12-----12--10--|-10----9---9---9---9---14--|
 F|--------|--------|--------|--------|--------|--------|----------------|---------------------------|
 C|--------|--------|--------|--------|--------|--------|----------------|---------------------------|


 C|--------|--------|----------------|---------------------------|---------------------------|
 G|--------|--------|----------------|---------------------------|---------------------------|
D#|--------|--------|----------------|---------------------------|-----16-------16-------17--|
A#|-14-----|-14-----|-12-----12--10--|-10----9---9---9---9---14--|-14-------14-------14------|
 F|--------|--------|----------------|---------------------------|---------------------------|
 C|--------|--------|----------------|---------------------------|---------------------------|


 C|---------------------------|---------------------------|------------------------------|
 G|---------------------------|---------------------------|------------------------------|
D#|-17------17-------17-------|-----12-------12-----------|-----11--11--11--11--11--11---|
A#|-----14-------14-------14--|-10-------10-------10--9---|-9----------------------------|
 F|---------------------------|---------------------------|------------------------------|
 C|---------------------------|---------------------------|------------------------------|


 C|---------------------------|---------------------------|---------------------------|
 G|---------------------------|---------------------------|---------------------------|
D#|-----16-------16-------17--|-17------17-------17-------|-----12-------12-----------|
A#|-14-------14-------14------|-----14-------14-------14--|-10-------10-------10--9---|
 F|---------------------------|---------------------------|---------------------------|
 C|---------------------------|---------------------------|---------------------------|


 C|------------------------------|---------------------------------|---------------------------------|
 G|------------------------------|---------------------------------|---------------------------------|
D#|-----11--11--11--11--11--11---|---------14------14------14--14--|-14--14------14--14------14------|
A#|-9----------------------------|-----14------14------14----------|---------------------14------14--|
 F|------------------------------|---------------------------------|---------------------------------|
 C|------------------------------|---------------------------------|---------------------------------|


 C|---------------------------------|---------------------------------|---------------------------------|
 G|---------------------------------|---------------------------------|---------------------------------|
D#|---------14------14------14------|---------14------14------14------|---------14------14------14--14--|
A#|-----14------14------14----------|-----14------14------14------14--|-----14------14------14----------|
 F|---------------------------------|---------------------------------|---------------------------------|
 C|---------------------------------|---------------------------------|---------------------------------|


 C|---------------------------------|---------------------------------|---------------------------------|
 G|---------------------------------|---------------------------------|---------------------------------|
D#|-14--14------14--14------14------|---------14------14------14------|---------14------14------14------|
A#|---------------------14------14--|-----14------14------14----------|-----14------14------14------14--|
 F|---------------------------------|---------------------------------|---------------------------------|
 C|---------------------------------|---------------------------------|---------------------------------|


 C|--------|--------|--------|-----------------------|--------|--------|----------------|
 G|--------|--------|--------|-----------------------|--------|--------|----------------|
D#|--------|--------|--------|-----------------------|--------|--------|----------------|
A#|--------|--------|--------|-------10--12--12--14--|-14-----|-14-----|-12-----12--10--|
 F|--------|--------|--------|-----------------------|--------|--------|----------------|
 C|--------|--------|--------|-----------------------|--------|--------|----------------|


 C|---------------------------|--------|--------|----------------|---------------------------|
 G|---------------------------|--------|--------|----------------|---------------------------|
D#|---------------------------|--------|--------|----------------|---------------------------|
A#|-10----9---9---9---9---14--|-14-----|-14-----|-12-----12--10--|-10----9---9---9---9---14--|
 F|---------------------------|--------|--------|----------------|---------------------------|
 C|---------------------------|--------|--------|----------------|---------------------------|


 C|---------------------------|---------------------------|---------------------------|
 G|---------------------------|---------------------------|---------------------------|
D#|-----16-------16-------17--|-17------17-------17-------|-----12-------12-----------|
A#|-14-------14-------14------|-----14-------14-------14--|-10-------10-------10--9---|
 F|---------------------------|---------------------------|---------------------------|
 C|---------------------------|---------------------------|---------------------------|


 C|------------------------------|---------------------------|---------------------------|
 G|------------------------------|---------------------------|---------------------------|
D#|-----11--11--11--11--11--11---|-----16-------16-------17--|-17------17-------17-------|
A#|-9----------------------------|-14-------14-------14------|-----14-------14-------14--|
 F|------------------------------|---------------------------|---------------------------|
 C|------------------------------|---------------------------|---------------------------|


 C|---------------------------|------------------------------|---------------------------------|
 G|---------------------------|------------------------------|---------------------------------|
D#|-----12-------12-----------|-----11--11--11--11--11--11---|---------14------14------14--14--|
A#|-10-------10-------10--9---|-9----------------------------|-----14------14------14----------|
 F|---------------------------|------------------------------|---------------------------------|
 C|---------------------------|------------------------------|---------------------------------|


 C|---------------------------------|---------------------------------|---------------------------------|
 G|---------------------------------|---------------------------------|---------------------------------|
D#|-14--14------14--14------14------|---------14------14------14------|---------14------14------14------|
A#|---------------------14------14--|-----14------14------14----------|-----14------14------14------14--|
 F|---------------------------------|---------------------------------|---------------------------------|
 C|---------------------------------|---------------------------------|---------------------------------|


 C|---------------------------------|---------------------------------|---------------------------------|
 G|---------------------------------|---------------------------------|---------------------------------|
D#|---------14------14------14--14--|-14--14------14--14------14------|---------14------14------14------|
A#|-----14------14------14----------|---------------------14------14--|-----14------14------14----------|
 F|---------------------------------|---------------------------------|---------------------------------|
 C|---------------------------------|---------------------------------|---------------------------------|


 C|---------------------------------|---------------------------------|---------------------------------|
 G|---------------------------------|---------------------------------|---------------------------------|
D#|---------14------14------14--14--|---------14------14------14------|---------14------14------14------|
A#|-----14------14------14----------|-----14------14------14------14--|-----14------14------14------14--|
 F|---------------------------------|---------------------------------|---------------------------------|
 C|---------------------------------|---------------------------------|---------------------------------|


 C|------------------------------|---------------------------------|---------------------------------|
 G|------------------------------|---------------------------------|---------------------------------|
D#|---------14------14-----------|---------14------14------14------|---------14------14------14------|
A#|-----14------14------14-------|-----14------14------14------14--|-----14------14------14------14--|
 F|------------------------------|---------------------------------|---------------------------------|
 C|------------------------------|---------------------------------|---------------------------------|


 C|---------------------------------|---------------------------------|--------|--------|
 G|---------------------------------|---------------------------------|--------|--------|
D#|---------14--------------14------|---------14------14------14------|--------|--------|
A#|-14--14------14--14--14------14--|-----14------14------14----------|--------|--------|
 F|---------------------------------|---------------------------------|--------|--------|
 C|---------------------------------|---------------------------------|--------|--------|


 C|--------|--------|--------|--------|--------|--------|--------|--------|--------|
 G|--------|--------|--------|--------|--------|--------|--------|--------|--------|
D#|--------|--------|--------|--------|--------|--------|--------|--------|--------|
A#|--------|--------|--------|--------|--------|--------|--------|--------|--------|
 F|--------|--------|--------|--------|--------|--------|--------|--------|--------|
 C|--------|--------|--------|--------|--------|--------|--------|--------|--------|


 C|--------|--------|--------|--------|--------|--------|--------|--------|--------|
 G|--------|--------|--------|--------|--------|--------|--------|--------|--------|
D#|--------|--------|--------|--------|--------|--------|--------|--------|--------|
A#|--------|--------|--------|--------|--------|--------|--------|--------|--------|
 F|--------|--------|--------|--------|--------|--------|--------|--------|--------|
 C|--------|--------|--------|--------|--------|--------|--------|--------|--------|


 C|--------|--------|--------|--------|--------|--------|--------|--------|--------|
 G|--------|--------|--------|--------|--------|--------|--------|--------|--------|
D#|--------|--------|--------|--------|--------|--------|--------|--------|--------|
A#|--------|--------|--------|--------|--------|--------|--------|--------|--------|
 F|--------|--------|--------|--------|--------|--------|--------|--------|--------|
 C|--------|--------|--------|--------|--------|--------|--------|--------|--------|


 C|---------------------------------|------------------------------|---------------------------------|
 G|---------------------------------|------------------------------|---------------------------------|
D#|---------14------14------14------|-14------14------14-----------|---------14------14------14------|
A#|-----14------14------14------14--|-----14------14------14--14---|-----14------14------14----------|
 F|---------------------------------|------------------------------|---------------------------------|
 C|---------------------------------|------------------------------|---------------------------------|


 C|---------------------------------|---------------------------------|------------------------------|
 G|---------------------------------|---------------------------------|------------------------------|
D#|---------14------14------14--14--|---------14------14------14------|---------14------14------14---|
A#|-----14------14------14----------|-----14------14------14------14--|-14--14------14------14-------|
 F|---------------------------------|---------------------------------|------------------------------|
 C|---------------------------------|---------------------------------|------------------------------|


 C|---------------------------------|-------------|---------------------------|---------------------------|
 G|---------------------------------|-------------|---------------------------|---------------------------|
D#|---------14------14------14--14--|-14----------|---------------------------|---------------------------|
A#|-----14------14------14----------|-------------|-----9--------9--------10--|-10------10-------10-------|
 F|---------------------------------|-------------|-0--------0--------0-------|-----0--------0--------0---|
 C|---------------------------------|-------------|---------------------------|---------------------------|


 C|---------------------------|------------------------------|
 G|---------------------------|------------------------------|
D#|---------------------------|------------------------------|
A#|-----10-------10-----------|-----9---9---9---9---9---9----|
 F|-8--------8--------0---7---|-7-------7--------------------|
 C|---------------------------|------------------------------|





Track 3: Gtr. 3 (elec. w/dist.)

 C|--------|--------|--------|--------|--------|--------|--------|--------|--------|
 G|--------|--------|--------|--------|--------|--------|--------|--------|--------|
D#|--------|--------|--------|--------|--------|--------|--------|--------|--------|
A#|--------|--------|--------|--------|--------|--------|--------|--------|--------|
 F|--------|--------|--------|--------|--------|--------|--------|--------|--------|
 C|--------|--------|--------|--------|--------|--------|--------|--------|--------|


 C|--------|--------|--------|--------|--------|--------|--------|--------|--------|
 G|--------|--------|--------|--------|--------|--------|--------|--------|--------|
D#|--------|--------|--------|--------|--------|--------|--------|--------|--------|
A#|--------|--------|--------|--------|--------|--------|--------|--------|--------|
 F|--------|--------|--------|--------|--------|--------|--------|--------|--------|
 C|--------|--------|--------|--------|--------|--------|--------|--------|--------|


 C|--------|--------|---------------------------|---------------------------------|
 G|--------|--------|---------------------------|---------------------------------|
D#|--------|--------|-7----7----7---7---7---7---|-7---7-------7---7---7---7---5---|
A#|--------|--------|-5----5----5---5---5---5---|-----5-------5-------5---5---3---|
 F|--------|--------|-5----5----5---5---5---5---|-5---5-------5---5---5---5---3---|
 C|--------|--------|---------------------------|---------------------------------|


 C|---------------------------|---------------------------------|---------------------------|
 G|---------------------------|---------------------------------|---------------------------|
D#|-5----5----5---5-------4---|-4---4---4---4---4---5---5---7---|-7----7----7---7---7---7---|
A#|-3----3----3---3-------2---|-2---2---2---2---2-------3-------|-5----5----5---5---5---5---|
 F|-3----3----3---3-------2---|-2---2---2---2---2---3---3---5---|-5----5----5---5---5---5---|
 C|---------------------------|---------------------------------|---------------------------|


 C|---------------------------------|---------------------------|---------------------------------|
 G|---------------------------------|---------------------------|---------------------------------|
D#|-7---7-------7---7---7---7---5---|-5----5----5---5-------4---|-4---4---4---4---4---5---5---5---|
A#|-----5-------5-------5---5---3---|-3----3----3---3-------2---|-2---2---2---2---2-------3---3---|
 F|-5---5-------5---5---5---5---3---|-3----3----3---3-------2---|-2---2---2---2---2---3---3---3---|
 C|---------------------------------|---------------------------|---------------------------------|


 C|--------|--------|--------|--------|--------|--------|--------|--------|--------|
 G|--------|--------|--------|--------|--------|--------|--------|--------|--------|
D#|--------|--------|--------|--------|--------|--------|--------|--------|--------|
A#|--------|--------|--------|--------|--------|--------|--------|--------|--------|
 F|--------|--------|--------|--------|--------|--------|--------|--------|--------|
 C|--------|--------|--------|--------|--------|--------|--------|--------|--------|


 C|--------|--------|--------|--------|--------|--------|--------|--------|--------|
 G|--------|--------|--------|--------|--------|--------|--------|--------|--------|
D#|--------|--------|--------|--------|--------|--------|--------|--------|--------|
A#|--------|--------|--------|--------|--------|--------|--------|--------|--------|
 F|--------|--------|--------|--------|--------|--------|--------|--------|--------|
 C|--------|--------|--------|--------|--------|--------|--------|--------|--------|


 C|--------|--------|---------------------------|---------------------------------|
 G|--------|--------|---------------------------|---------------------------------|
D#|--------|--------|-7----7----7---7---7---7---|-7---7-------7---7---7---7---5---|
A#|--------|--------|-5----5----5---5---5---5---|-----5-------5-------5---5---3---|
 F|--------|--------|-5----5----5---5---5---5---|-5---5-------5---5---5---5---3---|
 C|--------|--------|---------------------------|---------------------------------|


 C|---------------------------|---------------------------------|---------------------------|
 G|---------------------------|---------------------------------|---------------------------|
D#|-5----5----5---5-------4---|-4---4---4---4---4---5---5---7---|-7----7----7---7---7---7---|
A#|-3----3----3---3-------2---|-2---2---2---2---2-------3-------|-5----5----5---5---5---5---|
 F|-3----3----3---3-------2---|-2---2---2---2---2---3---3---5---|-5----5----5---5---5---5---|
 C|---------------------------|---------------------------------|---------------------------|


 C|---------------------------------|---------------------------|---------------------------------|
 G|---------------------------------|---------------------------|---------------------------------|
D#|-7---7-------7---7---7---7---5---|-5----5----5---5-------4---|-4---4---4---4---4---5---5---7---|
A#|-----5-------5-------5---5---3---|-3----3----3---3-------2---|-2---2---2---2---2-------3-------|
 F|-5---5-------5---5---5---5---3---|-3----3----3---3-------2---|-2---2---2---2---2---3---3---5---|
 C|---------------------------------|---------------------------|---------------------------------|


 C|---------------------------|-----------------------------------|---------------------------|
 G|---------------------------|-----------------------------------|---------------------------|
D#|-7----7----7---7---7---7---|-7---7---7---9---9---7---7---5--5--|-5----5----5---5---5---4---|
A#|-5----5----5---5---5---5---|-----5---5-------7---5---5---3--3--|-3----3----3---3---3---2---|
 F|-5----5----5---5---5---5---|-5---5---5---7---7---5---5---3--3--|-3----3----3---3---3---2---|
 C|---------------------------|-----------------------------------|---------------------------|


 C|---------------------------------|---------------------------|---------------------------------|
 G|---------------------------------|---------------------------|---------------------------------|
D#|-4---4---4---4---4---5---5---7---|-7----7----7---7---7---7---|-7---7---7---9---9---7---7---5---|
A#|-----2---2---2---2-------3---5---|-5----5----5---5---5---5---|-----5---5-------7---5---5---3---|
 F|-2---2---2---2---2---3---3---5---|-5----5----5---5---5---5---|-5---5---5---7---7---5---5---3---|
 C|---------------------------------|---------------------------|---------------------------------|


 C|---------------------------|-------------|--------|--------|--------|--------|--------|
 G|---------------------------|-------------|--------|--------|--------|--------|--------|
D#|-5----5----5---5---5---4---|-4------4----|--------|--------|--------|--------|--------|
A#|-3----3----3---3---3---2---|-------------|--------|--------|--------|--------|--------|
 F|-3----3----3---3---3---2---|-2------2----|--------|--------|--------|--------|--------|
 C|---------------------------|-------------|--------|--------|--------|--------|--------|


 C|--------|--------|----------------------|--------|--------|--------|------------------------|
 G|--------|--------|----------------------|--------|--------|--------|------------------------|
D#|--------|--------|----------------------|--------|--------|--------|------------------------|
A#|--------|--------|----------------------|--------|--------|--------|------------0--0--0--0--|
 F|--------|--------|----------------0--0--|--------|--------|--------|------------0--0--0--0--|
 C|--------|--------|----------------0--0--|--------|--------|--------|------------0--0--0--0--|


 C|---------------------------------|---------------------------------|---------------------------------|
 G|---------------------------------|---------------------------------|---------------------------------|
D#|---------------------------------|---------------------------------|-------------9---9---9-----------|
A#|-----------------------------9---|-----9---9---7-----------7---9---|-10--10--10--------------10--10--|
 F|-0---0---0---0---0---0---0-------|-0---------------0---0-----------|---------------------------------|
 C|---------------------------------|---------------------------------|---------------------------------|


 C|---------------------------------|---------------------------------|-----------------------------------|
 G|---------------------------------|---------------------------------|-----------------------------------|
D#|-------------7---7---7---7-------|---------------------------------|-----------------------------------|
A#|-9---9---9-------------------0---|-----------------------------9---|-----9--10-9---7-----------7---9---|
 F|---------------------------------|-0---0---0---0---0---0---0-------|-0-----------------0---0-----------|
 C|---------------------------------|---------------------------------|-----------------------------------|


 C|---------------------------------|---------------------------------|---------------------------|
 G|---------------------------------|---------------------------------|---------------------------|
D#|-------------9---9---9-----------|-------------7---7---7---7-------|-7----7----7---7---7---7---|
A#|-10--10--10--------------10--10--|-9---9---9-------------------0---|-5----5----5---5---5---5---|
 F|---------------------------------|---------------------------------|-5----5----5---5---5---5---|
 C|---------------------------------|---------------------------------|---------------------------|


 C|---------------------------------|---------------------------|---------------------------------|
 G|---------------------------------|---------------------------|---------------------------------|
D#|-7---7---7---7---7---7---7---5---|-5----5----5---5---4---4---|-4---4---4---4---4---5---5---7---|
A#|-----5---5---5-------5---5-------|-3----3----3---3---2---2---|-----2---2---2---2-------3-------|
 F|-5---5---5---5---5---5---5---3---|-3----3----3---3---2---2---|-2---2---2---2---2---3---3---5---|
 C|---------------------------------|---------------------------|---------------------------------|


 C|---------------------------|---------------------------------|---------------------------|
 G|---------------------------|---------------------------------|---------------------------|
D#|-7----7----7---7---7---7---|-7---7---7---9---9---7---7---5---|-5----5----5---5---5---4---|
A#|-5----5----5---5---5---5---|-----5---5-------7---5---5-------|-3----3----3---3---3---2---|
 F|-5----5----5---5---5---5---|-5---5---5---7---7---5---5---3---|-3----3----3---3---3---2---|
 C|---------------------------|---------------------------------|---------------------------|


 C|---------------------------------|---------------------------|---------------------------------|
 G|---------------------------------|---------------------------|---------------------------------|
D#|-4---4---4---4---4---5---5---7---|-7----7----7---7---7---7---|-7---7---7---9---9---7---7---5---|
A#|-----2---2---2---2-------3-------|-5----5----5---5---5---5---|-----5---5-------7---5---5-------|
 F|-2---2---2---2---2---3---3---5---|-5----5----5---5---5---5---|-5---5---5---7---7---5---5---3---|
 C|---------------------------------|---------------------------|---------------------------------|


 C|---------------------------|---------------------------------|---------------------------|
 G|---------------------------|---------------------------------|---------------------------|
D#|-5----5----5---5---5---4---|-4---4---4---4---4---5---5---7---|-7----7----7---7---7---7---|
A#|-3----3----3---3---3---2---|-----2---2---2---2-------3-------|-5----5----5---5---5---5---|
 F|-3----3----3---3---3---2---|-2---2---2---2---2---3---3---5---|-5----5----5---5---5---5---|
 C|---------------------------|---------------------------------|---------------------------|


 C|---------------------------------|---------------------------|-------------|--------|
 G|---------------------------------|---------------------------|-------------|--------|
D#|-7---7---7---9---9---7---7---5---|-5----5----5---5-------4---|-4------4----|--------|
A#|-----5---5-------7---5---5---3---|-3----3----3---3-------2---|-------------|--------|
 F|-5---5---5---7---7---5---5---3---|-3----3----3---3---0---2---|-2------2----|--------|
 C|---------------------------------|-------------------0-------|-------------|--------|


 C|--------|--------|--------|
 G|--------|--------|--------|
D#|--------|--------|--------|
A#|--------|--------|--------|
 F|--------|--------|--------|
 C|--------|--------|--------|





Track 4: Gtr. 5 (elec. w/dist.)

 C|--------|--------|--------|--------|--------|--------|--------|--------|--------|
 G|--------|--------|--------|--------|--------|--------|--------|--------|--------|
D#|--------|--------|--------|--------|--------|--------|--------|--------|--------|
A#|--------|--------|--------|--------|--------|--------|--------|--------|--------|
 F|--------|--------|--------|--------|--------|--------|--------|--------|--------|
 C|--------|--------|--------|--------|--------|--------|--------|--------|--------|


 C|--------|--------|--------|--------|--------|--------|--------|--------|--------|
 G|--------|--------|--------|--------|--------|--------|--------|--------|--------|
D#|--------|--------|--------|--------|--------|--------|--------|--------|--------|
A#|--------|--------|--------|--------|--------|--------|--------|--------|--------|
 F|--------|--------|--------|--------|--------|--------|--------|--------|--------|
 C|--------|--------|--------|--------|--------|--------|--------|--------|--------|


 C|--------|--------|--------|--------|--------|--------|--------|--------|--------|
 G|--------|--------|--------|--------|--------|--------|--------|--------|--------|
D#|--------|--------|--------|--------|--------|--------|--------|--------|--------|
A#|--------|--------|--------|--------|--------|--------|--------|--------|--------|
 F|--------|--------|--------|--------|--------|--------|--------|--------|--------|
 C|--------|--------|--------|--------|--------|--------|--------|--------|--------|


 C|--------|--------|--------|--------|--------|--------|--------|--------|--------|
 G|--------|--------|--------|--------|--------|--------|--------|--------|--------|
D#|--------|--------|--------|--------|--------|--------|--------|--------|--------|
A#|--------|--------|--------|--------|--------|--------|--------|--------|--------|
 F|--------|--------|--------|--------|--------|--------|--------|--------|--------|
 C|--------|--------|--------|--------|--------|--------|--------|--------|--------|


 C|--------|--------|--------|--------|--------|--------|--------|--------|--------|
 G|--------|--------|--------|--------|--------|--------|--------|--------|--------|
D#|--------|--------|--------|--------|--------|--------|--------|--------|--------|
A#|--------|--------|--------|--------|--------|--------|--------|--------|--------|
 F|--------|--------|--------|--------|--------|--------|--------|--------|--------|
 C|--------|--------|--------|--------|--------|--------|--------|--------|--------|


 C|--------|--------|--------|--------|--------|--------|--------|--------|--------|
 G|--------|--------|--------|--------|--------|--------|--------|--------|--------|
D#|--------|--------|--------|--------|--------|--------|--------|--------|--------|
A#|--------|--------|--------|--------|--------|--------|--------|--------|--------|
 F|--------|--------|--------|--------|--------|--------|--------|--------|--------|
 C|--------|--------|--------|--------|--------|--------|--------|--------|--------|


 C|--------|--------|--------|--------|--------|--------|--------|--------|--------|
 G|--------|--------|--------|--------|--------|--------|--------|--------|--------|
D#|--------|--------|--------|--------|--------|--------|--------|--------|--------|
A#|--------|--------|--------|--------|--------|--------|--------|--------|--------|
 F|--------|--------|--------|--------|--------|--------|--------|--------|--------|
 C|--------|--------|--------|--------|--------|--------|--------|--------|--------|


 C|--------|--------|--------|--------|--------|--------|--------|----------19--19----|
 G|--------|--------|--------|--------|--------|--------|--------|--------------------|
D#|--------|--------|--------|--------|--------|--------|--------|--------------------|
A#|--------|--------|--------|--------|--------|--------|--------|--------------------|
 F|--------|--------|--------|--------|--------|--------|--------|--------------------|
 C|--------|--------|--------|--------|--------|--------|--------|--------------------|


 C|-19----------|--------|--------|-19-----|-19-----|-19-----19--20--|-20-----|-19-----|
 G|-------------|--------|--------|--------|--------|----------------|--------|--------|
D#|-------------|--------|--------|--------|--------|----------------|--------|--------|
A#|-------------|--------|--------|--------|--------|----------------|--------|--------|
 F|-------------|--------|--------|--------|--------|----------------|--------|--------|
 C|-------------|--------|--------|--------|--------|----------------|--------|--------|


 C|-19-----|-19-----|-19-----19--20--|-20-----20--22--|-22----22--22--22---|--------|
 G|--------|--------|----------------|----------------|--------------------|--------|
D#|--------|--------|----------------|----------------|--------------------|--------|
A#|--------|--------|----------------|----------------|--------------------|--------|
 F|--------|--------|----------------|----------------|--------------------|--------|
 C|--------|--------|----------------|----------------|--------------------|--------|


 C|--------|--------|--------|--------|--------|--------|--------|--------|--------|
 G|--------|--------|--------|--------|--------|--------|--------|--------|--------|
D#|--------|--------|--------|--------|--------|--------|--------|--------|--------|
A#|--------|--------|--------|--------|--------|--------|--------|--------|--------|
 F|--------|--------|--------|--------|--------|--------|--------|--------|--------|
 C|--------|--------|--------|--------|--------|--------|--------|--------|--------|


 C|--------|--------|--------|--------|--------|--------|--------|--------|--------|
 G|--------|--------|--------|--------|--------|--------|--------|--------|--------|
D#|--------|--------|--------|--------|--------|--------|--------|--------|--------|
A#|--------|--------|--------|--------|--------|--------|--------|--------|--------|
 F|--------|--------|--------|--------|--------|--------|--------|--------|--------|
 C|--------|--------|--------|--------|--------|--------|--------|--------|--------|


 C|--------|
 G|--------|
D#|--------|
A#|--------|
 F|--------|
 C|--------|





Track 5: Gtr. 4 (elec. w/dist.)

 C|--------|--------|--------|--------|--------|--------|--------|--------|--------|
 G|--------|--------|--------|--------|--------|--------|--------|--------|--------|
D#|--------|--------|--------|--------|--------|--------|--------|--------|--------|
A#|--------|--------|--------|--------|--------|--------|--------|--------|--------|
 F|--------|--------|--------|--------|--------|--------|--------|--------|--------|
 C|--------|--------|--------|--------|--------|--------|--------|--------|--------|


 C|--------|--------|--------|--------|--------|--------|--------|--------|--------|
 G|--------|--------|--------|--------|--------|--------|--------|--------|--------|
D#|--------|--------|--------|--------|--------|--------|--------|--------|--------|
A#|--------|--------|--------|--------|--------|--------|--------|--------|--------|
 F|--------|--------|--------|--------|--------|--------|--------|--------|--------|
 C|--------|--------|--------|--------|--------|--------|--------|--------|--------|


 C|--------|--------|--------|--------|--------|--------|--------|--------|--------|
 G|--------|--------|--------|--------|--------|--------|--------|--------|--------|
D#|--------|--------|--------|--------|--------|--------|--------|--------|--------|
A#|--------|--------|--------|--------|--------|--------|--------|--------|--------|
 F|--------|--------|--------|--------|--------|--------|--------|--------|--------|
 C|--------|--------|--------|--------|--------|--------|--------|--------|--------|


 C|--------|--------|--------|--------|--------|--------|--------|--------|--------|
 G|--------|--------|--------|--------|--------|--------|--------|--------|--------|
D#|--------|--------|--------|--------|--------|--------|--------|--------|--------|
A#|--------|--------|--------|--------|--------|--------|--------|--------|--------|
 F|--------|--------|--------|--------|--------|--------|--------|--------|--------|
 C|--------|--------|--------|--------|--------|--------|--------|--------|--------|


 C|--------|--------|--------|--------|--------|--------|--------|--------|--------|
 G|--------|--------|--------|--------|--------|--------|--------|--------|--------|
D#|--------|--------|--------|--------|--------|--------|--------|--------|--------|
A#|--------|--------|--------|--------|--------|--------|--------|--------|--------|
 F|--------|--------|--------|--------|--------|--------|--------|--------|--------|
 C|--------|--------|--------|--------|--------|--------|--------|--------|--------|


 C|--------|--------|--------|--------|--------|--------|--------|--------|--------|
 G|--------|--------|--------|--------|--------|--------|--------|--------|--------|
D#|--------|--------|--------|--------|--------|--------|--------|--------|--------|
A#|--------|--------|--------|--------|--------|--------|--------|--------|--------|
 F|--------|--------|--------|--------|--------|--------|--------|--------|--------|
 C|--------|--------|--------|--------|--------|--------|--------|--------|--------|


 C|--------|--------|--------|--------|--------|--------|--------|--------|--------|
 G|--------|--------|--------|--------|--------|--------|--------|--------|--------|
D#|--------|--------|--------|--------|--------|--------|--------|--------|--------|
A#|--------|--------|--------|--------|--------|--------|--------|--------|--------|
 F|--------|--------|--------|--------|--------|--------|--------|--------|--------|
 C|--------|--------|--------|--------|--------|--------|--------|--------|--------|


 C|--------|--------|--------|--------|--------|--------|--------|--------|--------|
 G|--------|--------|--------|--------|--------|--------|--------|--------|--------|
D#|--------|--------|--------|--------|--------|--------|--------|--------|--------|
A#|--------|--------|--------|--------|--------|--------|--------|--------|--------|
 F|--------|--------|--------|--------|--------|--------|--------|--------|--------|
 C|--------|--------|--------|--------|--------|--------|--------|--------|--------|


 C|--------|--------|--------|--------|---------------------------------|-----------------------------------|
 G|--------|--------|--------|--------|---------------------------------|-----------------------------------|
D#|--------|--------|--------|--------|---------16----------16------16--|-----16-17-16--14------16------16--|
A#|--------|--------|--------|--------|-14--14------14--14------14------|-14----------------14------14------|
 F|--------|--------|--------|--------|---------------------------------|-----------------------------------|
 C|--------|--------|--------|--------|---------------------------------|-----------------------------------|


 C|---------------------------------|---------------------------------|--------|--------|
 G|---------------------------------|---------------------------------|--------|--------|
D#|---------16----------16------16--|---------16----------16------16--|--------|--------|
A#|-15--15------15--15------15------|-15--15------15--15------15------|--------|--------|
 F|---------------------------------|---------------------------------|--------|--------|
 C|---------------------------------|---------------------------------|--------|--------|


 C|--------|--------|--------|--------|--------|--------|--------|--------|--------|
 G|--------|--------|--------|--------|--------|--------|--------|--------|--------|
D#|--------|--------|--------|--------|--------|--------|--------|--------|--------|
A#|--------|--------|--------|--------|--------|--------|--------|--------|--------|
 F|--------|--------|--------|--------|--------|--------|--------|--------|--------|
 C|--------|--------|--------|--------|--------|--------|--------|--------|--------|


 C|--------|--------|--------|--------|--------|--------|--------|--------|--------|
 G|--------|--------|--------|--------|--------|--------|--------|--------|--------|
D#|--------|--------|--------|--------|--------|--------|--------|--------|--------|
A#|--------|--------|--------|--------|--------|--------|--------|--------|--------|
 F|--------|--------|--------|--------|--------|--------|--------|--------|--------|
 C|--------|--------|--------|--------|--------|--------|--------|--------|--------|


 C|--------|--------|--------|--------|
 G|--------|--------|--------|--------|
D#|--------|--------|--------|--------|
A#|--------|--------|--------|--------|
 F|--------|--------|--------|--------|
 C|--------|--------|--------|--------|





Track 6: Gtr. 2 (elec. w/dist.)

 C|--------|--------|--------|--------|--------|--------|--------|--------|--------|
 G|--------|--------|--------|--------|--------|--------|--------|--------|--------|
D#|--------|--------|--------|--------|--------|--------|--------|--------|--------|
A#|--------|--------|--------|--------|--------|--------|--------|--------|--------|
 F|--------|--------|--------|--------|--------|--------|--------|--------|--------|
 C|--------|--------|--------|--------|--------|--------|--------|--------|--------|


 C|--------|--------|--------|--------|--------|--------|--------|--------|--------|
 G|--------|--------|--------|--------|--------|--------|--------|--------|--------|
D#|--------|--------|--------|--------|--------|--------|--------|--------|--------|
A#|--------|--------|--------|--------|--------|--------|--------|--------|--------|
 F|--------|--------|--------|--------|--------|--------|--------|--------|--------|
 C|--------|--------|--------|--------|--------|--------|--------|--------|--------|


 C|--------|--------|--------|--------|--------|--------|--------|--------|--------|
 G|--------|--------|--------|--------|--------|--------|--------|--------|--------|
D#|--------|--------|--------|--------|--------|--------|--------|--------|--------|
A#|--------|--------|--------|--------|--------|--------|--------|--------|--------|
 F|--------|--------|--------|--------|--------|--------|--------|--------|--------|
 C|--------|--------|--------|--------|--------|--------|--------|--------|--------|


 C|--------|--------|--------|--------|--------|--------|--------|--------|--------|
 G|--------|--------|--------|--------|--------|--------|--------|--------|--------|
D#|--------|--------|--------|--------|--------|--------|--------|--------|--------|
A#|--------|--------|--------|--------|--------|--------|--------|--------|--------|
 F|--------|--------|--------|--------|--------|--------|--------|--------|--------|
 C|--------|--------|--------|--------|--------|--------|--------|--------|--------|


 C|--------|--------|--------|--------|--------|--------|--------|--------|--------|
 G|--------|--------|--------|--------|--------|--------|--------|--------|--------|
D#|--------|--------|--------|--------|--------|--------|--------|--------|--------|
A#|--------|--------|--------|--------|--------|--------|--------|--------|--------|
 F|--------|--------|--------|--------|--------|--------|--------|--------|--------|
 C|--------|--------|--------|--------|--------|--------|--------|--------|--------|


 C|--------|--------|--------|--------|--------|--------|--------|--------|--------|
 G|--------|--------|--------|--------|--------|--------|--------|--------|--------|
D#|--------|--------|--------|--------|--------|--------|--------|--------|--------|
A#|--------|--------|--------|--------|--------|--------|--------|--------|--------|
 F|--------|--------|--------|--------|--------|--------|--------|--------|--------|
 C|--------|--------|--------|--------|--------|--------|--------|--------|--------|


 C|--------|--------|--------|--------|--------|--------|--------|--------|--------|
 G|--------|--------|--------|--------|--------|--------|--------|--------|--------|
D#|--------|--------|--------|--------|--------|--------|--------|--------|--------|
A#|--------|--------|--------|--------|--------|--------|--------|--------|--------|
 F|--------|--------|--------|--------|--------|--------|--------|--------|--------|
 C|--------|--------|--------|--------|--------|--------|--------|--------|--------|


 C|--------|--------|--------|--------|--------|--------|--------|--------|--------|
 G|--------|--------|--------|--------|--------|--------|--------|--------|--------|
D#|--------|--------|--------|--------|--------|--------|--------|--------|--------|
A#|--------|--------|--------|--------|--------|--------|--------|--------|--------|
 F|--------|--------|--------|--------|--------|--------|--------|--------|--------|
 C|--------|--------|--------|--------|--------|--------|--------|--------|--------|


 C|--------|--------|--------|--------|--------|--------|--------|--------|---------------------------------|
 G|--------|--------|--------|--------|--------|--------|--------|--------|---------------------------------|
D#|--------|--------|--------|--------|--------|--------|--------|--------|---------16----------16------16--|
A#|--------|--------|--------|--------|--------|--------|--------|--------|-14--14------14--14------14------|
 F|--------|--------|--------|--------|--------|--------|--------|--------|---------------------------------|
 C|--------|--------|--------|--------|--------|--------|--------|--------|---------------------------------|


 C|-----------------------------------|---------------------------------|---------------------------------|
 G|-----------------------------------|---------------------------------|---------------------------------|
D#|-----16-17-16--14------16------16--|---------16----------16------16--|-16--16--16--16--16--14--14--14--|
A#|-14----------------14------14------|-15--15------15--15------15------|---------------------------------|
 F|-----------------------------------|---------------------------------|---------------------------------|
 C|-----------------------------------|---------------------------------|---------------------------------|


 C|--------|--------|--------|--------|--------|--------|--------|--------|--------|
 G|--------|--------|--------|--------|--------|--------|--------|--------|--------|
D#|--------|--------|--------|--------|--------|--------|--------|--------|--------|
A#|--------|--------|--------|--------|--------|--------|--------|--------|--------|
 F|--------|--------|--------|--------|--------|--------|--------|--------|--------|
 C|--------|--------|--------|--------|--------|--------|--------|--------|--------|


 C|--------|--------|--------|--------|--------|--------|--------|--------|--------|
 G|--------|--------|--------|--------|--------|--------|--------|--------|--------|
D#|--------|--------|--------|--------|--------|--------|--------|--------|--------|
A#|--------|--------|--------|--------|--------|--------|--------|--------|--------|
 F|--------|--------|--------|--------|--------|--------|--------|--------|--------|
 C|--------|--------|--------|--------|--------|--------|--------|--------|--------|


 C|--------|--------|
 G|--------|--------|
D#|--------|--------|
A#|--------|--------|
 F|--------|--------|
 C|--------|--------|





Track 7: Bass

D#|--------|--------|--------|--------|-----------------------|---------------------------|
A#|--------|--------|--------|--------|-------------------7---|-7---7---------7---7---7---|
 F|--------|--------|--------|--------|-0-----0---0---0-------|-----------0---------------|
 C|--------|--------|--------|--------|-----------------------|---------------------------|


D#|---------------------------|---------------------------------|-----------------------|
A#|---------------------------|---------------------------------|-------------------7---|
 F|-8----8----8---8---8---7---|-7---7---7---7---7---7---7---3---|-0-----0---0---0-------|
 C|---------------------------|---------------------------------|-----------------------|


D#|---------------------------|---------------------------|---------------------------------|
A#|-7---7---------7---7---7---|---------------------------|---------------------------------|
 F|-----------0---------------|-8----8----8---8---8---7---|-7---7---7---7---7---7---7---3---|
 C|---------------------------|---------------------------|---------------------------------|


D#|-----------------------|---------------------------|---------------------------|
A#|-------------------7---|-7---7---------7---7---7---|---------------------------|
 F|-0-----0---0---0-------|-----------0---------------|-8----8----8---8---8---7---|
 C|-----------------------|---------------------------|---------------------------|


D#|---------------------------------|-----------------------|-----------------------------|
A#|---------------------------------|-----------------------|-----7---------7--7--7---7---|
 F|-7---7---7---7---7---7---7---3---|-0-----0---0---0---0---|-0---------0-----------------|
 C|---------------------------------|-----------------------|-----------------------------|


D#|---------------------------|---------------------------------|---------------------------|
A#|---------------------------|---------------------------------|---------------------------|
 F|-8----8----8---8---8---7---|-7---7---7---7---7---7---7---3---|-5----5----5---5-------5---|
 C|---------------------------|---------------------------------|---------------------------|


D#|---------------------------------|---------------------------|------------------------------|
A#|---------------------------------|---------------------------|------------------------------|
 F|-5---5-------7---7---5---5---5---|-3----3----3---3---12--14--|-14--14--14--14--14--15--15---|
 C|---------------------------------|---------------------------|------------------------------|


D#|---------------------------|---------------------------------|---------------------------|
A#|---------------------------|---------------------------------|---------------------------|
 F|-5----5----5---5-------5---|-5---5-------7---7---5---5---5---|-3----3----3---3---3---2---|
 C|---------------------------|---------------------------------|---------------------------|


D#|---------------------------------|-----------------------|---------------------------|
A#|---------------------------------|-------------------7---|-7---7---------7---7---7---|
 F|-2---2---2---2---2---3---2---2---|-0-----0---0---0-------|-----------0---------------|
 C|---------------------------------|-----------------------|---------------------------|


D#|---------------------------|---------------------------------|-----------------------|
A#|---------------------------|---------------------------------|-------------------7---|
 F|-8----8----8---8---8---7---|-7---7---7---7---7---7---7---3---|-0-----0---0---0-------|
 C|---------------------------|---------------------------------|-----------------------|


D#|---------------------------|---------------------------|---------------------------------|
A#|-7---7---------7---7---7---|---------------------------|---------------------------------|
 F|-----------0---------------|-8----8----8---8---8---7---|-7---7---7---7---7---7---7---3---|
 C|---------------------------|---------------------------|---------------------------------|


D#|-----------------------|---------------------------|---------------------------|
A#|-------------------7---|-7---7---------7---7---7---|---------------------------|
 F|-0-----0---0---0-------|-----------0---------------|-8----8----8---8---8---7---|
 C|-----------------------|---------------------------|---------------------------|


D#|---------------------------------|-----------------------|---------------------------|
A#|---------------------------------|-------------------7---|-7---7---------7---7---7---|
 F|-7---7---7---7---7---7---7---3---|-0-----0---0---0-------|-----------0---------------|
 C|---------------------------------|-----------------------|---------------------------|


D#|---------------------------|---------------------------------|-----------------------|
A#|---------------------------|---------------------------------|-----------------------|
 F|-8----8----8---8---8---7---|-7---7---7---7---7---7---7---3---|-0-----0---0---0---0---|
 C|---------------------------|---------------------------------|-----------------------|


D#|-----------------------------|---------------------------|---------------------------------|
A#|-----7---------7--7--7---7---|---------------------------|---------------------------------|
 F|-0---------0-----------------|-8----8----8---8---8---7---|-7---7---7---7---7---7---7---3---|
 C|-----------------------------|---------------------------|---------------------------------|


D#|---------------------------|---------------------------------|---------------------------|
A#|---------------------------|---------------------------------|---------------------------|
 F|-5----5----5---5-------5---|-5---5-------7---7---5---5---5---|-3----3----3---3---12--14--|
 C|---------------------------|---------------------------------|---------------------------|


D#|------------------------------|---------------------------|---------------------------------|
A#|------------------------------|---------------------------|---------------------------------|
 F|-14--14--14--14--14--15--15---|-5----5----5---5-------5---|-5---5-------7---7---5---5---5---|
 C|------------------------------|---------------------------|---------------------------------|


D#|---------------------------|---------------------------------|------------------------|
A#|---------------------------|---------------------------------|--------------------12--|
 F|-3----3----3---3---3---2---|-2---2---2---2---2---3---3---5---|-5----5----5---5--------|
 C|---------------------------|---------------------------------|------------------------|


D#|------------------------------|---------------------------|---------------------------------|
A#|-12--12--12--12--14--12--12---|---------------------------|---------------------------------|
 F|------------------------------|-3----3----3---3---3---2---|-2---2---2---2---2---3---3---5---|
 C|------------------------------|---------------------------|---------------------------------|


D#|---------------------------|---------------------------------|---------------------------|
A#|---------------------------|---------------------------------|---------------------------|
 F|-5----5----5---5-------5---|-5---5-------7---7---5---5---5---|-3----3----3---3---3---2---|
 C|---------------------------|---------------------------------|---------------------------|


D#|-------------|--------------------2---|-2-----2-------2-------|-----------------------4--5--|
A#|-------------|------------------------|-----------------------|-3-----3---3---3---3---------|
 F|-2------2----|-0----0----0----0-------|-----------0-------0---|-----------------------------|
 C|-------------|------------------------|-----------------------|-----------------------------|


D#|-4-----2---2---2---2---2---|--------------------2---|-2-----2-------2-------|-----------------------4--5--|
A#|---------------------------|------------------------|-----------------------|-3-----3---3---3---3---------|
 F|---------------------------|-0----0----0----0-------|-----------0-------0---|-----------------------------|
 C|---------------------------|------------------------|-----------------------|-----------------------------|


D#|-4-----2---2---2---2---2---|--------------------2---|-2-----2-------2-------|-----------------------4--5--|
A#|---------------------------|------------------------|-----------------------|-3-----3---3---3---3---------|
 F|---------------------------|-0----0----0----0-------|-----------0-------0---|-----------------------------|
 C|---------------------------|------------------------|-----------------------|-----------------------------|


D#|-4-----2---2---2---2---2---|-------------2---2---2---2-------|-------------2---2---2---2-------|
A#|---------------------------|---------------------------------|---------------------------------|
 F|---------------------------|-0---0---0-------------------0---|-0---0---0-------------------0---|
 C|---------------------------|---------------------------------|---------------------------------|


D#|-----------------------------4--5--|-4---4---4---2---2---2---2-------|-------------2---2---2---2-------|
A#|-3---3---3---3---3---3---3---------|-----------------------------0---|---------------------------------|
 F|-----------------------------------|---------------------------------|-0---0---0-------------------0---|
 C|-----------------------------------|---------------------------------|---------------------------------|


D#|-------------2---2---2---2-------|-----------------------------4--5--|-4---4---4---2---2---2---2-------|
A#|---------------------------------|-3---3---3---3---3---3---3---------|-----------------------------0---|
 F|-0---0---0-------------------0---|-----------------------------------|---------------------------------|
 C|---------------------------------|-----------------------------------|---------------------------------|


D#|---------------------------|---------------------------------|---------------------------|
A#|---------------------------|---------------------------------|---------------------------|
 F|-5----5----5---5-------5---|-5---5-------7---7---5---5---5---|-3----3----3---3---12--14--|
 C|---------------------------|---------------------------------|---------------------------|


D#|------------------------------|---------------------------|---------------------------------|
A#|------------------------------|---------------------------|---------------------------------|
 F|-14--14--14--14--14--15--15---|-5----5----5---5-------5---|-5---5-------7---7---5---5---5---|
 C|------------------------------|---------------------------|---------------------------------|


D#|---------------------------|---------------------------------|------------------------|
A#|---------------------------|---------------------------------|--------------------12--|
 F|-3----3----3---3---3---2---|-2---2---2---2---2---3---2---2---|-5----5----5---5--------|
 C|---------------------------|---------------------------------|------------------------|


D#|------------------------------|---------------------------|---------------------------------|
A#|-12--12--12--12--14--12--12---|---------------------------|---------------------------------|
 F|------------------------------|-3----3----3---3---3---2---|-2---2---2---2---2---3---3---5---|
 C|------------------------------|---------------------------|---------------------------------|


D#|---------------------------|---------------------------------|---------------------------|
A#|---------------------------|---------------------------------|---------------------------|
 F|-5----5----5---5-------5---|-5---5-------7---7---5---5---5---|-3----3----3---3---3---2---|
 C|---------------------------|---------------------------------|---------------------------|


D#|-------------|--------|--------|--------|-------------|
A#|-------------|--------|--------|--------|-------------|
 F|-2------2----|-0------|-0------|-0------|-0------0----|
 C|-------------|--------|--------|--------|-------------|