Site menu:

    

Browse: 0-9 A B C D E F G H I J K L N O P Q R S T U V W X Y Z

cold - cure my tragedy:



Title: Cure My Tragedy
Artist: 
Album: Year of the Spider
Author: Cold


Track 1: Lead Guitar Clean w/slight delay

 C|-------------12-12-12----------------------------|-------------12-12-12----------------------------|
 G|-------12-13-------------------15----------------|-------12-13-------------------15-15-15-15-15-15-|
D#|----12----------------12-11-12----12-11-12-11-12-|----12----------------12-11-12-------------------|
A#|-14----------------------------------------------|-14----------------------------------------------|
 F|-------------------------------------------------|-------------------------------------------------|
 C|-------------------------------------------------|-------------------------------------------------|


 C|-------------12-12-12----------------------------|-------------12-12-12----------------------------|
 G|-------12-13-------------------15----------------|-------12-13-------------------15-15-15-15-15-15-|
D#|----12----------------12-11-12----12-11-12-11-12-|----12----------------12-11-12-------------------|
A#|-14----------------------------------------------|-14----------------------------------------------|
 F|-------------------------------------------------|-------------------------------------------------|
 C|-------------------------------------------------|-------------------------------------------------|


 C|---------------------------|--------|---------------------------|--------|-------------12-12-12----------------------------|
 G|---------------12-13-12----|-12-----|---------------12-13-12----|-12-----|-------12-13-------------------15----------------|
D#|------------12----------12-|--------|------------12----------12-|--------|----12----------------12-11-12----12-11-12-11-12-|
A#|-14----14------------------|--------|-14----14------------------|--------|-14----------------------------------------------|
 F|---------------------------|--------|---------------------------|--------|-------------------------------------------------|
 C|---------------------------|--------|---------------------------|--------|-------------------------------------------------|


 C|-------------12-12-12----------------------------|-------------12-12-12----------------------------|
 G|-------12-13-------------------15-15-15-15-15-15-|-------12-13-------------------15----------------|
D#|----12----------------12-11-12-------------------|----12----------------12-11-12----12-11-12-11-12-|
A#|-14----------------------------------------------|-14----------------------------------------------|
 F|-------------------------------------------------|-------------------------------------------------|
 C|-------------------------------------------------|-------------------------------------------------|


 C|-------------12-12-12---------------------|--------|--------|--------|--------|
 G|-------12-13-------------------15-15-15---|--------|--------|--------|--------|
D#|----12----------------12-11-12------------|--------|--------|--------|--------|
A#|-14---------------------------------------|--------|--------|--------|--------|
 F|------------------------------------------|--------|--------|--------|--------|
 C|------------------------------------------|--------|--------|--------|--------|


 C|--------|--------|--------|--------|-------------12-12-12----------------------------|
 G|--------|--------|--------|--------|-------12-13-------------------15----------------|
D#|--------|--------|--------|--------|----12----------------12-11-12----12-11-12-11-12-|
A#|--------|--------|--------|--------|-14----------------------------------------------|
 F|--------|--------|--------|--------|-------------------------------------------------|
 C|--------|--------|--------|--------|-------------------------------------------------|


 C|-------------12-12-12----------------------------|---------------------------|--------|
 G|-------12-13-------------------15-15-15-15-15-15-|---------------12-13-12----|-12-----|
D#|----12----------------12-11-12-------------------|------------12----------12-|--------|
A#|-14----------------------------------------------|-14----14------------------|--------|
 F|-------------------------------------------------|---------------------------|--------|
 C|-------------------------------------------------|---------------------------|--------|


 C|---------------------------|--------|-------------12-12-12----------------------------|
 G|---------------12-13-12----|-12-----|-------12-13-------------------15----------------|
D#|------------12----------12-|--------|----12----------------12-11-12----12-11-12-11-12-|
A#|-14----14------------------|--------|-14----------------------------------------------|
 F|---------------------------|--------|-------------------------------------------------|
 C|---------------------------|--------|-------------------------------------------------|


 C|-------------12-12-12----------------------------|-------------12-12-12----------------------------|
 G|-------12-13-------------------15-15-15-15-15-15-|-------12-13-------------------15----------------|
D#|----12----------------12-11-12-------------------|----12----------------12-11-12----12-11-12-11-12-|
A#|-14----------------------------------------------|-14----------------------------------------------|
 F|-------------------------------------------------|-------------------------------------------------|
 C|-------------------------------------------------|-------------------------------------------------|


 C|-------------12-12-12---------------------|--------|--------|--------|--------|
 G|-------12-13-------------------15-15-15---|--------|--------|--------|--------|
D#|----12----------------12-11-12------------|--------|--------|--------|--------|
A#|-14---------------------------------------|--------|--------|--------|--------|
 F|------------------------------------------|--------|--------|--------|--------|
 C|------------------------------------------|--------|--------|--------|--------|


 C|--------|--------|--------|--------|--------|--------|--------|--------|--------|
 G|--------|--------|--------|--------|--------|--------|--------|--------|--------|
D#|--------|--------|--------|--------|--------|--------|--------|--------|--------|
A#|--------|--------|--------|--------|--------|--------|--------|--------|--------|
 F|--------|--------|--------|--------|--------|--------|--------|--------|--------|
 C|--------|--------|--------|--------|--------|--------|--------|--------|--------|


 C|--------|--------|--------|--------|--------|--------|--------|--------|--------|
 G|--------|--------|--------|--------|--------|--------|--------|--------|--------|
D#|--------|--------|--------|--------|--------|--------|--------|--------|--------|
A#|--------|--------|--------|--------|--------|--------|--------|--------|--------|
 F|--------|--------|--------|--------|--------|--------|--------|--------|--------|
 C|--------|--------|--------|--------|--------|--------|--------|--------|--------|


 C|--------|--------|--------|--------|--------|--------|--------|--------|--------|
 G|--------|--------|--------|--------|--------|--------|--------|--------|--------|
D#|--------|--------|--------|--------|--------|--------|--------|--------|--------|
A#|--------|--------|--------|--------|--------|--------|--------|--------|--------|
 F|--------|--------|--------|--------|--------|--------|--------|--------|--------|
 C|--------|--------|--------|--------|--------|--------|--------|--------|--------|


 C|--------|--------|--------|--------|--------|
 G|--------|--------|--------|--------|--------|
D#|--------|--------|--------|--------|--------|
A#|--------|--------|--------|--------|--------|
 F|--------|--------|--------|--------|--------|
 C|--------|--------|--------|--------|--------|





Track 2: Rythm Guitar Clean w/slight Phaser

 C|--------|--------|------------------------------------|--------------------------------------|
 G|--------|--------|----------8--8-------------8---8----|----------8--8----------------8--8----|
D#|--------|--------|-------9----------------------------|-------9-------------------7----------|
A#|--------|--------|----9-------------------7-----------|----9-------------------7-------------|
 F|--------|--------|-7----------------7--5--------------|-7----------------7--5----------------|
 C|--------|--------|------------------------------------|--------------------------------------|


 C|------------------------------------------|-------------------------------------------------|
 G|----------8--8--------------------5--5----|----------8--8--------------------5--5-----------|
D#|-------9--------9--9-----------7----------|-------9--------9--9-----------7--------7--7-----|
A#|----9-----------------------7-------------|----9-----------------------7-----------------7--|
 F|-7--------------------7--5----------------|-7--------------------7--5-----------------------|
 C|------------------------------------------|-------------------------------------------------|


 C|------------------------------------------|-------------------------------------------------|
 G|----------8--8--------------------5--5----|----------8--8--------------------5--5-----------|
D#|-------9--------9--9-----------7----------|-------9--------9--9-----------7--------7--7-----|
A#|----9-----------------------7-------------|----9-----------------------7-----------------7--|
 F|-7--------------------7--5----------------|-7--------------------7--5-----------------------|
 C|------------------------------------------|-------------------------------------------------|


 C|------------------------------------|--------------------------------------|------------------------------------|
 G|----------8--8-------------8---8----|----------8--8----------------8--8----|----------8--8-------------8---8----|
D#|-------9----------------------------|-------9-------------------7----------|-------9----------------------------|
A#|----9-------------------7-----------|----9-------------------7-------------|----9-------------------7-----------|
 F|-7----------------7--5--------------|-7----------------7--5----------------|-7----------------7--5--------------|
 C|------------------------------------|--------------------------------------|------------------------------------|


 C|--------------------------------------|--------|--------|--------|--------|--------|
 G|----------8--8----------------8--8----|--------|--------|--------|--------|--------|
D#|-------9-------------------7----------|--------|--------|--------|--------|--------|
A#|----9-------------------7-------------|--------|--------|--------|--------|--------|
 F|-7----------------7--5----------------|--------|--------|--------|--------|--------|
 C|--------------------------------------|--------|--------|--------|--------|--------|


 C|--------|--------|--------|--------|--------------------------------------|------------------------------------------|
 G|--------|--------|--------|--------|----------8--8----------------8--8----|----------8--8--------------------5--5----|
D#|--------|--------|--------|--------|-------9-------------------7----------|-------9--------9--9-----------7----------|
A#|--------|--------|--------|--------|----9-------------------7-------------|----9-----------------------7-------------|
 F|--------|--------|--------|--------|-7----------------7--5----------------|-7--------------------7--5----------------|
 C|--------|--------|--------|-0------|--------------------------------------|------------------------------------------|


 C|-------------------------------------------------|------------------------------------------|
 G|----------8--8--------------------5--5-----------|----------8--8--------------------5--5----|
D#|-------9--------9--9-----------7--------7--7-----|-------9--------9--9-----------7----------|
A#|----9-----------------------7-----------------7--|----9-----------------------7-------------|
 F|-7--------------------7--5-----------------------|-7--------------------7--5----------------|
 C|-------------------------------------------------|------------------------------------------|


 C|-------------------------------------------------|------------------------------------|
 G|----------8--8--------------------5--5-----------|----------8--8-------------8---8----|
D#|-------9--------9--9-----------7--------7--7-----|-------9----------------------------|
A#|----9-----------------------7-----------------7--|----9-------------------7-----------|
 F|-7--------------------7--5-----------------------|-7----------------7--5--------------|
 C|-------------------------------------------------|------------------------------------|


 C|--------------------------------------|------------------------------------|--------------------------------------|
 G|----------8--8----------------8--8----|----------8--8-------------8---8----|----------8--8----------------8--8----|
D#|-------9-------------------7----------|-------9----------------------------|-------9-------------------7----------|
A#|----9-------------------7-------------|----9-------------------7-----------|----9-------------------7-------------|
 F|-7----------------7--5----------------|-7----------------7--5--------------|-7----------------7--5----------------|
 C|--------------------------------------|------------------------------------|--------------------------------------|


 C|--------|--------|--------|--------|--------|--------|--------|--------|--------|
 G|--------|--------|--------|--------|--------|--------|--------|--------|--------|
D#|--------|--------|--------|--------|--------|--------|--------|--------|--------|
A#|--------|--------|--------|--------|--------|--------|--------|--------|--------|
 F|--------|--------|--------|--------|--------|--------|--------|--------|--------|
 C|--------|--------|--------|--------|--------|--------|--------|--------|--------|


 C|--------|--------|--------|--------|--------|--------|--------|--------|--------|
 G|--------|--------|--------|--------|--------|--------|--------|--------|--------|
D#|--------|--------|--------|--------|--------|--------|--------|--------|--------|
A#|--------|--------|--------|--------|--------|--------|--------|--------|--------|
 F|--------|--------|--------|--------|--------|--------|--------|--------|--------|
 C|--------|--------|--------|--------|--------|--------|--------|--------|--------|


 C|--------|--------|--------|--------|--------|--------|--------|--------|--------|
 G|--------|--------|--------|--------|--------|--------|--------|--------|--------|
D#|--------|--------|--------|--------|--------|--------|--------|--------|--------|
A#|--------|--------|--------|--------|--------|--------|--------|--------|--------|
 F|--------|--------|--------|--------|--------|--------|--------|--------|--------|
 C|--------|--------|--------|--------|--------|--------|--------|--------|--------|


 C|--------|--------|--------|--------|--------|--------|--------|--------|--------|
 G|--------|--------|--------|--------|--------|--------|--------|--------|--------|
D#|--------|--------|--------|--------|--------|--------|--------|--------|--------|
A#|--------|--------|--------|--------|--------|--------|--------|--------|--------|
 F|--------|--------|--------|--------|--------|--------|--------|--------|--------|
 C|--------|--------|--------|--------|--------|--------|--------|--------|--------|





Track 3: Rythm Guitar w/Distortion

 C|--------|--------|--------|--------|--------|--------|--------|--------|--------|
 G|--------|--------|--------|--------|--------|--------|--------|--------|--------|
D#|--------|--------|--------|--------|--------|--------|--------|--------|--------|
A#|--------|--------|--------|--------|--------|--------|--------|--------|--------|
 F|--------|--------|--------|--------|--------|--------|--------|--------|--------|
 C|--------|--------|--------|--------|--------|--------|--------|--------|--------|


 C|--------|--------|--------|-----------------------------------------|-----------------------------------------|
 G|--------|--------|--------|-----------------------------------------|-----------------------------------------|
D#|--------|--------|--------|-5---5---5---5--5--5--5--5---5--5--5--5--|-4---4---4---4--4--4--4--4---4--4--4--4--|
A#|--------|--------|--------|-5---5---5---5--5--5--5--5---5--5--5--5--|-4---4---4---4--4--4--4--4---4--4--4--4--|
 F|--------|--------|--------|-3---3---3---3--3--3--3--3---3--3--3--3--|-2---2---2---2--2--2--2--2---2--2--2--2--|
 C|--------|--------|--------|-----------------------------------------|-----------------------------------------|


 C|-----------------------------------------|-----------------------------------------|
 G|-----------------------------------------|-----------------------------------------|
D#|-----------------------------------------|-----------------------------------------|
A#|-2---2---2---2--2--2--2--2---2--2--2--2--|-5---5---5---5--5--5--5--5---5--5--5--5--|
 F|-2---2---2---2--2--2--2--2---2--2--2--2--|-5---5---5---5--5--5--5--5---5--5--5--5--|
 C|-0---0---0---0--0--0--0--0---0--0--0--0--|-3---3---3---3--3--3--3--3---3--3--3--3--|


 C|-----------------------------------------|-----------------------------------------|
 G|-----------------------------------------|-----------------------------------------|
D#|-5---5---5---5--5--5--5--5---5--5--5--5--|-4---4---4---4--4--4--4--4---4--4--4--4--|
A#|-5---5---5---5--5--5--5--5---5--5--5--5--|-4---4---4---4--4--4--4--4---4--4--4--4--|
 F|-3---3---3---3--3--3--3--3---3--3--3--3--|-2---2---2---2--2--2--2--2---2--2--2--2--|
 C|-----------------------------------------|-----------------------------------------|


 C|-----------------------------------------|-----------------------------------------|
 G|-----------------------------------------|-----------------------------------------|
D#|-----------------------------------------|-----------------------------------------|
A#|-2---2---2---2--2--2--2--2---2--2--2--2--|-5---5---5---5--5--5--5--5---5--5--5--5--|
 F|-2---2---2---2--2--2--2--2---2--2--2--2--|-5---5---5---5--5--5--5--5---5--5--5--5--|
 C|-0---0---0---0--0--0--0--0---0--0--0--0--|-3---3---3---3--3--3--3--3---3--3--3--3--|


 C|--------|--------|--------|--------|--------|--------|--------|--------|--------|
 G|--------|--------|--------|--------|--------|--------|--------|--------|--------|
D#|--------|--------|--------|--------|--------|--------|--------|--------|--------|
A#|--------|--------|--------|--------|--------|--------|--------|--------|--------|
 F|--------|--------|--------|--------|--------|--------|--------|--------|--------|
 C|--------|--------|--------|--------|--------|--------|--------|--------|--------|


 C|--------|-----------------------------------------|-----------------------------------------|
 G|--------|-----------------------------------------|-----------------------------------------|
D#|--------|-5---5---5---5--5--5--5--5---5--5--5--5--|-4---4---4---4--4--4--4--4---4--4--4--4--|
A#|--------|-5---5---5---5--5--5--5--5---5--5--5--5--|-4---4---4---4--4--4--4--4---4--4--4--4--|
 F|--------|-3---3---3---3--3--3--3--3---3--3--3--3--|-2---2---2---2--2--2--2--2---2--2--2--2--|
 C|--------|-----------------------------------------|-----------------------------------------|


 C|-----------------------------------------|-----------------------------------------|
 G|-----------------------------------------|-----------------------------------------|
D#|-----------------------------------------|-----------------------------------------|
A#|-2---2---2---2--2--2--2--2---2--2--2--2--|-5---5---5---5--5--5--5--5---5--5--5--5--|
 F|-2---2---2---2--2--2--2--2---2--2--2--2--|-5---5---5---5--5--5--5--5---5--5--5--5--|
 C|-0---0---0---0--0--0--0--0---0--0--0--0--|-3---3---3---3--3--3--3--3---3--3--3--3--|


 C|-----------------------------------------|-----------------------------------------|
 G|-----------------------------------------|-----------------------------------------|
D#|-5---5---5---5--5--5--5--5---5--5--5--5--|-4---4---4---4--4--4--4--4---4--4--4--4--|
A#|-5---5---5---5--5--5--5--5---5--5--5--5--|-4---4---4---4--4--4--4--4---4--4--4--4--|
 F|-3---3---3---3--3--3--3--3---3--3--3--3--|-2---2---2---2--2--2--2--2---2--2--2--2--|
 C|-----------------------------------------|-----------------------------------------|


 C|-----------------------------------------|-----------------------------------------|
 G|-----------------------------------------|-----------------------------------------|
D#|-----------------------------------------|-----------------------------------------|
A#|-2---2---2---2--2--2--2--2---2--2--2--2--|-5---5---5---5--5--5--5--5---5--5--5--5--|
 F|-2---2---2---2--2--2--2--2---2--2--2--2--|-5---5---5---5--5--5--5--5---5--5--5--5--|
 C|-0---0---0---0--0--0--0--0---0--0--0--0--|-3---3---3---3--3--3--3--3---3--3--3--3--|


 C|---------------------------------------------|---------------------------------------------|
 G|---------------------------------------------|---------------------------------------------|
D#|---------------------------------------------|---------------------------------------------|
A#|-2---2---2--2--2--2--2--2--2--2--2--2--2--2--|-5---5---5--5--5--5--5--5--5--5--5--5--5--5--|
 F|-2---2---2--2--2--2--2--2--2--2--2--2--2--2--|-5---5---5--5--5--5--5--5--5--5--5--5--5--5--|
 C|-0---0---0--0--0--0--0--0--0--0--0--0--0--0--|-3---3---3--3--3--3--3--3--3--3--3--3--3--3--|


 C|---------------------------------------------|---------------------------------------------|
 G|---------------------------------------------|---------------------------------------------|
D#|-2---2---2--2--2--2--2--2--2--2--2--2--2--2--|-5---5---5--5--5--4--4--4--4--4--4--4--4--4--|
A#|-2---2---2--2--2--2--2--2--2--2--2--2--2--2--|-5---5---5--5--5--4--4--4--4--4--4--4--4--4--|
 F|-0---0---0--0--0--0--0--0--0--0--0--0--0--0--|-3---3---3--3--3--2--2--2--2--2--2--2--2--2--|
 C|---------------------------------------------|---------------------------------------------|


 C|---------------------------------------------|---------------------------------------------|
 G|---------------------------------------------|---------------------------------------------|
D#|---------------------------------------------|---------------------------------------------|
A#|-2---2---2--2--2--2--2--2--2--2--2--2--2--2--|-5---5---5--5--5--5--5--5--5--5--5--5--5--5--|
 F|-2---2---2--2--2--2--2--2--2--2--2--2--2--2--|-5---5---5--5--5--5--5--5--5--5--5--5--5--5--|
 C|-0---0---0--0--0--0--0--0--0--0--0--0--0--0--|-3---3---3--3--3--3--3--3--3--3--3--3--3--3--|


 C|---------------------------------------------|--------------------------------------|
 G|---------------------------------------------|--------------------------------------|
D#|-2---2---2--2--2--2--2--2--2--2--2--2--2--2--|-5---5---5--5--5--4--4--4--4----------|
A#|-2---2---2--2--2--2--2--2--2--2--2--2--2--2--|-5---5---5--5--5--4--4--4--4----------|
 F|-0---0---0--0--0--0--0--0--0--0--0--0--0--0--|-3---3---3--3--3--2--2--2--2----------|
 C|---------------------------------------------|--------------------------------------|


 C|-----------------------------------------|-----------------------------------------|
 G|-----------------------------------------|-----------------------------------------|
D#|-5---5---5---5--5--5--5--5---5--5--5--5--|-4---4---4---4--4--4--4--4---4--4--4--4--|
A#|-5---5---5---5--5--5--5--5---5--5--5--5--|-4---4---4---4--4--4--4--4---4--4--4--4--|
 F|-3---3---3---3--3--3--3--3---3--3--3--3--|-2---2---2---2--2--2--2--2---2--2--2--2--|
 C|-----------------------------------------|-----------------------------------------|


 C|-----------------------------------------|-----------------------------------------|
 G|-----------------------------------------|-----------------------------------------|
D#|-----------------------------------------|-----------------------------------------|
A#|-2---2---2---2--2--2--2--2---2--2--2--2--|-5---5---5---5--5--5--5--5---5--5--5--5--|
 F|-2---2---2---2--2--2--2--2---2--2--2--2--|-5---5---5---5--5--5--5--5---5--5--5--5--|
 C|-0---0---0---0--0--0--0--0---0--0--0--0--|-3---3---3---3--3--3--3--3---3--3--3--3--|


 C|-----------------------------------------|-----------------------------------------|
 G|-----------------------------------------|-----------------------------------------|
D#|-5---5---5---5--5--5--5--5---5--5--5--5--|-4---4---4---4--4--4--4--4---4--4--4--4--|
A#|-5---5---5---5--5--5--5--5---5--5--5--5--|-4---4---4---4--4--4--4--4---4--4--4--4--|
 F|-3---3---3---3--3--3--3--3---3--3--3--3--|-2---2---2---2--2--2--2--2---2--2--2--2--|
 C|-----------------------------------------|-----------------------------------------|


 C|-----------------------------------------|-----------------------------------------|
 G|-----------------------------------------|-----------------------------------------|
D#|-----------------------------------------|-----------------------------------------|
A#|-2---2---2---2--2--2--2--2---2--2--2--2--|-5---5---5---5--5--5--5--5---5--5--5--5--|
 F|-2---2---2---2--2--2--2--2---2--2--2--2--|-5---5---5---5--5--5--5--5---5--5--5--5--|
 C|-0---0---0---0--0--0--0--0---0--0--0--0--|-3---3---3---3--3--3--3--3---3--3--3--3--|


 C|-----------------------------------------|-----------------------------------------|
 G|-----------------------------------------|-----------------------------------------|
D#|-5---5---5---5--5--5--5--5---5--5--5--5--|-4---4---4---4--4--4--4--4---4--4--4--4--|
A#|-5---5---5---5--5--5--5--5---5--5--5--5--|-4---4---4---4--4--4--4--4---4--4--4--4--|
 F|-3---3---3---3--3--3--3--3---3--3--3--3--|-2---2---2---2--2--2--2--2---2--2--2--2--|
 C|-----------------------------------------|-----------------------------------------|


 C|-----------------------------------------|-----------------------------------------|
 G|-----------------------------------------|-----------------------------------------|
D#|-----------------------------------------|-----------------------------------------|
A#|-2---2---2---2--2--2--2--2---2--2--2--2--|-5---5---5---5--5--5--5--5---5--5--5--5--|
 F|-2---2---2---2--2--2--2--2---2--2--2--2--|-5---5---5---5--5--5--5--5---5--5--5--5--|
 C|-0---0---0---0--0--0--0--0---0--0--0--0--|-3---3---3---3--3--3--3--3---3--3--3--3--|


 C|-----------------------------------------|-----------------------------------------|
 G|-----------------------------------------|-----------------------------------------|
D#|-5---5---5---5--5--5--5--5---5--5--5--5--|-4---4---4---4--4--4--4--4---4--4--4--4--|
A#|-5---5---5---5--5--5--5--5---5--5--5--5--|-4---4---4---4--4--4--4--4---4--4--4--4--|
 F|-3---3---3---3--3--3--3--3---3--3--3--3--|-2---2---2---2--2--2--2--2---2--2--2--2--|
 C|-----------------------------------------|-----------------------------------------|


 C|-----------------------------------------|-----------------------------------------|
 G|-----------------------------------------|-----------------------------------------|
D#|-5---5---5---5--5--5--5--5---5--5--5--5--|-4---4---4---4--4--4--4--4---4--4--4--4--|
A#|-5---5---5---5--5--5--5--5---5--5--5--5--|-4---4---4---4--4--4--4--4---4--4--4--4--|
 F|-3---3---3---3--3--3--3--3---3--3--3--3--|-2---2---2---2--2--2--2--2---2--2--2--2--|
 C|-----------------------------------------|-----------------------------------------|


 C|--------|--------|--------|--------|
 G|--------|--------|--------|--------|
D#|--------|--------|--------|--------|
A#|-2------|-2------|--------|--------|
 F|-2------|-2------|--------|--------|
 C|-0------|-0------|-0------|-0------|





Track 4: Lead Guitar w/Distortion and sligh delay in solo

 C|--------|--------|--------|--------|--------|--------|--------|--------|--------|
 G|--------|--------|--------|--------|--------|--------|--------|--------|--------|
D#|--------|--------|--------|--------|--------|--------|--------|--------|--------|
A#|--------|--------|--------|--------|--------|--------|--------|--------|--------|
 F|--------|--------|--------|--------|--------|--------|--------|--------|--------|
 C|--------|--------|--------|--------|--------|--------|--------|--------|--------|


 C|--------|--------|--------|--------|--------|--------|--------|--------|--------|
 G|--------|--------|--------|--------|--------|--------|--------|--------|--------|
D#|--------|--------|--------|--------|--------|--------|--------|--------|--------|
A#|--------|--------|--------|--------|--------|--------|--------|--------|--------|
 F|--------|--------|--------|--------|--------|--------|--------|--------|--------|
 C|--------|--------|--------|--------|--------|--------|--------|--------|--------|


 C|--------|--------|--------|--------|--------|--------|--------|--------|--------|
 G|--------|--------|--------|--------|--------|--------|--------|--------|--------|
D#|--------|--------|--------|--------|--------|--------|--------|--------|--------|
A#|--------|--------|--------|--------|--------|--------|--------|--------|--------|
 F|--------|--------|--------|--------|--------|--------|--------|--------|--------|
 C|--------|--------|--------|--------|--------|--------|--------|--------|--------|


 C|--------|--------|--------|--------|--------|--------|--------|--------|--------|
 G|--------|--------|--------|--------|--------|--------|--------|--------|--------|
D#|--------|--------|--------|--------|--------|--------|--------|--------|--------|
A#|--------|--------|--------|--------|--------|--------|--------|--------|--------|
 F|--------|--------|--------|--------|--------|--------|--------|--------|--------|
 C|--------|--------|--------|--------|--------|--------|--------|--------|--------|


 C|-----------------------------------------|-------------------------------------|
 G|-----------------------------------------|-----------------------------12---12-|
D#|-----------------------------------------|-------------------------------------|
A#|-2---2---2---2--2--2--2--2---2--2--2--2--|-5---5---5---5--5--5--5--5-----------|
 F|-2---2---2---2--2--2--2--2---2--2--2--2--|-5---5---5---5--5--5--5--5-----------|
 C|-0---0---0---0--0--0--0--0---0--0--0--0--|-3---3---3---3--3--3--3--3-----------|


 C|-15---14-------------|-15---14-------------|------------------------12-|-19---19-20---20---20---|
 G|-----------15----15--|-----------12----12--|-17---17---12-17---17------|------------------------|
D#|---------------------|---------------------|---------------------------|------------------------|
A#|---------------------|---------------------|---------------------------|------------------------|
 F|---------------------|---------------------|---------------------------|------------------------|
 C|---------------------|---------------------|---------------------------|------------------------|


 C|------------------------------------|--------------------------|------------------------------------|
 G|------------------------------------|-------------17--17-17----|------------------------------------|
D#|-9----9--11-11--11---11-11-12-12-14-|-14---14--14--------------|-9----9--11-11--11---11-11-12-12-14-|
A#|------------------------------------|--------------------------|------------------------------------|
 F|------------------------------------|--------------------------|------------------------------------|
 C|------------------------------------|--------------------------|------------------------------------|


 C|-----------------17-17--17---|-17-----17---|-17-----17----|-15---14-------------|
 G|-------------17--------------|-------------|-----------12-|-----------12----12--|
D#|-14---14--14-----------------|-------------|--------------|---------------------|
A#|-----------------------------|-------------|--------------|---------------------|
 F|-----------------------------|-------------|--------------|---------------------|
 C|-----------------------------|-------------|--------------|---------------------|


 C|-15---14-------------|-15---14-------------|-15---14-------15---14-------|-15---14-------------|
 G|-----------15----15--|-----------12----12--|-----------12------------12--|-----------15----15--|
D#|---------------------|---------------------|-----------------------------|---------------------|
A#|---------------------|---------------------|-----------------------------|---------------------|
 F|---------------------|---------------------|-----------------------------|---------------------|
 C|---------------------|---------------------|-----------------------------|---------------------|


 C|-15---14-------------|--------------------------------|--------------------------------|
 G|-----------12----12--|-15-17---17---17-17-17-17---17--|-15-17---17---17-17-17-17---17--|
D#|---------------------|--------------------------------|--------------------------------|
A#|---------------------|--------------------------------|--------------------------------|
 F|---------------------|--------------------------------|--------------------------------|
 C|---------------------|--------------------------------|--------------------------------|


 C|-20---19---------17--|-19---17-------------17--|-19---17-------------19--|-20---19--------------|
 G|-----------17--------|-----------17----17------|-----------17----17------|-----------17----17---|
D#|---------------------|-------------------------|-------------------------|----------------------|
A#|---------------------|-------------------------|-------------------------|----------------------|
 F|---------------------|-------------------------|-------------------------|----------------------|
 C|---------------------|-------------------------|-------------------------|----------------------|


 C|-------------12-12-12--------------12-12-12--|-------------12-12-12--------------12-12-12--|
 G|-------12-13-----------------12-13-----------|-------12-13-----------------12-13-----------|
D#|----12--------------------12-----------------|----12--------------------12-----------------|
A#|-14--------------------14--------------------|-14--------------------14--------------------|
 F|---------------------------------------------|---------------------------------------------|
 C|---------------------------------------------|---------------------------------------------|


 C|-------------12-12-12--------------12-12-12--|-------------12-12-12--------------12-12-12--|
 G|-------12-13-----------------12-13-----------|-------12-13-----------------12-13-----------|
D#|----12--------------------12-----------------|----12--------------------12-----------------|
A#|-14--------------------14--------------------|-14--------------------14--------------------|
 F|---------------------------------------------|---------------------------------------------|
 C|---------------------------------------------|---------------------------------------------|


 C|-------------12-12-12--------------12-12-12--|-------------12-12-12--------------12-12-12--|
 G|-------12-13-----------------12-13-----------|-------12-13-----------------12-13-----------|
D#|----12--------------------12-----------------|----12--------------------12-----------------|
A#|-14--------------------14--------------------|-14--------------------14--------------------|
 F|---------------------------------------------|---------------------------------------------|
 C|---------------------------------------------|---------------------------------------------|





Track 5: Untitled

G|--------|--------|--------|--------|--------|--------|--------|--------|--------|
D|--------|--------|--------|--------|--------|--------|--------|--------|--------|
A|--------|--------|--------|--------|--------|--------|--------|--------|--------|
E|--------|--------|--------|--------|--------|--------|--------|--------|--------|


G|--------|--------|--------|--------|--------|--------|--------|--------|--------|
D|--------|--------|--------|--------|--------|--------|--------|--------|--------|
A|--------|--------|--------|--------|--------|--------|--------|--------|--------|
E|--------|--------|--------|--------|--------|--------|--------|--------|--------|


G|--------|--------|--------|--------|--------|--------|--------|--------|--------|
D|--------|--------|--------|--------|--------|--------|--------|--------|--------|
A|--------|--------|--------|--------|--------|--------|--------|--------|--------|
E|--------|--------|--------|--------|--------|--------|--------|--------|--------|


G|--------|--------|--------|--------|--------|--------|--------|--------|--------|
D|--------|--------|--------|--------|--------|--------|--------|--------|--------|
A|--------|--------|--------|--------|--------|--------|--------|--------|--------|
E|--------|--------|--------|--------|--------|--------|--------|--------|--------|


G|--------|--------|--------|--------|--------|--------|--------|--------|--------|
D|--------|--------|--------|--------|--------|--------|--------|--------|--------|
A|--------|--------|--------|--------|--------|--------|--------|--------|--------|
E|--------|--------|--------|--------|--------|--------|--------|--------|--------|


G|--------|--------|--------|--------|--------|--------|--------|--------|--------|
D|--------|--------|--------|--------|--------|--------|--------|--------|--------|
A|--------|--------|--------|--------|--------|--------|--------|--------|--------|
E|--------|--------|--------|--------|--------|--------|--------|--------|--------|


G|--------|--------|--------|--------|--------|--------|--------|--------|--------|
D|--------|--------|--------|--------|--------|--------|--------|--------|--------|
A|--------|--------|--------|--------|--------|--------|--------|--------|--------|
E|--------|--------|--------|--------|--------|--------|--------|--------|--------|


G|--------|--------|--------|
D|--------|--------|--------|
A|--------|--------|--------|
E|--------|--------|--------|