Site menu:

    

Browse: 0-9 A B C D E F G H I J K L N O P Q R S T U V W X Y Z

chumbawumba - tubthumpin:



Title: Tubthumpin' (I Get Knocked Down)
Artist: 
Album: Tudthumper
Author: Chumbwumba


Track 1: Intro

E|------------------------|------------------------|------------------------|---------------------------|
B|------------------------|------------------------|------------------------|-2---2---2---2---2---------|
G|-7----7-----------------|-7----7-----------------|-7----7-----------------|-2---2---2---2---2---------|
D|-7----7---5---5----5----|-7----7---5---5----5----|-7----7---5---5----5----|-2---2---2---2---2---------|
A|-5----5---5---5----5----|-5----5---5---5----5----|-5----5---5---5----5----|-0---0---0---0---0---------|
E|----------3---3----3----|----------3---3----3----|----------3---3----3----|---------------------------|


E|--------|--------|--------|--------|--------|--------|--------|--------|--------|
B|--------|--------|--------|--------|--------|--------|--------|--------|--------|
G|--------|--------|--------|--------|--------|--------|--------|--------|--------|
D|--------|--------|--------|--------|--------|--------|--------|--------|--------|
A|--------|--------|--------|--------|--------|--------|--------|--------|--------|
E|--------|--------|--------|--------|--------|--------|--------|--------|--------|


E|--------|--------|--------|--------|--------|--------|--------|--------|--------|
B|--------|--------|--------|--------|--------|--------|--------|--------|--------|
G|--------|--------|--------|--------|--------|--------|--------|--------|--------|
D|--------|--------|--------|--------|--------|--------|--------|--------|--------|
A|--------|--------|--------|--------|--------|--------|--------|--------|--------|
E|--------|--------|--------|--------|--------|--------|--------|--------|--------|


E|--------|--------|--------|--------|--------|--------|--------|--------|--------|
B|--------|--------|--------|--------|--------|--------|--------|--------|--------|
G|--------|--------|--------|--------|--------|--------|--------|--------|--------|
D|--------|--------|--------|--------|--------|--------|--------|--------|--------|
A|--------|--------|--------|--------|--------|--------|--------|--------|--------|
E|--------|--------|--------|--------|--------|--------|--------|--------|--------|


E|--------|--------|--------|--------|--------|--------|--------|--------|--------|
B|--------|--------|--------|--------|--------|--------|--------|--------|--------|
G|--------|--------|--------|--------|--------|--------|--------|--------|--------|
D|--------|--------|--------|--------|--------|--------|--------|--------|--------|
A|--------|--------|--------|--------|--------|--------|--------|--------|--------|
E|--------|--------|--------|--------|--------|--------|--------|--------|--------|


E|--------|--------|--------|--------|--------|--------|--------|--------|--------|
B|--------|--------|--------|--------|--------|--------|--------|--------|--------|
G|--------|--------|--------|--------|--------|--------|--------|--------|--------|
D|--------|--------|--------|--------|--------|--------|--------|--------|--------|
A|--------|--------|--------|--------|--------|--------|--------|--------|--------|
E|--------|--------|--------|--------|--------|--------|--------|--------|--------|


E|--------|--------|--------|--------|--------|--------|--------|--------|--------|
B|--------|--------|--------|--------|--------|--------|--------|--------|--------|
G|--------|--------|--------|--------|--------|--------|--------|--------|--------|
D|--------|--------|--------|--------|--------|--------|--------|--------|--------|
A|--------|--------|--------|--------|--------|--------|--------|--------|--------|
E|--------|--------|--------|--------|--------|--------|--------|--------|--------|


E|--------|--------|--------|--------|--------|--------|--------|--------|--------|
B|--------|--------|--------|--------|--------|--------|--------|--------|--------|
G|--------|--------|--------|--------|--------|--------|--------|--------|--------|
D|--------|--------|--------|--------|--------|--------|--------|--------|--------|
A|--------|--------|--------|--------|--------|--------|--------|--------|--------|
E|--------|--------|--------|--------|--------|--------|--------|--------|--------|


E|--------|--------|--------|--------|--------|--------|--------|--------|--------|
B|--------|--------|--------|--------|--------|--------|--------|--------|--------|
G|--------|--------|--------|--------|--------|--------|--------|--------|--------|
D|--------|--------|--------|--------|--------|--------|--------|--------|--------|
A|--------|--------|--------|--------|--------|--------|--------|--------|--------|
E|--------|--------|--------|--------|--------|--------|--------|--------|--------|


E|--------|--------|--------|--------|--------|--------|--------|--------|--------|
B|--------|--------|--------|--------|--------|--------|--------|--------|--------|
G|--------|--------|--------|--------|--------|--------|--------|--------|--------|
D|--------|--------|--------|--------|--------|--------|--------|--------|--------|
A|--------|--------|--------|--------|--------|--------|--------|--------|--------|
E|--------|--------|--------|--------|--------|--------|--------|--------|--------|


E|--------|--------|--------|--------|--------|--------|--------|
B|--------|--------|--------|--------|--------|--------|--------|
G|--------|--------|--------|--------|--------|--------|--------|
D|--------|--------|--------|--------|--------|--------|--------|
A|--------|--------|--------|--------|--------|--------|--------|
E|--------|--------|--------|--------|--------|--------|--------|





Track 2: Choruses

E|--------|--------|--------|--------|--------------------|--------------------|--------------------|
B|--------|--------|--------|--------|----------8---8-----|----------8---8-----|----------8---8-----|
G|--------|--------|--------|--------|-7----7---7---7-----|-7----7---7---7-----|-7----7---7---7-----|
D|--------|--------|--------|--------|-7----7---5---5-----|-7----7---5---5-----|-7----7---5---5-----|
A|--------|--------|--------|--------|-5----5-------------|-5----5-------------|-5----5-------------|
E|--------|--------|--------|--------|--------------------|--------------------|--------------------|


E|-0------|--------------------|--------------------|--------------------|-0------|
B|-2------|----------8---8-----|----------8---8-----|----------8---8-----|-2------|
G|-2------|-7----7---7---7-----|-7----7---7---7-----|-7----7---7---7-----|-2------|
D|-2------|-7----7---5---5-----|-7----7---5---5-----|-7----7---5---5-----|-2------|
A|-0------|-5----5-------------|-5----5-------------|-5----5-------------|-0------|
E|--------|--------------------|--------------------|--------------------|--------|


E|--------|--------|--------|--------|--------|--------|--------|--------|--------|
B|--------|--------|--------|--------|--------|--------|--------|--------|--------|
G|--------|--------|--------|--------|--------|--------|--------|--------|--------|
D|--------|--------|--------|--------|--------|--------|--------|--------|--------|
A|--------|--------|--------|--------|--------|--------|--------|--------|--------|
E|--------|--------|--------|--------|--------|--------|--------|--------|--------|


E|--------|--------|--------|--------------------|--------------------|--------------------|
B|--------|--------|--------|----------8---8-----|----------8---8-----|----------8---8-----|
G|--------|--------|--------|-7----7---7---7-----|-7----7---7---7-----|-7----7---7---7-----|
D|--------|--------|--------|-7----7---5---5-----|-7----7---5---5-----|-7----7---5---5-----|
A|--------|--------|--------|-5----5-------------|-5----5-------------|-5----5-------------|
E|--------|--------|--------|--------------------|--------------------|--------------------|


E|-0------|--------------------|--------------------|--------------------|-0------|
B|-2------|----------8---8-----|----------8---8-----|----------8---8-----|-2------|
G|-2------|-7----7---7---7-----|-7----7---7---7-----|-7----7---7---7-----|-2------|
D|-2------|-7----7---5---5-----|-7----7---5---5-----|-7----7---5---5-----|-2------|
A|-0------|-5----5-------------|-5----5-------------|-5----5-------------|-0------|
E|--------|--------------------|--------------------|--------------------|--------|


E|--------|--------|--------|--------|--------|--------|--------|--------|--------|
B|--------|--------|--------|--------|--------|--------|--------|--------|--------|
G|--------|--------|--------|--------|--------|--------|--------|--------|--------|
D|--------|--------|--------|--------|--------|--------|--------|--------|--------|
A|--------|--------|--------|--------|--------|--------|--------|--------|--------|
E|--------|--------|--------|--------|--------|--------|--------|--------|--------|


E|--------|--------|--------|--------------------|--------------------|--------------------|
B|--------|--------|--------|----------8---8-----|----------8---8-----|----------8---8-----|
G|--------|--------|--------|-7----7---7---7-----|-7----7---7---7-----|-7----7---7---7-----|
D|--------|--------|--------|-7----7---5---5-----|-7----7---5---5-----|-7----7---5---5-----|
A|--------|--------|--------|-5----5-------------|-5----5-------------|-5----5-------------|
E|--------|--------|--------|--------------------|--------------------|--------------------|


E|-0------|--------------------|--------------------|--------------------|-0------|
B|-2------|----------8---8-----|----------8---8-----|----------8---8-----|-2------|
G|-2------|-7----7---7---7-----|-7----7---7---7-----|-7----7---7---7-----|-2------|
D|-2------|-7----7---5---5-----|-7----7---5---5-----|-7----7---5---5-----|-2------|
A|-0------|-5----5-------------|-5----5-------------|-5----5-------------|-0------|
E|--------|--------------------|--------------------|--------------------|--------|


E|--------|--------|--------|--------|--------|--------|--------|--------|--------------------|
B|--------|--------|--------|--------|--------|--------|--------|--------|----------8---8-----|
G|--------|--------|--------|--------|--------|--------|--------|--------|-7----7---7---7-----|
D|--------|--------|--------|--------|--------|--------|--------|--------|-7----7---5---5-----|
A|--------|--------|--------|--------|--------|--------|--------|--------|-5----5-------------|
E|--------|--------|--------|--------|--------|--------|--------|--------|--------------------|


E|--------------------|--------------------|-0------|--------------------|--------------------|
B|----------8---8-----|----------8---8-----|-2------|----------8---8-----|----------8---8-----|
G|-7----7---7---7-----|-7----7---7---7-----|-2------|-7----7---7---7-----|-7----7---7---7-----|
D|-7----7---5---5-----|-7----7---5---5-----|-2------|-7----7---5---5-----|-7----7---5---5-----|
A|-5----5-------------|-5----5-------------|-0------|-5----5-------------|-5----5-------------|
E|--------------------|--------------------|--------|--------------------|--------------------|


E|--------------------|-0------|--------------------|--------------------|--------------------|
B|----------8---8-----|-2------|----------8---8-----|----------8---8-----|----------8---8-----|
G|-7----7---7---7-----|-2------|-7----7---7---7-----|-7----7---7---7-----|-7----7---7---7-----|
D|-7----7---5---5-----|-2------|-7----7---5---5-----|-7----7---5---5-----|-7----7---5---5-----|
A|-5----5-------------|-0------|-5----5-------------|-5----5-------------|-5----5-------------|
E|--------------------|--------|--------------------|--------------------|--------------------|


E|-0------|--------------------|--------------------|--------------------|-0------|
B|-2------|----------8---8-----|----------8---8-----|----------8---8-----|-2------|
G|-2------|-7----7---7---7-----|-7----7---7---7-----|-7----7---7---7-----|-2------|
D|-2------|-7----7---5---5-----|-7----7---5---5-----|-7----7---5---5-----|-2------|
A|-0------|-5----5-------------|-5----5-------------|-5----5-------------|-0------|
E|--------|--------------------|--------------------|--------------------|--------|


E|--------------------|--------------------|--------------------|-0------|--------------------|
B|----------8---8-----|----------8---8-----|----------8---8-----|-2------|----------8---8-----|
G|-7----7---7---7-----|-7----7---7---7-----|-7----7---7---7-----|-2------|-7----7---7---7-----|
D|-7----7---5---5-----|-7----7---5---5-----|-7----7---5---5-----|-2------|-7----7---5---5-----|
A|-5----5-------------|-5----5-------------|-5----5-------------|-0------|-5----5-------------|
E|--------------------|--------------------|--------------------|--------|--------------------|


E|--------------------|--------------------|-0------|--------------------|--------------------|
B|----------8---8-----|----------8---8-----|-2------|----------8---8-----|----------8---8-----|
G|-7----7---7---7-----|-7----7---7---7-----|-2------|-7----7---7---7-----|-7----7---7---7-----|
D|-7----7---5---5-----|-7----7---5---5-----|-2------|-7----7---5---5-----|-7----7---5---5-----|
A|-5----5-------------|-5----5-------------|-0------|-5----5-------------|-5----5-------------|
E|--------------------|--------------------|--------|--------------------|--------------------|


E|--------------------|-0------|--------------------|--------------------|--------------------|
B|----------8---8-----|-2------|----------8---8-----|----------8---8-----|----------8---8-----|
G|-7----7---7---7-----|-2------|-7----7---7---7-----|-7----7---7---7-----|-7----7---7---7-----|
D|-7----7---5---5-----|-2------|-7----7---5---5-----|-7----7---5---5-----|-7----7---5---5-----|
A|-5----5-------------|-0------|-5----5-------------|-5----5-------------|-5----5-------------|
E|--------------------|--------|--------------------|--------------------|--------------------|


E|-0------|
B|-2------|
G|-2------|
D|-2------|
A|-0------|
E|--------|





Track 3: Verses

E|--------|--------|--------|--------|--------|--------|--------|--------|--------|
B|--------|--------|--------|--------|--------|--------|--------|--------|--------|
G|--------|--------|--------|--------|--------|--------|--------|--------|--------|
D|--------|--------|--------|--------|--------|--------|--------|--------|--------|
A|--------|--------|--------|--------|--------|--------|--------|--------|--------|
E|--------|--------|--------|--------|--------|--------|--------|--------|--------|


E|--------|--------|--------|-0----0---3---3-----|-2----2---0---0-----|-0----0---3---3-----|
B|--------|--------|--------|-0----0---3---3-----|-3----3---2---2-----|-0----0---3---3-----|
G|--------|--------|--------|-0----0---0---0-----|-4----4---2---2-----|-0----0---0---0-----|
D|--------|--------|--------|-2----2---0---0-----|-4----4---2---2-----|-2----2---0---0-----|
A|--------|--------|--------|-2----2---2---2-----|-2----2---0---0-----|-2----2---2---2-----|
E|--------|--------|--------|-0----0---3---3-----|--------------------|-0----0---3---3-----|


E|-2----2---0---0-----|------------------------|------------------------|------------------------|
B|-3----3---2---2-----|------------------------|------------------------|------------------------|
G|-4----4---2---2-----|-7----7-----------------|-7----7-----------------|-7----7-----------------|
D|-4----4---2---2-----|-7----7---5---5----5----|-7----7---5---5----5----|-7----7---5---5----5----|
A|-2----2---0---0-----|-5----5---5---5----5----|-5----5---5---5----5----|-5----5---5---5----5----|
E|--------------------|----------3---3----3----|----------3---3----3----|----------3---3----3----|


E|---------------------------|------------------------|------------------------|------------------------|
B|-2---2---2---2---2---------|------------------------|------------------------|------------------------|
G|-2---2---2---2---2---------|-7----7-----------------|-7----7-----------------|-7----7-----------------|
D|-2---2---2---2---2---------|-7----7---5---5----5----|-7----7---5---5----5----|-7----7---5---5----5----|
A|-0---0---0---0---0---------|-5----5---5---5----5----|-5----5---5---5----5----|-5----5---5---5----5----|
E|---------------------------|----------3---3----3----|----------3---3----3----|----------3---3----3----|


E|---------------------------|--------|--------|--------|--------|--------|--------|
B|-2---2---2---2---2---------|--------|--------|--------|--------|--------|--------|
G|-2---2---2---2---2---------|--------|--------|--------|--------|--------|--------|
D|-2---2---2---2---2---------|--------|--------|--------|--------|--------|--------|
A|-0---0---0---0---0---------|--------|--------|--------|--------|--------|--------|
E|---------------------------|--------|--------|--------|--------|--------|--------|


E|--------|--------|-0----0---3---3-----|-2----2---0---0-----|-0----0---3---3-----|
B|--------|--------|-0----0---3---3-----|-3----3---2---2-----|-0----0---3---3-----|
G|--------|--------|-0----0---0---0-----|-4----4---2---2-----|-0----0---0---0-----|
D|--------|--------|-2----2---0---0-----|-4----4---2---2-----|-2----2---0---0-----|
A|--------|--------|-2----2---2---2-----|-2----2---0---0-----|-2----2---2---2-----|
E|--------|--------|-0----0---3---3-----|--------------------|-0----0---3---3-----|


E|-2----2---0---0-----|--------------------|--------------------|--------------------|
B|-3----3---2---2-----|----------8---8-----|----------8---8-----|----------8---8-----|
G|-4----4---2---2-----|-7----7---7---7-----|-7----7---7---7-----|-7----7---7---7-----|
D|-4----4---2---2-----|-7----7---5---5-----|-7----7---5---5-----|-7----7---5---5-----|
A|-2----2---0---0-----|-5----5-------------|-5----5-------------|-5----5-------------|
E|--------------------|--------------------|--------------------|--------------------|


E|-0------|--------------------|--------------------|--------------------|-0------|
B|-2------|----------8---8-----|----------8---8-----|----------8---8-----|-2------|
G|-2------|-7----7---7---7-----|-7----7---7---7-----|-7----7---7---7-----|-2------|
D|-2------|-7----7---5---5-----|-7----7---5---5-----|-7----7---5---5-----|-2------|
A|-0------|-5----5-------------|-5----5-------------|-5----5-------------|-0------|
E|--------|--------------------|--------------------|--------------------|--------|


E|--------|--------|--------|--------|--------|--------|--------|--------|-0----0---3---3-----|
B|--------|--------|--------|--------|--------|--------|--------|--------|-0----0---3---3-----|
G|--------|--------|--------|--------|--------|--------|--------|--------|-0----0---0---0-----|
D|--------|--------|--------|--------|--------|--------|--------|--------|-2----2---0---0-----|
A|--------|--------|--------|--------|--------|--------|--------|--------|-2----2---2---2-----|
E|--------|--------|--------|--------|--------|--------|--------|--------|-0----0---3---3-----|


E|-2----2---0---0-----|-0----0---3---3-----|-2----2---0---0-----|------------------------------|
B|-3----3---2---2-----|-0----0---3---3-----|-3----3---2---2-----|-------------8---8---8---8----|
G|-4----4---2---2-----|-0----0---0---0-----|-4----4---2---2-----|-7----7--7---7---7---7---7----|
D|-4----4---2---2-----|-2----2---0---0-----|-4----4---2---2-----|-7----7--7---5---5---5---5----|
A|-2----2---0---0-----|-2----2---2---2-----|-2----2---0---0-----|-5----5--5--------------------|
E|--------------------|-0----0---3---3-----|--------------------|------------------------------|


E|------------------------------|------------------------------|-0----0---0---0---------|
B|-------------8---8---8---8----|-------------8---8---8---8----|-2----2---2---2---------|
G|-7----7--7---7---7---7---7----|-7----7--7---7---7---7---7----|-2----2---2---2---------|
D|-7----7--7---5---5---5---5----|-7----7--7---5---5---5---5----|-2----2---2---2---------|
A|-5----5--5--------------------|-5----5--5--------------------|-0----0---0---0---------|
E|------------------------------|------------------------------|------------------------|


E|--------|--------|--------|--------|--------|--------|--------|--------|--------|
B|--------|--------|--------|--------|--------|--------|--------|--------|--------|
G|--------|--------|--------|--------|--------|--------|--------|--------|--------|
D|--------|--------|--------|--------|--------|--------|--------|--------|--------|
A|--------|--------|--------|--------|--------|--------|--------|--------|--------|
E|--------|--------|--------|--------|--------|--------|--------|--------|--------|


E|--------|--------|--------|--------|--------|--------|--------|--------|--------|
B|--------|--------|--------|--------|--------|--------|--------|--------|--------|
G|--------|--------|--------|--------|--------|--------|--------|--------|--------|
D|--------|--------|--------|--------|--------|--------|--------|--------|--------|
A|--------|--------|--------|--------|--------|--------|--------|--------|--------|
E|--------|--------|--------|--------|--------|--------|--------|--------|--------|


E|--------|--------|--------|--------|--------|--------|--------|--------|--------|
B|--------|--------|--------|--------|--------|--------|--------|--------|--------|
G|--------|--------|--------|--------|--------|--------|--------|--------|--------|
D|--------|--------|--------|--------|--------|--------|--------|--------|--------|
A|--------|--------|--------|--------|--------|--------|--------|--------|--------|
E|--------|--------|--------|--------|--------|--------|--------|--------|--------|


E|--------|--------|--------|--------|--------|
B|--------|--------|--------|--------|--------|
G|--------|--------|--------|--------|--------|
D|--------|--------|--------|--------|--------|
A|--------|--------|--------|--------|--------|
E|--------|--------|--------|--------|--------|





Track 4: Trumpet

E|--------|--------|--------|--------|--------|--------|--------|--------|--------|
B|--------|--------|--------|--------|--------|--------|--------|--------|--------|
G|--------|--------|--------|--------|--------|--------|--------|--------|--------|
D|--------|--------|--------|--------|--------|--------|--------|--------|--------|
A|--------|--------|--------|--------|--------|--------|--------|--------|--------|
E|--------|--------|--------|--------|--------|--------|--------|--------|--------|


E|--------|--------|--------|--------|--------|--------|--------|--------|--------|
B|--------|--------|--------|--------|--------|--------|--------|--------|--------|
G|--------|--------|--------|--------|--------|--------|--------|--------|--------|
D|--------|--------|--------|--------|--------|--------|--------|--------|--------|
A|--------|--------|--------|--------|--------|--------|--------|--------|--------|
E|--------|--------|--------|--------|--------|--------|--------|--------|--------|


E|--------|--------|--------|--------|--------|--------|--------|--------|--------|
B|--------|--------|--------|--------|--------|--------|--------|--------|--------|
G|--------|--------|--------|--------|--------|--------|--------|--------|--------|
D|--------|--------|--------|--------|--------|--------|--------|--------|--------|
A|--------|--------|--------|--------|--------|--------|--------|--------|--------|
E|--------|--------|--------|--------|--------|--------|--------|--------|--------|


E|--------|--------|--------|--------|--------|--------|--------|--------|--------|
B|--------|--------|--------|--------|--------|--------|--------|--------|--------|
G|--------|--------|--------|--------|--------|--------|--------|--------|--------|
D|--------|--------|--------|--------|--------|--------|--------|--------|--------|
A|--------|--------|--------|--------|--------|--------|--------|--------|--------|
E|--------|--------|--------|--------|--------|--------|--------|--------|--------|


E|--------|--------|--------|--------|--------|--------|--------|--------|--------|
B|--------|--------|--------|--------|--------|--------|--------|--------|--------|
G|--------|--------|--------|--------|--------|--------|--------|--------|--------|
D|--------|--------|--------|--------|--------|--------|--------|--------|--------|
A|--------|--------|--------|--------|--------|--------|--------|--------|--------|
E|--------|--------|--------|--------|--------|--------|--------|--------|--------|


E|--------|--------|--------|--------|--------|--------|--------|-----10---9-------------|
B|--------|--------|--------|--------|--------|--------|--------|---------------10---7---|
G|--------|--------|--------|--------|--------|--------|--------|------------------------|
D|--------|--------|--------|--------|--------|--------|--------|------------------------|
A|--------|--------|--------|--------|--------|--------|--------|------------------------|
E|--------|--------|--------|--------|--------|--------|--------|------------------------|


E|--------|-----10---9---------17--|-17-----|----------------------------------|----------------------------------|
B|-7------|---------------10-------|--------|------10-10--12-12--15-15-----10--|------10-10--12-12--15-15-----10--|
G|--------|------------------------|--------|------11-11--12-12--16-16-----11--|------11-11--12-12--16-16-----11--|
D|--------|------------------------|--------|----------------------------------|----------------------------------|
A|--------|------------------------|--------|----------------------------------|----------------------------------|
E|--------|------------------------|--------|----------------------------------|----------------------------------|


E|----------------------------------|-----------------|--------|--------|--------|
B|------10-10--12-12--15-15-----10--|-17----17--------|--------|--------|--------|
G|------11-11--12-12--16-16-----11--|-----------------|--------|--------|--------|
D|----------------------------------|-14----14--------|--------|--------|--------|
A|----------------------------------|-----------------|--------|--------|--------|
E|----------------------------------|-----------------|--------|--------|--------|


E|--------|--------|--------|--------|--------|--------|--------|--------|--------|
B|--------|--------|--------|--------|--------|--------|--------|--------|--------|
G|--------|--------|--------|--------|--------|--------|--------|--------|--------|
D|--------|--------|--------|--------|--------|--------|--------|--------|--------|
A|--------|--------|--------|--------|--------|--------|--------|--------|--------|
E|--------|--------|--------|--------|--------|--------|--------|--------|--------|


E|--------|--------|--------|--------|-10----12----|-14---15--14--14--12--12---|-10---12---14--15-14-12--10--|
B|--------|--------|--------|--------|-------------|---------------------------|-----------------------------|
G|--------|--------|--------|--------|-------------|---------------------------|-----------------------------|
D|--------|--------|--------|--------|-------------|---------------------------|-----------------------------|
A|--------|--------|--------|--------|-------------|---------------------------|-----------------------------|
E|--------|--------|--------|--------|-------------|---------------------------|-----------------------------|


E|-12----10--------|-10----12----|-14---15--14--14--12--12---|-10---12---14--15-14-12--10--|
B|-----------8-----|-------------|---------------------------|-----------------------------|
G|-----------------|-------------|---------------------------|-----------------------------|
D|-----------------|-------------|---------------------------|-----------------------------|
A|-----------------|-------------|---------------------------|-----------------------------|
E|-----------------|-------------|---------------------------|-----------------------------|


E|-12----10--------|-10----12----|-14---15--14--14--12--12---|-10---12---14--15-14-12--10--|
B|-----------8-----|-------------|---------------------------|-----------------------------|
G|-----------------|-------------|---------------------------|-----------------------------|
D|-----------------|-------------|---------------------------|-----------------------------|
A|-----------------|-------------|---------------------------|-----------------------------|
E|-----------------|-------------|---------------------------|-----------------------------|


E|-12----10--------|-10----12----|-14---15--14--14--12--12---|-10---12---14--15-14-12--10--|
B|-----------8-----|-------------|---------------------------|-----------------------------|
G|-----------------|-------------|---------------------------|-----------------------------|
D|-----------------|-------------|---------------------------|-----------------------------|
A|-----------------|-------------|---------------------------|-----------------------------|
E|-----------------|-------------|---------------------------|-----------------------------|


E|-12----10--------|
B|-----------8-----|
G|-----------------|
D|-----------------|
A|-----------------|
E|-----------------|





Track 5: Untitled

G|--------|--------|--------|--------|--------------------|--------------------|--------------------|
D|--------|--------|--------|--------|----------5---5-----|----------5---5-----|----------5---5-----|
A|--------|--------|--------|--------|-5----5-------------|-5----5-------------|-5----5-------------|
E|--------|--------|--------|--------|--------------------|--------------------|--------------------|


G|-----------------|--------------------|--------------------|--------------------|
D|-----------------|----------5---5-----|----------5---5-----|----------5---5-----|
A|-----------------|-5----5-------------|-5----5-------------|-5----5-------------|
E|-5-----5---------|--------------------|--------------------|--------------------|


G|-----------------|--------------------|--------------------|--------------------|
D|-----------------|--------------------|--------------------|--------------------|
A|-----------------|--------------------|-2----2---0---0-----|--------------------|
E|-5-----5---------|-0----0---3---3-----|--------------------|-0----0---3---3-----|


G|--------------------|--------------------|--------------------|--------------------|
D|--------------------|--------------------|--------------------|--------------------|
A|-2----2---0---0-----|-5----5-------------|-5----5-------------|-5----5-------------|
E|--------------------|----------3---3-----|----------3---3-----|----------3---3-----|


G|-----------------|--------------------|--------------------|--------------------|
D|-----------------|--------------------|--------------------|--------------------|
A|-0-----0---------|-5----5-------------|-5----5-------------|-5----5-------------|
E|-----------------|----------3---3-----|----------3---3-----|----------3---3-----|


G|-----------------|--------------------|--------------------|--------------------|
D|-----------------|----------5---5-----|----------5---5-----|----------5---5-----|
A|-0-----0---------|-5----5-------------|-5----5-------------|-5----5-------------|
E|-----------------|--------------------|--------------------|--------------------|


G|-----------------|--------------------|--------------------|--------------------|
D|-----------------|----------5---5-----|----------5---5-----|----------5---5-----|
A|-----------------|-5----5-------------|-5----5-------------|-5----5-------------|
E|-5-----5---------|--------------------|--------------------|--------------------|


G|-----------------|--------------------|--------------------|--------------------|
D|-----------------|--------------------|--------------------|--------------------|
A|-----------------|--------------------|-2----2---0---0-----|--------------------|
E|-5-----5---------|-0----0---3---3-----|--------------------|-0----0---3---3-----|


G|--------------------|--------------------|--------------------|--------------------|
D|--------------------|----------5---5-----|----------5---5-----|----------5---5-----|
A|-2----2---0---0-----|-5----5-------------|-5----5-------------|-5----5-------------|
E|--------------------|--------------------|--------------------|--------------------|


G|-----------------|--------------------|--------------------|--------------------|
D|-----------------|----------5---5-----|----------5---5-----|----------5---5-----|
A|-----------------|-5----5-------------|-5----5-------------|-5----5-------------|
E|-5-----5---------|--------------------|--------------------|--------------------|


G|-----------------|--------------------|--------------------|--------------------|
D|-----------------|----------5---5-----|----------5---5-----|----------5---5-----|
A|-----------------|-5----5-------------|-5----5-------------|-5----5-------------|
E|-5-----5---------|--------------------|--------------------|--------------------|


G|-----------------|--------------------|--------------------|--------------------|
D|-----------------|----------5---5-----|----------5---5-----|----------5---5-----|
A|-----------------|-5----5-------------|-5----5-------------|-5----5-------------|
E|-5-----5---------|--------------------|--------------------|--------------------|


G|-----------------|--------------------|--------------------|--------------------|
D|-----------------|--------------------|--------------------|--------------------|
A|-----------------|--------------------|-2----2---0---0-----|--------------------|
E|-5-----5---------|-0----0---3---3-----|--------------------|-0----0---3---3-----|


G|--------------------|--------------------|--------------------|--------------------|
D|--------------------|----------5---5-----|----------5---5-----|----------5---5-----|
A|-2----2---0---0-----|-5----5-------------|-5----5-------------|-5----5-------------|
E|--------------------|--------------------|--------------------|--------------------|


G|-----------------|--------------------|--------------------|--------------------|
D|-----------------|--------------------|--------------------|--------------------|
A|-----------------|-5----5-------------|-5----5-------------|-5----5-------------|
E|-5-----5---------|----------3---3-----|----------3---3-----|----------3---3-----|


G|-----------------|--------------------|--------------------|--------------------|
D|-----------------|--------------------|--------------------|--------------------|
A|-0-----0---------|-5----5-------------|-5----5-------------|-5----5-------------|
E|-----------------|----------3---3-----|----------3---3-----|----------3---3-----|


G|-----------------|--------------------|--------------------|--------------------|
D|-----------------|----------5---5-----|----------5---5-----|----------5---5-----|
A|-0-----0---------|-5----5-------------|-5----5-------------|-5----5-------------|
E|-----------------|--------------------|--------------------|--------------------|


G|-----------------|--------------------|--------------------|--------------------|
D|-----------------|----------5---5-----|----------5---5-----|----------5---5-----|
A|-----------------|-5----5-------------|-5----5-------------|-5----5-------------|
E|-5-----5---------|--------------------|--------------------|--------------------|


G|-----------------|--------------------|--------------------|--------------------|
D|-----------------|----------5---5-----|----------5---5-----|----------5---5-----|
A|-----------------|-5----5-------------|-5----5-------------|-5----5-------------|
E|-5-----5---------|--------------------|--------------------|--------------------|


G|-----------------|--------------------|--------------------|--------------------|
D|-----------------|----------5---5-----|----------5---5-----|----------5---5-----|
A|-----------------|-5----5-------------|-5----5-------------|-5----5-------------|
E|-5-----5---------|--------------------|--------------------|--------------------|


G|-----------------|--------------------|--------------------|--------------------|
D|-----------------|----------5---5-----|----------5---5-----|----------5---5-----|
A|-----------------|-5----5-------------|-5----5-------------|-5----5-------------|
E|-5-----5---------|--------------------|--------------------|--------------------|


G|-----------------|--------------------|--------------------|--------------------|
D|-----------------|----------5---5-----|----------5---5-----|----------5---5-----|
A|-----------------|-5----5-------------|-5----5-------------|-5----5-------------|
E|-5-----5---------|--------------------|--------------------|--------------------|


G|-----------------|
D|-----------------|
A|-----------------|
E|-5-----5---------|