Site menu:

    

Browse: 0-9 A B C D E F G H I J K L N O P Q R S T U V W X Y Z

christopher cross - sailing:



Title: Sailing 
Artist: 
Album: Christopher Cross
Author: Christopher Cross


Track 1: Keyboards

E|-17---17---24-----------|-----------------|-------------|--------|--------|--------|
B|-19--------24---22-22---|-22--------------|-------------|--------|--------|--------|
G|----------------23-23---|-23--------------|-------------|--------|--------|--------|
D|------------------------|-----------------|-------18----|-19-----|-19-----|--------|
A|------------------------|-----------21----|-19----19----|-21-----|-21-----|--------|
E|------------------------|-----------22----|-21----------|--------|--------|--------|


E|--------|--------|--------|--------|--------|--------|--------|--------|--------|
B|--------|--------|--------|--------|--------|--------|--------|--------|--------|
G|--------|--------|--------|--------|--------|--------|--------|--------|--------|
D|--------|--------|--------|--------|--------|--------|--------|--------|--------|
A|--------|--------|--------|--------|--------|--------|--------|--------|--------|
E|--------|--------|--------|--------|--------|--------|--------|--------|--------|


E|--------|--------|--------|--------|--------|--------|--------|-----------------|
B|--------|--------|--------|--------|--------|--------|--------|-----------------|
G|--------|--------|--------|--------|--------|--------|--------|-----------------|
D|--------|--------|--------|--------|-19-----|-19-----|-19-----|-19----18---19---|
A|--------|--------|--------|--------|-19-----|-19-----|-19-----|-19--------------|
E|--------|--------|--------|--------|--------|--------|--------|-----------------|


E|-------------|-----------------|--------|--------|--------|--------|--------24---|
B|-------------|-----------------|--------|--------|--------|--------|-22----------|
G|-------------|-----------------|--------|--------|--------|--------|-------------|
D|-21-----23---|-24----23--------|--------|--------|--------|--------|-------------|
A|--------24---|-23---------24---|--------|--------|--------|--------|-------------|
E|-------------|-----------------|-24-----|-24-----|--------|--------|-------------|


E|--------|-------------|--------------------|--------|-------------|--------|-------------|
B|-22-----|-------------|--------------------|--------|-------------|--------|-------------|
G|--------|-------------|---------16---------|--------|-------------|--------|-------------|
D|--------|-------------|-18---18------19----|-19-----|-19----------|--------|-------19----|
A|--------|-21----19----|--------------17----|-17-----|-17----------|--------|-------19----|
E|--------|-------------|--------------------|--------|-------------|--------|-------------|


E|-------------|-------------|--------|--------|--------|-------------|--------|-------------|
B|-------------|-------------|--------|--------|--------|-------------|--------|-------22----|
G|-------------|-------21----|-21-----|-21-----|-21-----|-21----------|--------|-------------|
D|-19----21----|-23----------|--------|--------|--------|-------------|--------|-------------|
A|-------------|-------------|--------|--------|--------|-------------|--------|-------------|
E|-------------|-------------|--------|--------|--------|-------------|--------|-------------|


E|------24---------|-------------|--------------------|--------|--------|--------|
B|-22--------22----|-22----------|--------------------|--------|--------|--------|
G|-----------------|-------------|---------------16---|--------|--------|--------|
D|-----------------|-------------|-------18---18------|-19-----|-19-----|--------|
A|-----------------|-------21----|-19-----------------|-17-----|-17-----|--------|
E|-----------------|-------------|--------------------|--------|--------|--------|


E|--------|--------|------22---22----|-22-------------------|--------|--------|-----------------|
B|--------|--------|------20---20----|-20-------------------|--------|--------|------22---22----|
G|--------|--------|-----------------|----------------------|--------|--------|------21---21----|
D|--------|--------|-----------------|----------------------|--------|--------|-----------------|
A|--------|--------|-----------------|----------------------|--------|--------|-----------------|
E|--------|--------|-----------------|----------------------|--------|--------|-----------------|


E|--------|--------|--------|--------|-------------|-----------------|--------|--------|
B|-22-----|-22-----|-22-----|-22-----|-21----22----|-21----22--------|--------|--------|
G|-21-----|-21-----|-21-----|-21-----|-21----23----|-21----23---21---|-21-----|-21-----|
D|--------|--------|--------|--------|-------------|------------19---|-19-----|-19-----|
A|--------|--------|--------|--------|-------------|-----------------|--------|--------|
E|--------|--------|--------|--------|-------------|-----------------|--------|--------|


E|--------|--------|-----------------------------------|--------|--------|--------|
B|--------|--------|-----------------------------------|-17-----|--------|--------|
G|--------|--------|------------------------------16---|--------|--------|--------|
D|--------|--------|-19-------------19-19---18-18------|--------|--------|--------|
A|--------|--------|------------19---------------------|--------|--------|--------|
E|--------|--------|------21-21------------------------|--------|--------|--------|


E|--------|--------|--------|--------|-----------------|-----------------|
B|--------|--------|--------|--------|-----------------|-----------------|
G|--------|--------|--------|--------|-----------------|-----------------|
D|--------|--------|--------|--------|------19---19----|-19--------------|
A|--------|--------|--------|--------|------19---19----|-19--------------|
E|--------|--------|--------|--------|-----------------|-----------------|





Track 2: Keyboards II

E|-5-----12-----------|-----------------|-------------|--------|--------|----------------|
B|-7-----12---10-10---|-10--------------|-------------|--------|--------|----------------|
G|------------11-11---|-11--------------|-------------|-9------|-9------|----------------|
D|--------------------|-----------------|-11----14----|--------|--------|-7-----9--9-----|
A|--------------------|-----------9-----|-------11----|--------|--------|-9-----11-11----|
E|--------------------|-----------------|-12----------|-10-----|-10-----|----------------|


E|----------------|----------------|----------------|----------------|----------------|
B|----------------|----------------|----------------|----------------|----------------|
G|----------------|----------------|----------------|----------------|----------------|
D|-7-----9--9-----|-9-----11-11----|-9-----11-11----|-9-----11-11----|-9-----11-11----|
A|-9-----11-11----|-11----12-12----|-11----12-12----|-11----12-12----|-11----12-12----|
E|----------------|----------------|----------------|----------------|----------------|


E|--------|--------|----------------|----------------|----------------|----------------|
B|--------|--------|----------------|----------------|----------------|----------------|
G|-9------|-9------|----------------|----------------|----------------|----------------|
D|--------|--------|-7-----9--9-----|-7-----9--9-----|-9-----11-11----|-9-----11-11----|
A|--------|--------|-9-----11-11----|-9-----11-11----|-11----12-12----|-11----12-12----|
E|-10-----|-10-----|----------------|----------------|----------------|----------------|


E|----------------|----------------|--------|--------|----------------|----------------|
B|----------------|----------------|--------|--------|----------------|----------------|
G|----------------|----------------|-9------|-9------|----------------|----------------|
D|-9-----11-11----|-9-----11-11----|--------|--------|-7-----9--9-----|-7-----9--9-----|
A|-11----12-12----|-11----12-12----|--------|--------|-9-----11-11----|-9-----11-11----|
E|----------------|----------------|-10-----|-10-----|----------------|----------------|


E|----------------|----------------|----------------|----------------|----------------|
B|----------------|----------------|----------------|----------------|----------------|
G|----------------|----------------|----------------|----------------|----------------|
D|-9-----11-11----|-9-----11-11----|-9-----11-11----|-9-----11-11----|-9-----11-11----|
A|-11----12-12----|-11----12-12----|-11----12-12----|-11----12-12----|-11----12-12----|
E|----------------|----------------|----------------|----------------|----------------|


E|----------------|--------|--------|-------------|-------------|--------|----------------|
B|----------------|--------|--------|-------------|-------------|--------|----------------|
G|----------------|--------|--------|-------------|-------------|--------|----------------|
D|-9-----11-11----|--------|--------|-12----14----|-------12----|-12-----|-12-------------|
A|-11----12-12----|--------|--------|-14----16----|-14----12----|-12-----|-12----14----16-|
E|----------------|--------|--------|-------------|-------------|--------|-------16----17-|


E|----------------|----------------|----------------|----------------|----------------|
B|----------------|----------------|----------------|----------------|----------------|
G|----------------|----------------|----------------|----------------|----------------|
D|----------------|----------------|----------------|----------------|----------------|
A|-16----14----16-|-16----14----16-|-16----14----16-|-16----14----16-|-16----14----16-|
E|-17----16----17-|-17----16----17-|-17----16----17-|-17----16----17-|-17----16----17-|


E|----------------|----------------|----------------|----------------|-------------|
B|----------------|----------------|----------------|----------------|-------------|
G|----------------|----------------|----------------|----------------|-------------|
D|----------------|----------------|----------------|----------------|-------------|
A|-16----14----16-|-16----14----16-|-16----14----16-|-16----14----16-|-16----------|
E|-17----16----17-|-17----16----17-|-17----16----17-|-17----16----17-|-17----------|


E|--------|-------------|-------------|--------|--------|--------|-0-----------|-------------|
B|--------|-------------|-------------|--------|--------|-2------|-1-----3-----|-3-----1-----|
G|--------|-------------|-------------|--------|--------|-2------|-2-----4-----|-3-----2-----|
D|--------|-------------|-------------|--------|--------|-2------|-3-----5-----|-5-----3-----|
A|--------|-------17----|-19----------|-17-----|-17-----|--------|-------------|-------------|
E|--------|-------19----|-21----19----|-17-----|-17-----|--------|-------------|-------------|


E|--------|--------|-3-----1-----|-------------|--------|--------|--------|----------------|
B|-3------|-5------|-4-----3-----|-1-----3-----|-5------|-5------|-5------|----------------|
G|-0------|-5------|-5-----3-----|-2-----4-----|-2------|--------|--------|----------------|
D|--------|-5------|-6-----------|-------5-----|--------|-0------|-0------|-7-----9--9-----|
A|--------|--------|-------------|-------------|--------|--------|--------|-9-----11-11----|
E|--------|--------|-------------|-------------|--------|--------|--------|----------------|


E|----------------|----------------|----------------|----------------|----------------|
B|----------------|----------------|----------------|----------------|----------------|
G|----------------|----------------|----------------|----------------|----------------|
D|-7-----9--9-----|-9-----11-11----|-9-----11-11----|-9-----11-11----|-9-----11-11----|
A|-9-----11-11----|-11----12-12----|-11----12-12----|-11----12-12----|-11----12-12----|
E|----------------|----------------|----------------|----------------|----------------|


E|----------------|----------------|--------|--------|-------------|-------------|
B|----------------|----------------|--------|--------|-------------|-------------|
G|----------------|----------------|--------|--------|-------------|-------------|
D|-9-----11-11----|-9-----11-11----|--------|--------|-12----14----|-------12----|
A|-11----12-12----|-11----12-12----|--------|--------|-14----16----|-14----12----|
E|----------------|----------------|--------|--------|-------------|-------------|


E|--------|-------------|-------------|-------------|-------------|--------|
B|--------|-------------|-------------|-------------|-------------|--------|
G|--------|-------------|-------------|-------------|-------------|--------|
D|-12-----|-12----------|-------------|-------------|-------------|--------|
A|-12-----|-12----9-----|-11----9-----|-11----9-----|-11----9-----|-9------|
E|--------|-------10----|-12----10----|-12----10----|-12----10----|-10-----|





Track 3: Guitar

E|--------|--------|--------|-----------------------------------------------|-----------------------------------------------|
B|--------|--------|--------|-----------------------------------------------|-----------------------------------------------|
G|--------|--------|--------|-2--1-----2--2--1-----2--2--------2--2---------|-2--1-----2--2--1-----2--2--------2--2---------|
D|--------|--------|--------|-------2-----------2--------4--2--------4--2---|-------2-----------2--------4--2--------4--2---|
A|--------|--------|--------|-----------------------------------------------|-----------------------------------------------|
E|--------|--------|--------|-----------------------------------------------|-----------------------------------------------|


E|-----------------------------------------------|-----------------------------------------------|
B|-----------------------------------------------|-----------------------------------------------|
G|-2--1-----2--2--1-----4--4---------------------|-----------------------------------------------|
D|-------2-----------2--------6-----9--9---------|-----------------------------------------------|
A|-------------------------------7--------11-----|-12-11----12-12-11----14-14-------14-14--------|
E|-------------------------------------------12--|-------12----------12-------16-12-------16-12--|


E|-----------------------------------------------|-----------------------------------------------|
B|-----------------------------------------------|-----------------------------------------------|
G|-----------------------------------------------|-----------------------------------------------|
D|----------------------11-11-------11-11--------|----------------------11-11-------11-11--------|
A|-14-------14-14-------------12----------12-----|-14-------14-14-------------12----------12-----|
E|----16-12-------16-12----------12----------12--|----16-12-------16-12----------12----------12--|


E|-----------------------------------------------|-----------------------------------------------|
B|-----------------------------------------------|-----------------------------------------------|
G|-----------------------------------------------|-----------------------------------------------|
D|----------------------11-11-------11-11--------|----------------------11-11-------11-11--------|
A|-14-------14-14-------------12----------12-----|-14-------14-14-------------12----------12-----|
E|----16-12-------16-12----------12----------12--|----16-12-------16-12----------12----------12--|


E|-----------------------------------------------|-----------------------------------------------|
B|-----------------------------------------------|-----------------------------------------------|
G|-----------------------------------------------|-----------------------------------------------|
D|-----------------------------------------------|-----------------------------------------------|
A|-12-11----12-12-11----12-12-------12-12--------|-12-11----12-12-11----12-12-------12-12--------|
E|-------12----------12-------14-12-------14-12--|-------12----------12-------14-12-------14-12--|


E|-----------------------------------------------|-----------------------------------------------|
B|-----------------------------------------------|-----------------------------------------------|
G|-----------------------------------------------|-----------------------------------------------|
D|-----------------------------------------------|-----------------------------------------------|
A|-12-11----12-12-11----14-14-------14-14--------|-12-11----12-12-11----14-14-------14-14--------|
E|-------12----------12-------16-12-------16-12--|-------12----------12-------16-12-------16-12--|


E|-----------------------------------------------|-----------------------------------------------|
B|-----------------------------------------------|-----------------------------------------------|
G|-----------------------------------------------|-----------------------------------------------|
D|----------------------11-11-------11-11--------|----------------------11-11-------11-11--------|
A|-14-------14-14-------------12----------12-----|-14-------14-14-------------12----------12-----|
E|----16-12-------16-12----------12----------12--|----16-12-------16-12----------12----------12--|


E|-----------------------------------------------|-----------------------------------------------|
B|-----------------------------------------------|-----------------------------------------------|
G|-----------------------------------------------|-----------------------------------------------|
D|----------------------11-11-------11-11--------|----------------------11-11-------11-11--------|
A|-14-------14-14-------------12----------12-----|-14-------14-14-------------12----------12-----|
E|----16-12-------16-12----------12----------12--|----16-12-------16-12----------12----------12--|


E|-----------------------------------------------|-----------------------------------------------|
B|-----------------------------------------------|-----------------------------------------------|
G|-----------------------------------------------|-----------------------------------------------|
D|-----------------------------------------------|-----------------------------------------------|
A|-12-11----12-12-11----12-12-------12-12--------|-12-11----12-12-11----12-12-------12-12--------|
E|-------12----------12-------14-12-------14-12--|-------12----------12-------14-12-------14-12--|


E|-----------------------------------------------|-----------------------------------------------|
B|-----------------------------------------------|-----------------------------------------------|
G|-----------------------------------------------|-----------------------------------------------|
D|-----------------------------------------------|-----------------------------------------------|
A|-12-11----12-12-11----14-14-------14-14--------|-12-11----12-12-11----14-14-------14-14--------|
E|-------12----------12-------16-12-------16-12--|-------12----------12-------16-12-------16-12--|


E|-----------------------------------------------|-----------------------------------------------|
B|-----------------------------------------------|-----------------------------------------------|
G|-----------------------------------------------|-----------------------------------------------|
D|----------------------11-11-------11-11--------|----------------------11-11-------11-11--------|
A|-14-------14-14-------------12----------12-----|-14-------14-14-------------12----------12-----|
E|----16-12-------16-12----------12----------12--|----16-12-------16-12----------12----------12--|


E|-----------------------------------------------|-----------------------------------------------|
B|-----------------------------------------------|-----------------------------------------------|
G|-----------------------------------------------|-----------------------------------------------|
D|----------------------11-11-------11-11--------|----------------------11-11-------11-11--------|
A|-14-------14-14-------------12----------12-----|-14-------14-14-------------12----------12-----|
E|----16-12-------16-12----------12----------12--|----16-12-------16-12----------12----------12--|


E|-----------------------------------------------|-----------------------------------------------|
B|-----------------------------------------------|-----------------------------------------------|
G|-----------------------------------------------|-----------------------------------------------|
D|----------------------11-11-------11-11--------|----------------------11-11-------11-11--------|
A|-14-------14-14-------------12----------12-----|-14-------14-14-------------12----------12-----|
E|----16-12-------16-12----------12----------12--|----16-12-------16-12----------12----------12--|


E|--------|--------|---------------------------|--------------------|----------------------|
B|--------|--------|---------------------------|--------------------|----------------------|
G|--------|--------|-----------------11---11---|-9----9--9----9-----|-9--------------------|
D|--------|--------|-12---12---12-12-11---11---|-9----9--9----12----|-12-------------------|
A|--------|--------|-14---14---14-14-12---12---|-11---11-11---12----|-12-------------------|
E|--------|--------|-14---14---14-14-----------|--------------10----|-10-------------------|


E|-------------------------------|-----------------------------------------------|
B|-------------------------------|-----------------------------------------------|
G|-------------------------------|-----------------------------------------------|
D|-------9--------------------11-|-11-------11-11-----------------------------11-|
A|----------11----14-14----------|----12----------12-----14-------14-14----------|
E|-------------12-------16-12----|-------12----------12-----16-12-------16-12----|


E|-----------------------------------------------|-----------------------------------------------|
B|-----------------------------------------------|-----------------------------------------------|
G|-----------------------------------------------|-----------------------------------------------|
D|-11-------11-11-----------------------------11-|-11-------11-11-----------------------------11-|
A|----12----------12-----14-------14-14----------|----12----------12-----14-------14-14----------|
E|-------12----------12-----16-12-------16-12----|-------12----------12-----16-12-------16-12----|


E|-----------------------------------------------|-----------------------------------------------|
B|-----------------------------------------------|-----------------------------------------------|
G|-----------------------------------------------|-----------------------------------------------|
D|-11-------11-11-----------------------------11-|-11-------11-11-----------------------------11-|
A|----12----------12-----14-------14-14----------|----12----------12-----14-------14-14----------|
E|-------12----------12-----16-12-------16-12----|-------12----------12-----16-12-------16-12----|


E|-----------------------------------------------|-----------------------------------------------|
B|-----------------------------------------------|-----------------------------------------------|
G|-----------------------------------------------|-----------------------------------------------|
D|-11-------11-11-----------------------------11-|-11-------11-11-----------------------------11-|
A|----12----------12-----14-------14-14----------|----12----------12-----14-------14-14----------|
E|-------12----------12-----16-12-------16-12----|-------12----------12-----16-12-------16-12----|


E|-----------------------------------------------|-----------------------------------------------|
B|-----------------------------------------------|-----------------------------------------------|
G|-----------------------------------------------|-----------------------------------------------|
D|-11-------11-11-----------------------------11-|-11-------11-11-----------------------------11-|
A|----12----------12-----14-------14-14----------|----12----------12-----14-------14-14----------|
E|-------12----------12-----16-12-------16-12----|-------12----------12-----16-12-------16-12----|


E|-----------------------------------------------|-----------------------------------------------|
B|-----------------------------------------------|-----------------------------------------------|
G|-----------------------------------------------|-----------------------------------------------|
D|-11-------11-11--------------------------------|-----------------------------------------------|
A|----12----------12-----12-11----12-12-11----12-|-12-------12-12--------12-11----12-12-11----12-|
E|-------12----------12--------12----------12----|----14-12-------14-12--------12----------12----|


E|------------------------------------|---------------------------|--------|--------|
B|------------------------------------|---------------------------|--------|--------|
G|------------------------------------|----11---11---9----9--9----|-9------|--------|
D|-----------------------12---12---12-|-12-11---11---9----9--9----|-12-----|--------|
A|-12-------12-12--------14---14---14-|-14-12---12---11---11-11---|-12-----|--------|
E|----14-12-------14-12--14---14---14-|-14------------------------|-10-----|--------|


E|--------|--------|--------|--------|--------|--------|--------|--------|-----------------------------------------------|
B|--------|--------|--------|--------|--------|--------|--------|--------|-----------------------------------------------|
G|--------|--------|--------|--------|--------|--------|--------|--------|-----------------------------------------------|
D|--------|--------|--------|--------|--------|--------|--------|--------|-7--6-----7--7--6-----7--7--------7--7---------|
A|--------|--------|--------|--------|--------|--------|--------|--------|-------7-----------7--------9--7--------9--7---|
E|--------|--------|--------|--------|--------|--------|--------|--------|-----------------------------------------------|


E|-----------------------------------------------|-----------------------------------------------|
B|-----------------------------------------------|-----------------------------------------------|
G|-----------------------------------------------|-----------------------------------------------|
D|-7--6-----7--7--6-----7--7--------7--7---------|-7--6-----7--7--6-----9--9---------------------|
A|-------7-----------7--------9--7--------9--7---|-------7-----------7--------11----14-14--------|
E|-----------------------------------------------|-------------------------------12-------16-12--|


E|-----------------------------------------------|-----------------------------------------------|
B|-----------------------------------------------|-----------------------------------------------|
G|-----------------------------------------------|-----------------------------------------------|
D|-----------------------------------------------|----------------------11-11-------11-11--------|
A|-12-11----12-12-11----14-14-------14-14--------|-14-------14-14-------------12----------12-----|
E|-------12----------12-------16-12-------16-12--|----16-12-------16-12----------12----------12--|


E|-----------------------------------------------|-----------------------------------------------|
B|-----------------------------------------------|-----------------------------------------------|
G|-----------------------------------------------|-----------------------------------------------|
D|----------------------11-11-------11-11--------|----------------------11-11-------11-11--------|
A|-14-------14-14-------------12----------12-----|-14-------14-14-------------12----------12-----|
E|----16-12-------16-12----------12----------12--|----16-12-------16-12----------12----------12--|


E|-----------------------------------------------|-----------------------------------------------|
B|-----------------------------------------------|-----------------------------------------------|
G|-----------------------------------------------|-----------------------------------------------|
D|----------------------11-11-------11-11--------|----------------------11-11-------11-11--------|
A|-14-------14-14-------------12----------12-----|-14-------14-14-------------12----------12-----|
E|----16-12-------16-12----------12----------12--|----16-12-------16-12----------12----------12--|


E|-----------------------------------------------|--------|--------|--------|--------|
B|-----------------------------------------------|--------|--------|--------|--------|
G|-----------------------------------------------|--------|--------|--------|--------|
D|----------------------11-11-------11-11--------|--------|--------|--------|--------|
A|-14-------14-14-------------12----------12-----|--------|--------|--------|--------|
E|----16-12-------16-12----------12----------12--|--------|--------|--------|--------|


E|--------|--------|--------|-----------------------------------------------|-----------------------------|
B|--------|--------|--------|-----------------------------------------------|-----------------------------|
G|--------|--------|--------|-----------------------------------------------|-----------------------------|
D|--------|--------|--------|-----------------------------------------------|-----------------------4-----|
A|--------|--------|--------|-12-11----12-12-11-----12-------12-12-------12-|-12-11----12-12-11-----5-----|
E|--------|--------|--------|-------12----------12-----14-10-------14-10----|-------12----------12--5-----|


E|----------------------|
B|----------------------|
G|----------------------|
D|-4-----4----4---------|
A|-5-----5----5---------|
E|-5-----5----5---------|





Track 4: Keyboards

E|--------|--------|--------|--------|--------|--------|--------|--------|--------|
B|--------|--------|--------|--------|--------|--------|--------|--------|--------|
G|--------|--------|--------|--------|--------|--------|--------|--------|--------|
D|--------|--------|--------|--------|--------|--------|--------|--------|--------|
A|--------|--------|--------|--------|--------|--------|--------|--------|--------|
E|--------|--------|--------|--------|--------|--------|--------|--------|--------|


E|--------|--------|--------|--------|--------|--------|--------|--------|--------|
B|--------|--------|--------|--------|--------|--------|--------|--------|--------|
G|--------|--------|--------|--------|--------|--------|--------|--------|--------|
D|--------|--------|--------|--------|--------|--------|--------|--------|--------|
A|--------|--------|--------|--------|--------|--------|--------|--------|--------|
E|--------|--------|--------|--------|--------|--------|--------|--------|--------|


E|--------|--------|--------|--------|--------|--------|--------|--------|--------|
B|--------|--------|--------|--------|--------|--------|--------|--------|--------|
G|--------|--------|--------|--------|--------|--------|--------|--------|--------|
D|--------|--------|--------|--------|--------|--------|--------|--------|--------|
A|--------|--------|--------|--------|--------|--------|--------|--------|--------|
E|--------|--------|--------|--------|--------|--------|--------|--------|--------|


E|--------|--------|-----------------------------------------------|-----------------------------------------------|
B|--------|--------|-----------------------------------------------|-----------------------------------------------|
G|--------|--------|-----------------------------------------------|-----------------------------------------------|
D|--------|--------|-----------------------------------------------|-----------------------------------------------|
A|--------|--------|-12-11----12-12-11----12-12-------12-12--------|-12-11----12-12-11----12-12-------12-12--------|
E|--------|--------|-------12----------12-------14-12-------14-12--|-------12----------12-------14-12-------14-12--|


E|--------|--------|--------|--------|--------|--------|--------|--------|--------|
B|--------|--------|--------|--------|--------|--------|--------|--------|--------|
G|--------|--------|--------|--------|--------|--------|--------|--------|--------|
D|--------|--------|--------|--------|--------|--------|--------|--------|--------|
A|--------|--------|--------|--------|--------|--------|--------|--------|--------|
E|--------|--------|--------|--------|--------|--------|--------|--------|--------|


E|--------|--------|--------|--------|--------|--------|--------|--------|--------|
B|--------|--------|--------|--------|--------|--------|--------|--------|--------|
G|--------|--------|--------|--------|--------|--------|--------|--------|--------|
D|--------|--------|--------|--------|--------|--------|--------|--------|--------|
A|--------|--------|--------|--------|--------|--------|--------|--------|--------|
E|--------|--------|--------|--------|--------|--------|--------|--------|--------|


E|--------|--------|--------|--------|--------|--------|--------|--------|--------|
B|--------|--------|--------|--------|--------|--------|--------|--------|--------|
G|--------|--------|--------|--------|--------|--------|--------|--------|--------|
D|--------|--------|--------|--------|--------|--------|--------|--------|--------|
A|--------|--------|--------|--------|--------|--------|--------|--------|--------|
E|--------|--------|--------|--------|--------|--------|--------|--------|--------|


E|--------|--------|--------|--------|--------|--------|--------|--------|--------|
B|--------|--------|--------|--------|--------|--------|--------|--------|--------|
G|--------|--------|--------|--------|--------|--------|--------|--------|--------|
D|--------|--------|--------|--------|--------|--------|--------|--------|--------|
A|--------|--------|--------|--------|--------|--------|--------|--------|--------|
E|--------|--------|--------|--------|--------|--------|--------|--------|--------|


E|--------|--------|--------|--------|--------|--------|--------|--------|--------|
B|--------|--------|--------|--------|--------|--------|--------|--------|--------|
G|--------|--------|--------|--------|--------|--------|--------|--------|--------|
D|--------|--------|--------|--------|--------|--------|--------|--------|--------|
A|--------|--------|--------|--------|--------|--------|--------|--------|--------|
E|--------|--------|--------|--------|--------|--------|--------|--------|--------|


E|--------|--------|
B|--------|--------|
G|--------|--------|
D|--------|--------|
A|--------|--------|
E|--------|--------|





Track 5: Keyboards

E|--------|--------|--------|--------|--------|--------|--------|--------|--------|
B|--------|--------|--------|--------|--------|--------|--------|--------|--------|
G|--------|--------|--------|--------|--------|--------|--------|--------|--------|
D|--------|--------|--------|--------|--------|--------|--------|--------|--------|
A|--------|--------|--------|--------|--------|--------|--------|--------|--------|
E|--------|--------|--------|--------|--------|--------|--------|--------|--------|


E|--------|--------|--------|--------|--------|--------|--------|--------|--------|
B|--------|--------|--------|--------|--------|--------|--------|--------|--------|
G|--------|--------|--------|--------|--------|--------|--------|--------|--------|
D|--------|--------|--------|--------|--------|--------|--------|--------|--------|
A|--------|--------|--------|--------|--------|--------|--------|--------|--------|
E|--------|--------|--------|--------|--------|--------|--------|--------|--------|


E|--------|--------|--------|--------|--------|--------|--------|--------|--------|
B|--------|--------|--------|--------|--------|--------|--------|--------|--------|
G|--------|--------|--------|--------|--------|--------|--------|--------|--------|
D|--------|--------|--------|--------|--------|--------|--------|--------|--------|
A|--------|--------|--------|--------|--------|--------|--------|--------|--------|
E|--------|--------|--------|--------|--------|--------|--------|--------|--------|


E|--------|--------|--------|--------|--------|--------|--------|--------|--------|
B|--------|--------|--------|--------|--------|--------|--------|--------|--------|
G|--------|--------|--------|--------|--------|--------|--------|--------|--------|
D|--------|--------|--------|--------|--------|--------|--------|--------|--------|
A|--------|--------|--------|--------|--------|--------|--------|--------|--------|
E|--------|--------|--------|--------|--------|--------|--------|--------|--------|


E|--------|--------|--------|--------|--------|--------|--------|--------|--------|
B|--------|--------|--------|--------|--------|--------|--------|--------|--------|
G|--------|--------|--------|--------|--------|--------|--------|--------|--------|
D|--------|--------|--------|--------|--------|--------|--------|--------|--------|
A|--------|--------|--------|--------|--------|--------|--------|--------|--------|
E|--------|--------|--------|--------|--------|--------|--------|--------|--------|


E|--------|--------|--------|--------|--------|--------|--------|--------|--------|
B|--------|--------|--------|--------|--------|--------|--------|--------|--------|
G|--------|--------|--------|--------|--------|--------|--------|--------|--------|
D|--------|--------|--------|--------|--------|--------|--------|--------|--------|
A|--------|--------|--------|--------|--------|--------|--------|--------|--------|
E|--------|--------|--------|--------|--------|--------|--------|--------|--------|


E|--------|--------|--------|--------|--------|--------|--------|--------|--------|
B|--------|--------|--------|--------|--------|--------|--------|--------|--------|
G|--------|--------|--------|--------|--------|--------|--------|--------|--------|
D|--------|--------|--------|--------|--------|--------|--------|--------|--------|
A|--------|--------|--------|--------|--------|--------|--------|--------|--------|
E|--------|--------|--------|--------|--------|--------|--------|--------|--------|


E|--------|--------|--------|--------|--------|-----------------------------------------------|
B|--------|--------|--------|--------|--------|-----------------------------------------------|
G|--------|--------|--------|--------|--------|-----------------------------------------------|
D|--------|--------|--------|--------|--------|-----------------------------------------------|
A|--------|--------|--------|--------|--------|-12-11----12-12-11----12-12-------12-12--------|
E|--------|--------|--------|--------|--------|-------12----------12-------14-12-------14-12--|


E|-----------------------------------------------|--------|--------|--------|--------|
B|-----------------------------------------------|--------|--------|--------|--------|
G|-----------------------------------------------|--------|--------|--------|--------|
D|-----------------------------------------------|--------|--------|--------|--------|
A|-12-11----12-12-11----12-12-------12-12--------|--------|--------|--------|--------|
E|-------12----------12-------14-12-------14-12--|--------|--------|--------|--------|


E|--------|--------|--------|--------|
B|--------|--------|--------|--------|
G|--------|--------|--------|--------|
D|--------|--------|--------|--------|
A|--------|--------|--------|--------|
E|--------|--------|--------|--------|





Track 6: Keyboards

E|--------|--------|--------|--------|--------|--------|--------|--------|--------|
B|--------|--------|--------|--------|--------|--------|--------|--------|--------|
G|--------|--------|--------|--------|--------|--------|--------|--------|--------|
D|--------|--------|--------|--------|--------|--------|--------|--------|--------|
A|--------|--------|--------|--------|--------|--------|--------|--------|--------|
E|--------|--------|--------|--------|--------|--------|--------|--------|--------|


E|--------|--------|--------|--------|--------|--------|--------|--------|--------|
B|--------|--------|--------|--------|--------|--------|--------|--------|--------|
G|--------|--------|--------|--------|--------|--------|--------|--------|--------|
D|--------|--------|--------|--------|--------|--------|--------|--------|--------|
A|--------|--------|--------|--------|--------|--------|--------|--------|--------|
E|--------|--------|--------|--------|--------|--------|--------|--------|--------|


E|--------|--------|--------|--------|--------|--------|--------|--------|--------|
B|--------|--------|--------|--------|--------|--------|--------|--------|--------|
G|--------|--------|--------|--------|--------|--------|--------|--------|--------|
D|--------|--------|--------|--------|--------|--------|--------|--------|--------|
A|--------|--------|--------|--------|--------|--------|--------|--------|--------|
E|--------|--------|--------|--------|--------|--------|--------|--------|--------|


E|--------|--------|--------|--------|--------|--------|--------|--------|--------|
B|--------|--------|--------|--------|--------|--------|--------|--------|--------|
G|--------|--------|--------|--------|--------|--------|--------|--------|--------|
D|--------|--------|--------|--------|--------|--------|--------|--------|--------|
A|--------|--------|--------|--------|--------|--------|--------|--------|--------|
E|--------|--------|--------|--------|--------|--------|--------|--------|--------|


E|--------|--------|--------|--------|--------|--------|--------|--------|--------|
B|--------|--------|--------|--------|--------|--------|--------|--------|--------|
G|--------|--------|--------|--------|--------|--------|--------|--------|--------|
D|--------|--------|--------|--------|--------|--------|--------|--------|--------|
A|--------|--------|--------|--------|--------|--------|--------|--------|--------|
E|--------|--------|--------|--------|--------|--------|--------|--------|--------|


E|--------|--------|--------|--------|--------|--------|--------|--------|--------|
B|--------|--------|--------|--------|--------|--------|--------|--------|--------|
G|--------|--------|--------|--------|--------|--------|--------|--------|--------|
D|--------|--------|--------|--------|--------|--------|--------|--------|--------|
A|--------|--------|--------|--------|--------|--------|--------|--------|--------|
E|--------|--------|--------|--------|--------|--------|--------|--------|--------|


E|--------|--------|--------|--------|--------|--------|--------|--------|--------|
B|--------|--------|--------|--------|--------|--------|--------|--------|--------|
G|--------|--------|--------|--------|--------|--------|--------|--------|--------|
D|--------|--------|--------|--------|--------|--------|--------|--------|--------|
A|--------|--------|--------|--------|--------|--------|--------|--------|--------|
E|--------|--------|--------|--------|--------|--------|--------|--------|--------|


E|--------|--------|--------|--------|--------|--------|--------|---------------------------|
B|--------|--------|--------|--------|--------|--------|--------|---------------------------|
G|--------|--------|--------|--------|--------|--------|--------|-----------------11---11---|
D|--------|--------|--------|--------|--------|--------|--------|-12---12---12-12-11---11---|
A|--------|--------|--------|--------|--------|--------|--------|-14---14---14-14-12---12---|
E|--------|--------|--------|--------|--------|--------|--------|-14---14---14-14-----------|


E|--------------------|----------------------|-------------------------------|-----------------------------------------------|
B|--------------------|----------------------|-------------------------------|-----------------------------------------------|
G|-9----9--9----9-----|-9--------------------|-------------------------------|-----------------------------------------------|
D|-9----9--9----12----|-12-------------------|-------7-----------------------|-----------------------------------------------|
A|-11---11-11---12----|-12-------------------|----------9-----12-12-------12-|-12-11----12-12-11-----12-------12-12-------12-|
E|--------------10----|-10-------------------|-------------10-------14-10----|-------12----------12-----14-10-------14-10----|


E|--------|--------|--------|
B|--------|--------|--------|
G|--------|--------|--------|
D|--------|--------|--------|
A|--------|--------|--------|
E|--------|--------|--------|





Track 7: Keyboards III

E|---------------------|-------------|-------------|--------|--------|--------|--------|
B|-3----5--------------|-------------|-------------|--------|--------|--------|--------|
G|---------------------|-------------|-------1-----|--------|--------|--------|--------|
D|-----------6----7----|-------4-----|-2-----------|-4------|-4------|--------|--------|
A|---------------------|-5-----------|-------------|--------|--------|--------|--------|
E|---------------------|-------------|-------------|--------|--------|--------|--------|


E|--------|--------|--------|--------|--------|--------|--------|--------|--------|
B|--------|--------|--------|--------|--------|--------|--------|--------|--------|
G|--------|--------|--------|--------|--------|--------|--------|--------|--------|
D|--------|--------|--------|--------|--------|--------|--------|--------|--------|
A|--------|--------|--------|--------|--------|--------|--------|--------|--------|
E|--------|--------|--------|--------|--------|--------|--------|--------|--------|


E|--------|--------|--------|--------|--------|--------|--------|--------|--------|
B|--------|--------|--------|--------|--------|--------|--------|--------|--------|
G|--------|--------|--------|--------|--------|--------|--------|--------|--------|
D|--------|--------|--------|--------|--------|--------|--------|--------|--------|
A|--------|--------|--------|--------|--------|--------|--------|--------|--------|
E|--------|--------|--------|--------|--------|--------|--------|--------|--------|


E|--------|--------|--------|--------|--------|--------|-------5-----|-4----4--7----------|
B|--------|--------|--------|--------|--------|--------|-3-----5-----|-5----5-------10----|
G|--------|--------|--------|--------|--------|--------|-4-----------|--------------7-----|
D|--------|--------|--------|--------|--------|--------|-------------|--------------------|
A|--------|--------|--------|--------|--------|--------|-------------|--------------------|
E|--------|--------|--------|--------|--------|--------|-------------|--------------------|


E|-----------------|--------|--------|--------|--------|--------|--------|--------|
B|-10--------------|--------|--------|--------|--------|--------|--------|--------|
G|-7---------------|--------|--------|--------|--------|--------|--------|--------|
D|-----------------|--------|--------|--------|--------|--------|--------|--------|
A|-----------------|--------|--------|--------|--------|--------|--------|--------|
E|-----------------|--------|--------|--------|--------|--------|--------|--------|


E|--------|--------|--------|--------|--------|-------------|-5-----4----4--7----|
B|--------|--------|--------|--------|--------|-------------|-5-----5----5-------|
G|--------|--------|--------|--------|--------|-------7-----|--------------------|
D|--------|--------|--------|--------|--------|-------9-----|--------------------|
A|--------|--------|--------|--------|--------|-------------|--------------------|
E|--------|--------|--------|--------|--------|-------------|--------------------|


E|-------------|--------|-------5--12-12-12--12-12----------------|-------12-12-12-10-8--10-10------------------|
B|-10----------|--------|----5---------------------14-------------|----------------------------12---------------|
G|-7-----------|--------|-6----------------------------14-14------|----14--------------------------12-12--------|
D|-------------|--------|-7----------------------------------14---|--------------------------------------12-----|
A|-------------|--------|-----------------------------------------|---------------------------------------------|
E|-------------|--------|-----------------------------------------|---------------------------------------------|


E|-------10-10-10-8--6--8--8---------------------|---------------------------------|
B|----------------------------10--------10-8--6--|-8-------------------------------|
G|----12--------------------------10-10----------|----7--5--4--4----4--------------|
D|-----------------------------------------------|---------------------------------|
A|-----------------------------------------------|---------------------------------|
E|-----------------------------------------------|---------------------------------|


E|----3--8--15-15-15--15-15-------------|----------15-15-13-11-13-13-------13-13-11-10-8--|
B|--------------------------17----------|-------------------------------11----------------|
G|-5----------------------------17-17---|-------17----------------------------------------|
D|--------------------------------------|----18-------------------------------------------|
A|--------------------------------------|----------------------------13-------------------|
E|--------------------------------------|-16----------------------------------------------|


E|-8-----8--17-17-------15-15--------------------|-----------------------------|--------|
B|----10----------20-18--------------------------|-----------------------------|--------|
G|----------------16-14-16-16-19-----------------|-----------------------------|--------|
D|----------------------------17--21-21-17-------|-----------------------------|--------|
A|--------------------------------17-17----17----|-19-17--16-16---16-----------|--------|
E|--------------------------------------------19-|-17--------------------------|--------|


E|--------|--------|--------|--------|--------|--------|--------|--------|--------|
B|--------|--------|--------|--------|--------|--------|--------|--------|--------|
G|--------|--------|--------|--------|--------|--------|--------|--------|--------|
D|--------|--------|--------|--------|--------|--------|--------|--------|--------|
A|--------|--------|--------|--------|--------|--------|--------|--------|--------|
E|--------|--------|--------|--------|--------|--------|--------|--------|--------|


E|--------|--------|-------------|--------------------|-----------------|--------|
B|--------|--------|-------------|--------------------|-----------------|--------|
G|--------|--------|-------------|---------16---------|-----------------|--------|
D|--------|--------|-------19----|-18---18------19----|-19--------------|--------|
A|--------|--------|-17----19----|-19---19------17----|-17--------------|--------|
E|--------|--------|-19----------|--------------------|-----------------|--------|


E|--------|--------|--------|--------|
B|--------|--------|--------|--------|
G|--------|--------|--------|--------|
D|--------|--------|--------|--------|
A|--------|--------|--------|--------|
E|--------|--------|--------|--------|





Track 8: Bass

G|--------|--------|--------|--------|--------------------|--------------------|--------------------|
D|--------|--------|--------|--------|---------------2----|-4-----4----4-------|-4-----4----4--2----|
A|--------|--------|--------|--------|--------------------|---------------4----|--------------------|
E|--------|--------|--------|--------|--------------------|--------------------|--------------------|


G|--------------------|--------------------|--------------------|-2-----2----2-------|
D|-0-----0----0-------|-0-----0----0--0----|---------------2----|--------------------|
A|---------------0----|--------------------|-0-----0----0-------|---------------4----|
E|--------------------|--------------------|--------------------|--------------------|


G|--------------------|--------------------|--------------------|--------------------|
D|--------------------|--------------------|--------------------|--------------------|
A|-5-----5----5-------|-5-----5----5--7----|-9-----9----9-------|-9-----9----9--7----|
E|---------------5----|--------------------|---------------9----|--------------------|


G|--------------------|--------------------|--------------------|--------------------|
D|--------------------|--------------------|--------------------|-7-----7----7-------|
A|-5-----5----5-------|-5-----5----5--5----|---------------7----|--------------------|
E|---------------5----|--------------------|-5-----5----5-------|---------------9----|


G|--------------------|--------------------|--------------------|--------------------|
D|--------------------|--------------------|--------------------|-4-----4----4--2----|
A|---------------0----|--------------------|---------------4----|--------------------|
E|-10----10---10------|-10----10---10-12---|-14----14---14------|--------------------|


G|--------------------|--------------------|--------------------|-2-----2-------------------|
D|-0-----0----0-------|-0-----0----0--0----|---------------2----|---------------------------|
A|---------------0----|--------------------|-0-----0----0-------|----------4---2--0--2--0---|
E|--------------------|--------------------|--------------------|---------------------------|


G|-------------|-------------------------|-------------|-------------|---------------------------|
D|-------------|-------------------------|-------7-----|-------7-----|---------------------------|
A|-0-----------|-0-----0--0---2--2--4----|-5-----------|-5-----------|-----------------9----9----|
E|-------0-----|-------------------------|-------------|-------------|-7----7----7--7------------|


G|------------------------------|-----------------|-------------|--------------------|
D|-11---11-11---------------14--|-14--------------|-------------|--------------------|
A|-------------------12-12------|-----------------|-------0-----|-0----0-------12----|
E|--------------10--------------|-----------------|-------------|---------12---------|


G|--------------------|--------------------|--------------------|--------------------|
D|--------------------|--------------------|--------------------|--------------------|
A|-12---12-11---9-----|-9----9-------9-----|-9----9--7----5-----|-5----5-------5-----|
E|--------------------|---------9----------|--------------------|---------5----------|


G|--------------------|--------------------|---------------------------|-------------|
D|--------------------|--------------7-----|-7-------------------------|-------------|
A|-5----5--5----------|---------7----------|---------------------------|-------------|
E|--------------5-----|--------------------|----9---7--5--7--5---5-----|-0-----5-----|


G|-------------------------|-------------|--------------------|--------------6----6--6----|
D|-------------------------|-------------|--------------------|----4----4-----------------|
A|-------------------------|-12----------|-12----2----2----2--|-2-------------------------|
E|-5--5---7--7--9----10----|-------10----|--------------------|---------------------------|


G|-------------9---9-----|-9---------------|-------------|--------------------|-------------|
D|------7--7-------------|-----------------|-7-----------|--------------------|-------------|
A|-5---------------------|-----------------|-------7-----|-8-----10---10------|-------8-----|
E|-----------------------|-----------------|-------------|---------------8----|-10----------|


G|--------------------|-------------|-------------|-------------|--------------------------|
D|--------------------|-10----------|-------------|-------------|----2---------------------|
A|-10---10-10---10----|-------10----|-11----13----|-------------|--------0--0----0---------|
E|--------------------|-------------|-------------|-13----15----|-17-----------------------|


G|--------------------|--------------------|--------------------|--------------------|
D|-0-----0----0-------|-0-----0----0--2----|-4-----4----4-------|-4-----4----4--2----|
A|---------------0----|--------------------|---------------4----|--------------------|
E|--------------------|--------------------|--------------------|--------------------|


G|--------------------|--------------------|--------------------|-2-----2-------------------|
D|-0-----0----0-------|-0-----0----0--0----|---------------2----|---------------------------|
A|---------------0----|--------------------|-0-----0----0-------|----------4---2--0--2--0---|
E|--------------------|--------------------|--------------------|---------------------------|


G|-------------|-------------------------|-------------|-------------|---------------------------|
D|-------------|-------------------------|-------7-----|-------7-----|---------------------------|
A|-0-----------|-0-----0--0---2--2--4----|-5-----------|-5-----------|-----------------9----9----|
E|-------0-----|-------------------------|-------------|-------------|-7----7----7--7------------|


G|------------------------------|-----------------|-------------|----------------------|
D|-11---11-11---------------14--|-14--------------|-------0-----|----------------------|
A|-------------------12-12------|-----------------|-------------|-12---12-10-12--------|
E|--------------10--------------|-----------------|-------------|----------------10----|


G|----------------------|----------------------|--------|
D|----------------------|----------------------|--------|
A|-12---12-10-12--------|-12---12-10-12--------|--------|
E|----------------10----|----------------10----|--------|





Track 9: Christopher Cross

E|--------|--------|--------|--------|--------|--------|--------|--------|--------|
B|--------|--------|--------|--------|--------|--------|--------|--------|--------|
G|--------|--------|--------|--------|--------|--------|--------|--------|--------|
D|--------|--------|--------|--------|--------|--------|--------|--------|--------|
A|--------|--------|--------|--------|--------|--------|--------|--------|--------|
E|--------|--------|--------|--------|--------|--------|--------|--------|--------|


E|--------|---------------5--4--5--|-5--5---5--5---4--5--4---------------|-5---5--7--7------------------------7--|
B|--------|------------------------|------------------------5----5----5--|--------------9------------------------|
G|--------|------------------------|-------------------------------------|------------------9--9----9--9---9-----|
D|--------|------------------------|-------------------------------------|---------------------------------------|
A|--------|------------------------|-------------------------------------|---------------------------------------|
E|--------|------------------------|-------------------------------------|---------------------------------------|


E|-7--7---7--7--7--5--7--5--9----9-------|-7---7--7--5--9----9----12-12--10-10-|-10--10-10-10-9---9--7--5----5----|
B|---------------------------------------|-------------------------------------|----------------------------------|
G|------------------------------------9--|-------------------------------------|----------------------------------|
D|---------------------------------------|-------------------------------------|----------------------------------|
A|---------------------------------------|-------------------------------------|----------------------------------|
E|---------------------------------------|-------------------------------------|----------------------------------|


E|-7---7--7--7--5---9--9--------7--|-7-----9--9--9-----|-9-----9----12-12-10--9--|
B|---------------------------------|-------------------|-------------------------|
G|---------------------------9-----|-------------------|-------------------------|
D|---------------------------------|-------------------|-------------------------|
A|---------------------------------|-------------------|-------------------------|
E|---------------------------------|-------------------|-------------------------|


E|-9----9--9--7--5--7--5--5----5---------|-7---9--------7----7-------------7--|-7--7---7--7--7--5--7--5--9----9-------|
B|---------------------------------5--5--|--------10--------------5-----5-----|---------------------------------------|
G|---------------------------------------|-----------9------------------------|------------------------------------9--|
D|---------------------------------------|------------------------------------|---------------------------------------|
A|---------------------------------------|------------------------------------|---------------------------------------|
E|---------------------------------------|------------------------------------|---------------------------------------|


E|-7---7--7--7--5--9---9----12-12--10-10-|-10-10--10-10-9---9--7--5----5----|-7---7--7--7--5---9--9--------7--|
B|---------------------------------------|----------------------------------|---------------------------------|
G|---------------------------------------|----------------------------------|---------------------------9-----|
D|---------------------------------------|----------------------------------|---------------------------------|
A|---------------------------------------|----------------------------------|---------------------------------|
E|---------------------------------------|----------------------------------|---------------------------------|


E|-7-----9--9--9-----|--------|-12----12-12---12-10-9--12-|-12----12-12-12-10--9--9--7----|
B|-------------------|--------|---------------------------|-------------------------------|
G|-------------------|--------|---------------------------|-------------------------------|
D|-------------------|--------|---------------------------|-------------------------------|
A|-------------------|--------|---------------------------|-------------------------------|
E|-------------------|--------|---------------------------|-------------------------------|


E|-7----9--9---------------|------------------------|-----------------------------------|
B|------------10--10-10----|-10----10---10-10-10-12-|-12---14--------12-14--------------|
G|-------------------------|------------------------|---------14--14-------14---14---14-|
D|-------------------------|------------------------|-----------------------------------|
A|-------------------------|------------------------|-----------------------------------|
E|-------------------------|------------------------|-----------------------------------|


E|-12--12-12-12------------|--------|-------------------|------------------------------|
B|--------------14---------|--------|-------12----14-14-|-14---14-12-12-12-12----14-14-|
G|-------------------14----|--------|-------------------|------------------------------|
D|-------------------------|--------|-------------------|------------------------------|
A|-------------------------|--------|-------------------|------------------------------|
E|-------------------------|--------|-------------------|------------------------------|


E|--------------------------|--------|-----------------------------|--------------9---9--9--9--7--5--7--|
B|-14---14-12---12----14-14-|--------|-------14-14--14-14-12-10-12-|-10-10---10-------------------------|
G|--------------------------|--------|-----------------------------|------------------------------------|
D|--------------------------|--------|-----------------------------|------------------------------------|
A|--------------------------|--------|-----------------------------|------------------------------------|
E|--------------------------|--------|-----------------------------|------------------------------------|


E|-5--5----9--7--7--7--7-----9--9--|-9------|-9-----12----12-|-12---12-10-9--12-12----12-12-|
B|---------------------------------|--------|----------------|------------------------------|
G|---------------------------------|--------|----------------|------------------------------|
D|---------------------------------|--------|----------------|------------------------------|
A|---------------------------------|--------|----------------|------------------------------|
E|---------------------------------|--------|----------------|------------------------------|


E|-12-10--9--9--7----7----9--9---------|--------|------------------------------------|
B|------------------------------10--10-|-10-----|-10---10-10-10-12-12---14--------12-|
G|-------------------------------------|--------|--------------------------14--14----|
D|-------------------------------------|--------|------------------------------------|
A|-------------------------------------|--------|------------------------------------|
E|-------------------------------------|--------|------------------------------------|


E|-----------------12--12-12-12------|--------|--------|--------|--------|--------|
B|-14---------------------------14---|--------|--------|--------|--------|--------|
G|----14---14---14-------------------|-14-----|--------|--------|--------|--------|
D|-----------------------------------|--------|--------|--------|--------|--------|
A|-----------------------------------|--------|--------|--------|--------|--------|
E|-----------------------------------|--------|--------|--------|--------|--------|


E|--------|--------|--------|--------|------------------------|-------------------------------------|
B|--------|--------|--------|--------|------------------------|-------------------------------------|
G|--------|--------|--------|--------|---------------14-13-14-|-14-14--14-14--13-14-13--------------|
D|--------|--------|--------|--------|------------------------|------------------------14---14---14-|
A|--------|--------|--------|--------|------------------------|-------------------------------------|
E|--------|--------|--------|--------|------------------------|-------------------------------------|


E|---------------------------------------|--------------------------9----9-------|
B|--------12-12-----------------------12-|-12-12--12-12-12-10-12-10--------------|
G|-14--14-------13-----------------------|------------------------------------9--|
D|------------------14-14---14-14--14----|---------------------------------------|
A|---------------------------------------|---------------------------------------|
E|---------------------------------------|---------------------------------------|


E|-7---7--7--7--5--9---9----12-12--12-12-|-12--12-12-12-10---12-10-14--14---|-14--12-12-12-10--9--9----9--7--7--7--|
B|---------------------------------------|----------------------------------|--------------------------------------|
G|---------------------------------------|----------------------------------|--------------------------------------|
D|---------------------------------------|----------------------------------|--------------------------------------|
A|---------------------------------------|----------------------------------|--------------------------------------|
E|---------------------------------------|----------------------------------|--------------------------------------|


E|-7-----9--9--9-----|--------|-12----12-12---12-10-9--12-|-12----12-12-12-10--9--9--7----|
B|-------------------|--------|---------------------------|-------------------------------|
G|-------------------|--------|---------------------------|-------------------------------|
D|-------------------|--------|---------------------------|-------------------------------|
A|-------------------|--------|---------------------------|-------------------------------|
E|-------------------|--------|---------------------------|-------------------------------|


E|-7----9--9---------------|------------------------|-------------------------------------|
B|------------10--10-10----|---------------10-10-12-|-12-----14--------12-14--------------|
G|-------------------------|------------------------|-----------14--14-------14---14---14-|
D|-------------------------|------------------------|-------------------------------------|
A|-------------------------|------------------------|-------------------------------------|
E|-------------------------|------------------------|-------------------------------------|


E|-12--12-12-12------------|--------|--------|--------|--------|--------|--------|
B|--------------14---------|--------|--------|--------|--------|--------|--------|
G|-------------------14----|--------|--------|--------|--------|--------|--------|
D|-------------------12----|--------|--------|--------|--------|--------|--------|
A|-------------------------|--------|--------|--------|--------|--------|--------|
E|-------------------------|--------|--------|--------|--------|--------|--------|