Site menu:

    

Browse: 0-9 A B C D E F G H I J K L N O P Q R S T U V W X Y Z

chivalric bastard - spirit of the woods:



Title: Spirit Of The Woods
Artist: 
Album: 
Author: wartorntroll


Track 1: Synth 4 (Flute)

E|------2--------------|------2--------------|------2--------------|------2--------------|
B|-0---------3----2----|-0---------3----2----|-0---------3----2----|-0---------3----2----|
G|---------------------|---------------------|---------------------|---------------------|
D|---------------------|---------------------|---------------------|---------------------|
A|---------------------|---------------------|---------------------|---------------------|
E|---------------------|---------------------|---------------------|---------------------|


E|------2--------------|------2--------------|------2--------------|------2----------|
B|-0---------3----2----|-0---------3----2----|-0---------3----2----|-0---------------|
G|---------------------|---------------------|---------------------|-----------------|
D|---------------------|---------------------|---------------------|-----------------|
A|---------------------|---------------------|---------------------|-----------------|
E|---------------------|---------------------|---------------------|-----------------|


E|--------|--------|--------|--------|--------|--------|--------|--------|--------|
B|--------|--------|--------|--------|--------|--------|--------|--------|--------|
G|--------|--------|--------|--------|--------|--------|--------|--------|--------|
D|--------|--------|--------|--------|--------|--------|--------|--------|--------|
A|--------|--------|--------|--------|--------|--------|--------|--------|--------|
E|--------|--------|--------|--------|--------|--------|--------|--------|--------|


E|--------|--------|--------|------------2----|-2----5----0-----|-5-----7----9----|
B|--------|--------|--------|-0-----2---------|-----------------|-----------------|
G|--------|--------|--------|-----------------|-----------------|-----------------|
D|--------|--------|--------|-----------------|-----------------|-----------------|
A|--------|--------|--------|-----------------|-----------------|-----------------|
E|--------|--------|--------|-----------------|-----------------|-----------------|


E|-7---------------7---------------|------------2----|-2----5----0-----|-5-----7----9----|
B|-----8---7---5-------8---7---5---|-0-----2---------|-----------------|-----------------|
G|---------------------------------|-----------------|-----------------|-----------------|
D|---------------------------------|-----------------|-----------------|-----------------|
A|---------------------------------|-----------------|-----------------|-----------------|
E|---------------------------------|-----------------|-----------------|-----------------|


E|-7---------------7---------------|--------|--------|--------|--------|--------|--------|
B|-----8---7---5-------8---7---5---|--------|--------|--------|--------|--------|--------|
G|---------------------------------|--------|--------|--------|--------|--------|--------|
D|---------------------------------|--------|--------|--------|--------|--------|--------|
A|---------------------------------|--------|--------|--------|--------|--------|--------|
E|---------------------------------|--------|--------|--------|--------|--------|--------|


E|--------|--------|--------|--------|--------|--------|--------|--------|--------|
B|--------|--------|--------|--------|--------|--------|--------|--------|--------|
G|--------|--------|--------|--------|--------|--------|--------|--------|--------|
D|--------|--------|--------|--------|--------|--------|--------|--------|--------|
A|--------|--------|--------|--------|--------|--------|--------|--------|--------|
E|--------|--------|--------|--------|--------|--------|--------|--------|--------|


E|--------|--------|--------|--------|--------|--------|--------|--------|--------|
B|--------|--------|--------|--------|--------|--------|--------|--------|--------|
G|--------|--------|--------|--------|--------|--------|--------|--------|--------|
D|--------|--------|--------|--------|--------|--------|--------|--------|--------|
A|--------|--------|--------|--------|--------|--------|--------|--------|--------|
E|--------|--------|--------|--------|--------|--------|--------|--------|--------|


E|--------|--------|------------2----|-2----5----0-----|-5-----7----9----|-7---------------7---------------|
B|--------|--------|-0-----2---------|-----------------|-----------------|-----8---7---5-------8---7---5---|
G|--------|--------|-----------------|-----------------|-----------------|---------------------------------|
D|--------|--------|-----------------|-----------------|-----------------|---------------------------------|
A|--------|--------|-----------------|-----------------|-----------------|---------------------------------|
E|--------|--------|-----------------|-----------------|-----------------|---------------------------------|


E|------------2----|-2----5----0-----|-5-----7----9----|-7---------------7---------------|
B|-0-----2---------|-----------------|-----------------|-----8---7---5-------8---7---5---|
G|-----------------|-----------------|-----------------|---------------------------------|
D|-----------------|-----------------|-----------------|---------------------------------|
A|-----------------|-----------------|-----------------|---------------------------------|
E|-----------------|-----------------|-----------------|---------------------------------|


E|--------|--------|--------|--------|--------|--------|--------|--------|--------|
B|--------|--------|--------|--------|--------|--------|--------|--------|--------|
G|--------|--------|--------|--------|--------|--------|--------|--------|--------|
D|--------|--------|--------|--------|--------|--------|--------|--------|--------|
A|--------|--------|--------|--------|--------|--------|--------|--------|--------|
E|--------|--------|--------|--------|--------|--------|--------|--------|--------|


E|--------|--------|--------|--------|--------|--------|--------|
B|--------|--------|--------|--------|--------|--------|--------|
G|--------|--------|--------|--------|--------|--------|--------|
D|--------|--------|--------|--------|--------|--------|--------|
A|--------|--------|--------|--------|--------|--------|--------|
E|--------|--------|--------|--------|--------|--------|--------|





Track 2: Synth 1 (Pizzicato)

E|---------------------------------|---------------------------------|---------------------------------|
B|---------------------------------|---------------------------------|---------------------------------|
G|---------------------------------|---------------------------------|---------------------------------|
D|-----------------4-------4-------|-----------------4-----------5---|-----------------4-------4-------|
A|-2---4---5---4-------5-------4---|-2---4---5---4-------5---7-------|-2---4---5---4-------5-------4---|
E|---------------------------------|---------------------------------|---------------------------------|


E|---------------------------------|---------------------------------|---------------------------------|
B|---------------------------------|---------------------------------|---------------------------------|
G|---------------------------------|---------------------------------|---------------------------------|
D|-----------------4-----------5---|-----------------4-------4-------|-----------------4-----------5---|
A|-2---4---5---4-------5---7-------|-2---4---5---4-------5-------4---|-2---4---5---4-------5---7-------|
E|---------------------------------|---------------------------------|---------------------------------|


E|---------------------------------|---------------------------|--------|--------|
B|---------------------------------|---------------------------|--------|--------|
G|---------------------------------|---------------------------|--------|--------|
D|-----------------4-------4-------|-----------------4---------|--------|--------|
A|-2---4---5---4-------5-------4---|-2---4---5---4-------------|--------|--------|
E|---------------------------------|---------------------------|--------|--------|


E|--------|--------|--------|--------|--------|--------|--------|--------|--------|
B|--------|--------|--------|--------|--------|--------|--------|--------|--------|
G|--------|--------|--------|--------|--------|--------|--------|--------|--------|
D|--------|--------|--------|--------|--------|--------|--------|--------|--------|
A|--------|--------|--------|--------|--------|--------|--------|--------|--------|
E|--------|--------|--------|--------|--------|--------|--------|--------|--------|


E|--------|--------|--------|--------|--------|--------|--------|--------|--------|
B|--------|--------|--------|--------|--------|--------|--------|--------|--------|
G|--------|--------|--------|--------|--------|--------|--------|--------|--------|
D|--------|--------|--------|--------|--------|--------|--------|--------|--------|
A|--------|--------|--------|--------|--------|--------|--------|--------|--------|
E|--------|--------|--------|--------|--------|--------|--------|--------|--------|


E|--------|--------|--------|--------|--------|--------|--------|--------|--------|
B|--------|--------|--------|--------|--------|--------|--------|--------|--------|
G|--------|--------|--------|--------|--------|--------|--------|--------|--------|
D|--------|--------|--------|--------|--------|--------|--------|--------|--------|
A|--------|--------|--------|--------|--------|--------|--------|--------|--------|
E|--------|--------|--------|--------|--------|--------|--------|--------|--------|


E|--------|--------|--------|--------|--------|--------|--------|--------|--------|
B|--------|--------|--------|--------|--------|--------|--------|--------|--------|
G|--------|--------|--------|--------|--------|--------|--------|--------|--------|
D|--------|--------|--------|--------|--------|--------|--------|--------|--------|
A|--------|--------|--------|--------|--------|--------|--------|--------|--------|
E|--------|--------|--------|--------|--------|--------|--------|--------|--------|


E|--------|--------|--------|--------|--------|--------|--------|--------|--------|
B|--------|--------|--------|--------|--------|--------|--------|--------|--------|
G|--------|--------|--------|--------|--------|--------|--------|--------|--------|
D|--------|--------|--------|--------|--------|--------|--------|--------|--------|
A|--------|--------|--------|--------|--------|--------|--------|--------|--------|
E|--------|--------|--------|--------|--------|--------|--------|--------|--------|


E|--------|--------|--------|--------|--------|--------|--------|--------|--------|
B|--------|--------|--------|--------|--------|--------|--------|--------|--------|
G|--------|--------|--------|--------|--------|--------|--------|--------|--------|
D|--------|--------|--------|--------|--------|--------|--------|--------|--------|
A|--------|--------|--------|--------|--------|--------|--------|--------|--------|
E|--------|--------|--------|--------|--------|--------|--------|--------|--------|


E|--------|--------|--------|--------|--------|--------|--------|--------|--------|
B|--------|--------|--------|--------|--------|--------|--------|--------|--------|
G|--------|--------|--------|--------|--------|--------|--------|--------|--------|
D|--------|--------|--------|--------|--------|--------|--------|--------|--------|
A|--------|--------|--------|--------|--------|--------|--------|--------|--------|
E|--------|--------|--------|--------|--------|--------|--------|--------|--------|


E|--------|--------|--------|--------|--------|
B|--------|--------|--------|--------|--------|
G|--------|--------|--------|--------|--------|
D|--------|--------|--------|--------|--------|
A|--------|--------|--------|--------|--------|
E|--------|--------|--------|--------|--------|





Track 3: Synth 3 (Harpsichord)

E|-14-----|--------|---------------------------------|---------------------------------|
B|-12-----|--------|---------------------------------|---------------------------------|
G|-11-----|--------|---------------------------------|---------------------------------|
D|-12-----|--------|-----------------4-------4-------|-----------------4-----------5---|
A|-14-----|--------|-2---4---5---4-------5-------4---|-2---4---5---4-------5---7-------|
E|--------|--------|---------------------------------|---------------------------------|


E|---------------------------------|---------------------------------|---------------------------------|
B|---------------------------------|---------------------------------|---------------------------------|
G|---------------------------------|---------------------------------|---------------------------------|
D|-----------------4-------4-------|-----------------4-----------5---|-----------------4-------4-------|
A|-2---4---5---4-------5-------4---|-2---4---5---4-------5---7-------|-2---4---5---4-------5-------4---|
E|---------------------------------|---------------------------------|---------------------------------|


E|---------------------------------|--------|--------|--------|--------|--------|--------|
B|---------------------------------|--------|--------|--------|--------|--------|--------|
G|---------------------------------|--------|--------|--------|--------|--------|--------|
D|-----------------4---------------|--------|--------|--------|--------|--------|--------|
A|-2---4---5---4-------5---4---2---|--------|--------|--------|--------|--------|--------|
E|---------------------------------|--------|--------|--------|--------|--------|--------|


E|--------|--------|--------|--------|--------|--------|--------|--------|--------|
B|--------|--------|--------|--------|--------|--------|--------|--------|--------|
G|--------|--------|--------|--------|--------|--------|--------|--------|--------|
D|--------|--------|--------|--------|--------|--------|--------|--------|--------|
A|--------|--------|--------|--------|--------|--------|--------|--------|--------|
E|--------|--------|--------|--------|--------|--------|--------|--------|--------|


E|--------|--------|--------|--------|--------|--------|--------|--------|--------|
B|--------|--------|--------|--------|--------|--------|--------|--------|--------|
G|--------|--------|--------|--------|--------|--------|--------|--------|--------|
D|--------|--------|--------|--------|--------|--------|--------|--------|--------|
A|--------|--------|--------|--------|--------|--------|--------|--------|--------|
E|--------|--------|--------|--------|--------|--------|--------|--------|--------|


E|--------|--------|--------|--------|--------|--------|--------|--------|--------|
B|--------|--------|--------|--------|--------|--------|--------|--------|--------|
G|--------|--------|--------|--------|--------|--------|--------|--------|--------|
D|--------|--------|--------|--------|--------|--------|--------|--------|--------|
A|--------|--------|--------|--------|--------|--------|--------|--------|--------|
E|--------|--------|--------|--------|--------|--------|--------|--------|--------|


E|--------|--------|--------|--------|--------|--------|--------|--------|--------|
B|--------|--------|--------|--------|--------|--------|--------|--------|--------|
G|--------|--------|--------|--------|--------|--------|--------|--------|--------|
D|--------|--------|--------|--------|--------|--------|--------|--------|--------|
A|--------|--------|--------|--------|--------|--------|--------|--------|--------|
E|--------|--------|--------|--------|--------|--------|--------|--------|--------|


E|--------|--------|--------|--------|--------|--------|--------|--------|--------|
B|--------|--------|--------|--------|--------|--------|--------|--------|--------|
G|--------|--------|--------|--------|--------|--------|--------|--------|--------|
D|--------|--------|--------|--------|--------|--------|--------|--------|--------|
A|--------|--------|--------|--------|--------|--------|--------|--------|--------|
E|--------|--------|--------|--------|--------|--------|--------|--------|--------|


E|--------|--------|--------|--------|--------|--------|--------|--------|--------|
B|--------|--------|--------|--------|--------|--------|--------|--------|--------|
G|--------|--------|--------|--------|--------|--------|--------|--------|--------|
D|--------|--------|--------|--------|--------|--------|--------|--------|--------|
A|--------|--------|--------|--------|--------|--------|--------|--------|--------|
E|--------|--------|--------|--------|--------|--------|--------|--------|--------|


E|--------|--------|--------|--------|--------|--------|--------|--------|--------|
B|--------|--------|--------|--------|--------|--------|--------|--------|--------|
G|--------|--------|--------|--------|--------|--------|--------|--------|--------|
D|--------|--------|--------|--------|--------|--------|--------|--------|--------|
A|--------|--------|--------|--------|--------|--------|--------|--------|--------|
E|--------|--------|--------|--------|--------|--------|--------|--------|--------|


E|--------|
B|--------|
G|--------|
D|--------|
A|--------|
E|--------|





Track 4: Guitar 1

E|--------|--------|--------|--------|--------|--------|--------|--------|--------|
B|--------|--------|--------|--------|--------|--------|--------|--------|--------|
G|--------|--------|--------|--------|--------|--------|--------|--------|--------|
D|--------|--------|--------|--------|--------|--------|--------|--------|-4------|
A|--------|--------|--------|--------|--------|--------|--------|--------|-2------|
E|--------|--------|--------|--------|--------|--------|--------|--------|--------|


E|--------|--------|--------|--------|--------|--------|--------|-----------------------------------|
B|--------|--------|--------|--------|--------|--------|--------|-----------------------------------|
G|--------|--------|--------|--------|--------|--------|--------|-----------------------------------|
D|-6------|-7------|-9------|-4------|-6------|-7------|-9------|-4---4--4--4---4---4---4---4---4---|
A|-4------|-5------|-7------|-2------|-4------|-5------|-7------|-2---2--2--2---2---2---2---2---2---|
E|--------|--------|--------|--------|--------|--------|--------|-----------------------------------|


E|-----------------------------------|-----------------------------------|-----------------------------------|
B|-----------------------------------|-----------------------------------|-----------------------------------|
G|-----------------------------------|-----------------------------------|-----------------------------------|
D|-----------------------------------|-6---6--6--6---6---6---6---6---6---|-2---2--2--2---2---2---2---2---2---|
A|-4---4--4--4---4---4---4---4---4---|-4---4--4--4---4---4---4---4---4---|-2---2--2--2---2---2---2---2---2---|
E|-2---2--2--2---2---2---2---2---2---|-----------------------------------|-----------------------------------|


E|-----------------------------------|-----------------------------------|-----------------------------------|
B|-----------------------------------|-----------------------------------|-----------------------------------|
G|-----------------------------------|-----------------------------------|-----------------------------------|
D|-4---4--4--4---4---4---4---4---4---|-----------------------------------|-6---6--6--6---6---6---6---6---6---|
A|-2---2--2--2---2---2---2---2---2---|-4---4--4--4---4---4---4---4---4---|-4---4--4--4---4---4---4---4---4---|
E|-----------------------------------|-2---2--2--2---2---2---2---2---2---|-----------------------------------|


E|-----------------------------------|-----------------------------------|-----------------------------------|
B|-----------------------------------|-----------------------------------|-----------------------------------|
G|-----------------------------------|-----------------------------------|-----------------------------------|
D|-2---2--2--2---2---2---2---2---2---|-4---4--4--4---4---4---4---4---4---|-----------------------------------|
A|-2---2--2--2---2---2---2---2---2---|-2---2--2--2---2---2---2---2---2---|-4---4--4--4---4---4---4---4---4---|
E|-----------------------------------|-----------------------------------|-2---2--2--2---2---2---2---2---2---|


E|-----------------------------------|-----------------------------------|--------|
B|-----------------------------------|-----------------------------------|--------|
G|-----------------------------------|-----------------------------------|--------|
D|-6---6--6--6---6---6---6---6---6---|-2---2--2--2---2---2---2---2---2---|--------|
A|-4---4--4--4---4---4---4---4---4---|-2---2--2--2---2---2---2---2---2---|--------|
E|-----------------------------------|-----------------------------------|--------|


E|--------|--------|--------|--------|--------|--------|--------|--------|--------|
B|--------|--------|--------|--------|--------|--------|--------|--------|--------|
G|--------|--------|--------|--------|--------|--------|--------|--------|--------|
D|--------|--------|--------|--------|--------|--------|--------|--------|--------|
A|--------|--------|--------|--------|--------|--------|--------|--------|--------|
E|--------|--------|--------|--------|--------|--------|--------|--------|--------|


E|--------|--------|--------|--------|--------|--------|--------|--------|--------|
B|--------|--------|--------|--------|--------|--------|--------|--------|--------|
G|--------|--------|--------|--------|--------|--------|--------|--------|--------|
D|--------|--------|--------|--------|-4------|-6------|-7------|-9------|-4------|
A|--------|--------|--------|--------|-2------|-4------|-5------|-7------|-2------|
E|--------|--------|--------|--------|--------|--------|--------|--------|--------|


E|--------|--------|--------|-----------------------------------|-----------------------------------|
B|--------|--------|--------|-----------------------------------|-----------------------------------|
G|--------|--------|--------|-----------------------------------|-----------------------------------|
D|-6------|-7------|-9------|-4---4--4--4---4---4---4---4---4---|-----------------------------------|
A|-4------|-5------|-7------|-2---2--2--2---2---2---2---2---2---|-4---4--4--4---4---4---4---4---4---|
E|--------|--------|--------|-----------------------------------|-2---2--2--2---2---2---2---2---2---|


E|-----------------------------------|-----------------------------------|-----------------------------------|
B|-----------------------------------|-----------------------------------|-----------------------------------|
G|-----------------------------------|-----------------------------------|-----------------------------------|
D|-6---6--6--6---6---6---6---6---6---|-2---2--2--2---2---2---2---2---2---|-4---4--4--4---4---4---4---4---4---|
A|-4---4--4--4---4---4---4---4---4---|-2---2--2--2---2---2---2---2---2---|-2---2--2--2---2---2---2---2---2---|
E|-----------------------------------|-----------------------------------|-----------------------------------|


E|-----------------------------------|-----------------------------------|-----------------------------------|
B|-----------------------------------|-----------------------------------|-----------------------------------|
G|-----------------------------------|-----------------------------------|-----------------------------------|
D|-----------------------------------|-6---6--6--6---6---6---6---6---6---|-2---2--2--2---2---2---2---2---2---|
A|-4---4--4--4---4---4---4---4---4---|-4---4--4--4---4---4---4---4---4---|-2---2--2--2---2---2---2---2---2---|
E|-2---2--2--2---2---2---2---2---2---|-----------------------------------|-----------------------------------|


E|-----------------------------------|-----------------------------------|-----------------------------------|
B|-----------------------------------|-----------------------------------|-----------------------------------|
G|-----------------------------------|-----------------------------------|-----------------------------------|
D|-4---4--4--4---4---4---4---4---4---|-----------------------------------|-6---6--6--6---6---6---6---6---6---|
A|-2---2--2--2---2---2---2---2---2---|-4---4--4--4---4---4---4---4---4---|-4---4--4--4---4---4---4---4---4---|
E|-----------------------------------|-2---2--2--2---2---2---2---2---2---|-----------------------------------|


E|-----------------------------------|--------|--------|--------|--------|--------|
B|-----------------------------------|--------|--------|--------|--------|--------|
G|-----------------------------------|--------|--------|--------|--------|--------|
D|-2---2--2--2---2---2---2---2---2---|-4------|--------|-6------|-2------|-4------|
A|-2---2--2--2---2---2---2---2---2---|-2------|-4------|-4------|-2------|-2------|
E|-----------------------------------|--------|-2------|--------|--------|--------|


E|--------|--------|--------|--------|--------|--------|--------|--------|--------|
B|--------|--------|--------|--------|--------|--------|--------|--------|--------|
G|--------|--------|--------|--------|--------|--------|--------|--------|--------|
D|--------|-6------|-2------|-4------|--------|-6------|-2------|-4------|--------|
A|-4------|-4------|-2------|-2------|-4------|-4------|-2------|-2------|-4------|
E|-2------|--------|--------|--------|-2------|--------|--------|--------|-2------|


E|--------|--------|
B|--------|--------|
G|--------|--------|
D|-6------|-2------|
A|-4------|-2------|
E|--------|--------|





Track 5: Synth 2 (Brightness)

E|--------|--------|--------|--------|--------|--------|--------|--------|---------------------------------|
B|--------|--------|--------|--------|--------|--------|--------|--------|---------------------------------|
G|--------|--------|--------|--------|--------|--------|--------|--------|---------------------------------|
D|--------|--------|--------|--------|--------|--------|--------|--------|-4---------------4---------------|
A|--------|--------|--------|--------|--------|--------|--------|--------|-----5---4---2-------5---4---2---|
E|--------|--------|--------|--------|--------|--------|--------|--------|---------------------------------|


E|---------------------------------|---------------------------------|---------------------------------|
B|---------------------------------|---------------------------------|---------------------------------|
G|---------------------------------|---------------------------------|---------------------------------|
D|-6---------------6---------------|-7---------------7---------------|-9---------------9---------------|
A|-----7---6---3-------7---6---3---|-----8---7---5-------8---7---5---|-----10--9---7-------10--9---7---|
E|---------------------------------|---------------------------------|---------------------------------|


E|---------------------------------|---------------------------------|---------------------------------|
B|---------------------------------|---------------------------------|---------------------------------|
G|---------------------------------|---------------------------------|---------------------------------|
D|-4---------------4---------------|-6---------------6---------------|-7---------------7---------------|
A|-----5---4---2-------5---4---2---|-----7---6---3-------7---6---3---|-----8---7---5-------8---7---5---|
E|---------------------------------|---------------------------------|---------------------------------|


E|---------------------------------|--------|--------|--------|--------|--------|--------|
B|---------------------------------|--------|--------|--------|--------|--------|--------|
G|---------------------------------|--------|--------|--------|--------|--------|--------|
D|-9---------------9---------------|--------|--------|--------|--------|--------|--------|
A|-----10--9---7-------10--9---7---|--------|--------|--------|--------|--------|--------|
E|---------------------------------|--------|--------|--------|--------|--------|--------|


E|--------|--------|--------|--------|--------|--------|--------|--------|--------|
B|--------|--------|--------|--------|--------|--------|--------|--------|--------|
G|--------|--------|--------|--------|--------|--------|--------|--------|--------|
D|--------|--------|--------|--------|--------|--------|--------|--------|--------|
A|--------|--------|--------|--------|--------|--------|--------|--------|--------|
E|--------|--------|--------|--------|--------|--------|--------|--------|--------|


E|--------|--------|--------|--------|--------|--------|--------|--------|--------|
B|--------|--------|--------|--------|--------|--------|--------|--------|--------|
G|--------|--------|--------|--------|--------|--------|--------|--------|--------|
D|--------|--------|--------|--------|--------|--------|--------|--------|--------|
A|--------|--------|--------|--------|--------|--------|--------|--------|--------|
E|--------|--------|--------|--------|--------|--------|--------|--------|--------|


E|--------|--------|---------------------------------|---------------------------------|
B|--------|--------|---------------------------------|---------------------------------|
G|--------|--------|---------------------------------|---------------------------------|
D|--------|--------|-4---------------4---------------|-6---------------6---------------|
A|--------|--------|-----5---4---2-------5---4---2---|-----7---6---3-------7---6---3---|
E|--------|--------|---------------------------------|---------------------------------|


E|---------------------------------|---------------------------------|---------------------------------|
B|---------------------------------|---------------------------------|---------------------------------|
G|---------------------------------|---------------------------------|---------------------------------|
D|-7---------------7---------------|-9---------------9---------------|-4---------------4---------------|
A|-----8---7---5-------8---7---5---|-----10--9---7-------10--9---7---|-----5---4---2-------5---4---2---|
E|---------------------------------|---------------------------------|---------------------------------|


E|---------------------------------|---------------------------------|---------------------------------|
B|---------------------------------|---------------------------------|---------------------------------|
G|---------------------------------|---------------------------------|---------------------------------|
D|-6---------------6---------------|-7---------------7---------------|-9---------------9---------------|
A|-----7---6---3-------7---6---3---|-----8---7---5-------8---7---5---|-----10--9---7-------10--9---7---|
E|---------------------------------|---------------------------------|---------------------------------|


E|--------|--------|--------|--------|--------|--------|--------|--------|--------|
B|--------|--------|--------|--------|--------|--------|--------|--------|--------|
G|--------|--------|--------|--------|--------|--------|--------|--------|--------|
D|--------|--------|--------|--------|--------|--------|--------|--------|--------|
A|--------|--------|--------|--------|--------|--------|--------|--------|--------|
E|--------|--------|--------|--------|--------|--------|--------|--------|--------|


E|--------|--------|--------|------------2----|-2----5----0-----|-5-----7----9----|
B|--------|--------|--------|-0-----2---------|-----------------|-----------------|
G|--------|--------|--------|-----------------|-----------------|-----------------|
D|--------|--------|--------|-----------------|-----------------|-----------------|
A|--------|--------|--------|-----------------|-----------------|-----------------|
E|--------|--------|--------|-----------------|-----------------|-----------------|


E|-7---------------7---------------|------------2----|-2----5----0-----|-5-----7----9----|
B|-----8---7---5-------8---7---5---|-0-----2---------|-----------------|-----------------|
G|---------------------------------|-----------------|-----------------|-----------------|
D|---------------------------------|-----------------|-----------------|-----------------|
A|---------------------------------|-----------------|-----------------|-----------------|
E|---------------------------------|-----------------|-----------------|-----------------|


E|-7---------------7---------------|------------2----|-2----5----0-----|-5-----7----9----|
B|-----8---7---5-------8---7---5---|-0-----2---------|-----------------|-----------------|
G|---------------------------------|-----------------|-----------------|-----------------|
D|---------------------------------|-----------------|-----------------|-----------------|
A|---------------------------------|-----------------|-----------------|-----------------|
E|---------------------------------|-----------------|-----------------|-----------------|


E|-7---------------7---------------|------------2----|-2----5----0-----|-5-----7----9----|
B|-----8---7---5-------8---7---5---|-0-----2---------|-----------------|-----------------|
G|---------------------------------|-----------------|-----------------|-----------------|
D|---------------------------------|-----------------|-----------------|-----------------|
A|---------------------------------|-----------------|-----------------|-----------------|
E|---------------------------------|-----------------|-----------------|-----------------|


E|-7---------------7---------------|
B|-----8---7---5-------8---7---5---|
G|---------------------------------|
D|---------------------------------|
A|---------------------------------|
E|---------------------------------|





Track 6: Acoustic

E|--------|--------|--------|--------|--------|--------|--------|--------|--------|
B|--------|--------|--------|--------|--------|--------|--------|--------|--------|
G|--------|--------|--------|--------|--------|--------|--------|--------|--------|
D|--------|--------|--------|--------|--------|--------|--------|--------|--------|
A|--------|--------|--------|--------|--------|--------|--------|--------|--------|
E|--------|--------|--------|--------|--------|--------|--------|--------|--------|


E|--------|--------|--------|--------|--------|--------|--------|--------|--------|
B|--------|--------|--------|--------|--------|--------|--------|--------|--------|
G|--------|--------|--------|--------|--------|--------|--------|--------|--------|
D|--------|--------|--------|--------|--------|--------|--------|--------|--------|
A|--------|--------|--------|--------|--------|--------|--------|--------|--------|
E|--------|--------|--------|--------|--------|--------|--------|--------|--------|


E|--------|--------|--------|--------|--------|--------|--------|--------|--------|
B|--------|--------|--------|--------|--------|--------|--------|--------|--------|
G|--------|--------|--------|--------|--------|--------|--------|--------|--------|
D|--------|--------|--------|--------|--------|--------|--------|--------|--------|
A|--------|--------|--------|--------|--------|--------|--------|--------|--------|
E|--------|--------|--------|--------|--------|--------|--------|--------|--------|


E|--------|-------------------------------------------------|-------------------------------------------------|
B|--------|-------------------------------------------------|-------------------------------------------------|
G|--------|-------------------------------------------------|-------------------------------------------------|
D|--------|-4-----------4-----------5-----------4-----------|-4-----------4-----------5-----------7-----------|
A|--------|-----2-----------2-----------2-----------2-------|-----2-----------2-----------2-----------2-------|
E|--------|---------0-----------0-----------0-----------0---|---------0-----------0-----------0-----------0---|


E|-------------------------------------------------|-------------------------------------------------|
B|-------------------------------------------------|-------------------------------------------------|
G|-------------------------------------------------|-------------------------------------------------|
D|-4-----------4-----------5-----------4-----------|-4-----------4-----------7-----------5-----------|
A|-----2-----------2-----------2-----------2-------|-----2-----------2-----------2-----------2-------|
E|---------0-----------0-----------0-----------0---|---------0-----------0-----------0-----------0---|


E|-------------------------------------------------|-------------------------------------------------|
B|-------------------------------------------------|-------------------------------------------------|
G|-------------------------------------------------|-------------------------------------------------|
D|-4-----------4-----------5-----------4-----------|-4-----------4-----------5-----------7-----------|
A|-----2-----------2-----------2-----------2-------|-----2-----------2-----------2-----------2-------|
E|---------0-----------0-----------0-----------0---|---------0-----------0-----------0-----------0---|


E|-------------------------------------------------|-------------------------------------------------|
B|-------------------------------------------------|-------------------------------------------------|
G|-------------------------------------------------|-------------------------------------------------|
D|-4-----------4-----------5-----------4-----------|-4-----------4-----------7-----------5-----------|
A|-----2-----------2-----------2-----------2-------|-----2-----------2-----------2-----------2-------|
E|---------0-----------0-----------0-----------0---|---------0-----------0-----------0-----------0---|


E|-------------------------------------------------|-------------------------------------------------|
B|-------------------------------------------------|-------------------------------------------------|
G|-------------------------------------------------|-------------------------------------------------|
D|---------2---4---2---------------2---5---2-------|---------2---4---2---------------2---7---2-------|
A|-----2---------------2-------2---------------2---|-----2---------------2-------2---------------2---|
E|-0-----------------------0-----------------------|-0-----------------------0-----------------------|


E|-------------------------------------------------|-------------------------------------------------|
B|-------------------------------------------------|-------------------------------------------------|
G|-------------------------------------------------|-------------------------------------------------|
D|---------2---4---2---------------2---5---2-------|---------2---4---2---------------2---7---2-------|
A|-----2---------------2-------2---------------2---|-----2---------------2-------2---------------2---|
E|-0-----------------------0-----------------------|-0-----------------------0-----------------------|


E|-------------------------------------------------|-----------------------------------------|
B|-------------------------------------------------|-----------------------------------------|
G|-------------0-----------------------0-----------|-------------0---------------------------|
D|---------2-------2---------------2-------2-------|---------2-------2-------4---------------|
A|-----2---------------2-------2---------------2---|-----2---------------2-------5---4---2---|
E|-0-----------------------0-----------------------|-0---------------------------------------|


E|--------|--------|--------|--------|--------|--------|--------|--------|--------|
B|--------|--------|--------|--------|--------|--------|--------|--------|--------|
G|--------|--------|--------|--------|--------|--------|--------|--------|--------|
D|--------|--------|--------|--------|--------|--------|--------|--------|--------|
A|--------|--------|--------|--------|--------|--------|--------|--------|--------|
E|--------|--------|--------|--------|--------|--------|--------|--------|--------|


E|--------|--------|--------|--------|--------|--------|--------|--------|--------|
B|--------|--------|--------|--------|--------|--------|--------|--------|--------|
G|--------|--------|--------|--------|--------|--------|--------|--------|--------|
D|--------|--------|--------|--------|--------|--------|--------|--------|--------|
A|--------|--------|--------|--------|--------|--------|--------|--------|--------|
E|--------|--------|--------|--------|--------|--------|--------|--------|--------|


E|--------|--------|--------|--------|--------|--------|--------|--------|--------|
B|--------|--------|--------|--------|--------|--------|--------|--------|--------|
G|--------|--------|--------|--------|--------|--------|--------|--------|--------|
D|--------|--------|--------|--------|--------|--------|--------|--------|--------|
A|--------|--------|--------|--------|--------|--------|--------|--------|--------|
E|--------|--------|--------|--------|--------|--------|--------|--------|--------|


E|--------|--------|--------|--------|--------|--------|--------|--------|--------|
B|--------|--------|--------|--------|--------|--------|--------|--------|--------|
G|--------|--------|--------|--------|--------|--------|--------|--------|--------|
D|--------|--------|--------|--------|--------|--------|--------|--------|--------|
A|--------|--------|--------|--------|--------|--------|--------|--------|--------|
E|--------|--------|--------|--------|--------|--------|--------|--------|--------|





Track 7: Guitar 1

E|--------|--------|--------|--------|--------|--------|--------|--------|--------|
B|--------|--------|--------|--------|--------|--------|--------|--------|--------|
G|--------|--------|--------|--------|--------|--------|--------|--------|--------|
D|--------|--------|--------|--------|--------|--------|--------|--------|--------|
A|--------|--------|--------|--------|--------|--------|--------|--------|--------|
E|--------|--------|--------|--------|--------|--------|--------|--------|--------|


E|--------|--------|--------|--------|--------|--------|--------|--------|--------|
B|--------|--------|--------|--------|--------|--------|--------|--------|--------|
G|--------|--------|--------|--------|--------|--------|--------|--------|--------|
D|--------|--------|--------|--------|--------|--------|--------|--------|--------|
A|--------|--------|--------|--------|--------|--------|--------|--------|--------|
E|--------|--------|--------|--------|--------|--------|--------|--------|--------|


E|--------|--------|--------|--------|--------|--------|--------|--------|--------|
B|--------|--------|--------|--------|--------|--------|--------|--------|--------|
G|--------|--------|--------|--------|--------|--------|--------|--------|--------|
D|--------|--------|--------|--------|--------|--------|--------|--------|--------|
A|--------|--------|--------|--------|--------|--------|--------|--------|--------|
E|--------|--------|--------|--------|--------|--------|--------|--------|--------|


E|--------|--------|--------|--------|--------|--------|--------|--------|--------|
B|--------|-7------|-5------|--------|--------|-7------|-5------|--------|--------|
G|--------|--------|--------|-4------|-7------|--------|--------|-4------|-7------|
D|--------|-4------|-2------|--------|--------|-4------|-2------|--------|--------|
A|--------|--------|--------|-2------|-5------|--------|--------|-2------|-5------|
E|--------|--------|--------|--------|--------|--------|--------|--------|--------|


E|--------|--------|--------|--------|--------|-----------------------|--------|--------|
B|--------|--------|--------|--------|--------|-----------------------|--------|--------|
G|--------|-16-----|--------|-16-----|--------|-----------------------|--------|--------|
D|-14-----|--------|-14-----|--------|-14-----|-14----16--------------|--------|--------|
A|--------|-14-----|--------|-14-----|--------|-----------17--16--14--|--------|--------|
E|-12-----|--------|-12-----|--------|-12-----|-12--------------------|--------|--------|


E|--------|--------|--------|--------|--------|--------|--------|--------|--------|
B|--------|--------|--------|--------|--------|--------|--------|--------|--------|
G|--------|--------|--------|--------|--------|--------|--------|--------|--------|
D|--------|--------|--------|--------|--------|--------|--------|--------|--------|
A|--------|--------|--------|--------|--------|--------|--------|--------|--------|
E|--------|--------|--------|--------|--------|--------|--------|--------|--------|


E|--------|--------|--------|--------|--------|--------|--------|--------|--------|
B|--------|--------|--------|--------|--------|--------|--------|--------|--------|
G|--------|--------|--------|--------|--------|--------|--------|--------|--------|
D|--------|--------|--------|--------|--------|--------|--------|--------|--------|
A|--------|--------|--------|--------|--------|--------|--------|--------|--------|
E|--------|--------|--------|--------|--------|--------|--------|--------|--------|


E|--------|--------|--------|--------|--------|--------|--------|--------|--------|
B|--------|--------|--------|--------|--------|--------|--------|--------|--------|
G|--------|--------|--------|--------|--------|--------|--------|--------|--------|
D|--------|--------|--------|--------|--------|--------|--------|--------|--------|
A|--------|--------|--------|--------|--------|--------|--------|--------|--------|
E|--------|--------|--------|--------|--------|--------|--------|--------|--------|


E|--------|--------|--------|--------|--------|--------|--------|
B|--------|--------|--------|--------|--------|--------|--------|
G|--------|--------|--------|--------|--------|--------|--------|
D|--------|--------|--------|--------|--------|--------|--------|
A|--------|--------|--------|--------|--------|--------|--------|
E|--------|--------|--------|--------|--------|--------|--------|





Track 8: Guitar 1

E|--------|--------|--------|--------|--------|--------|--------|--------|--------|
B|--------|--------|--------|--------|--------|--------|--------|--------|--------|
G|--------|--------|--------|--------|--------|--------|--------|--------|--------|
D|--------|--------|--------|--------|--------|--------|--------|--------|--------|
A|--------|--------|--------|--------|--------|--------|--------|--------|--------|
E|--------|--------|--------|--------|--------|--------|--------|--------|--------|


E|--------|--------|--------|--------|--------|--------|--------|--------|--------|
B|--------|--------|--------|--------|--------|--------|--------|--------|--------|
G|--------|--------|--------|--------|--------|--------|--------|--------|--------|
D|--------|--------|--------|--------|--------|--------|--------|--------|--------|
A|--------|--------|--------|--------|--------|--------|--------|--------|--------|
E|--------|--------|--------|--------|--------|--------|--------|--------|--------|


E|--------|--------|--------|--------|--------|--------|--------|--------|--------|
B|--------|--------|--------|--------|--------|--------|--------|--------|--------|
G|--------|--------|--------|--------|--------|--------|--------|--------|--------|
D|--------|--------|--------|--------|--------|--------|--------|--------|--------|
A|--------|--------|--------|--------|--------|--------|--------|--------|--------|
E|--------|--------|--------|--------|--------|--------|--------|--------|--------|


E|--------|--------|--------|--------|--------|--------|--------|--------|--------|
B|--------|--------|--------|--------|--------|--------|--------|--------|--------|
G|--------|--------|--------|--------|--------|--------|--------|--------|--------|
D|--------|--------|--------|--------|--------|--------|--------|--------|--------|
A|--------|--------|--------|--------|--------|--------|--------|--------|--------|
E|--------|--------|--------|--------|--------|--------|--------|--------|--------|


E|--------|--------|--------|--------|--------|--------|--------|--------|--------|
B|--------|--------|--------|--------|--------|--------|--------|--------|--------|
G|--------|--------|--------|--------|--------|--------|--------|--------|--------|
D|--------|--------|--------|--------|--------|--------|--------|--------|--------|
A|--------|--------|--------|--------|--------|--------|--------|--------|--------|
E|--------|--------|--------|--------|--------|--------|--------|--------|--------|


E|--------|--------|--------|--------|--------|--------|--------|--------|--------|
B|--------|--------|--------|--------|--------|--------|--------|--------|--------|
G|--------|--------|--------|--------|--------|--------|--------|--------|--------|
D|--------|--------|--------|--------|--------|--------|--------|--------|--------|
A|--------|--------|--------|--------|--------|--------|--------|--------|--------|
E|--------|--------|--------|--------|--------|--------|--------|--------|--------|


E|--------|--------|--------|--------|--------|--------|--------|--------|---------------------------------|
B|--------|--------|--------|--------|--------|--------|--------|--------|---------------------------------|
G|--------|--------|--------|--------|--------|--------|--------|--------|---------------------------------|
D|--------|--------|--------|--------|--------|--------|--------|--------|-4---------------4---------------|
A|--------|--------|--------|--------|--------|--------|--------|--------|-----5---4---2-------5---4---2---|
E|--------|--------|--------|--------|--------|--------|--------|--------|---------------------------------|


E|---------------------------------|---------------------------------|---------------------------------|
B|---------------------------------|---------------------------------|---------------------------------|
G|---------------------------------|---------------------------------|---------------------------------|
D|---------------------------------|-6---------------6---------------|-2---------------2---------------|
A|-4---------------4---------------|-----7---6---4-------7---6---4---|-----3---2---0-------3---2---0---|
E|-----5---4---2-------5---4---2---|---------------------------------|---------------------------------|


E|---------------------------------|---------------------------------|---------------------------------|
B|---------------------------------|---------------------------------|---------------------------------|
G|---------------------------------|---------------------------------|---------------------------------|
D|-4---------------4---------------|---------------------------------|-6---------------6---------------|
A|-----5---4---2-------5---4---2---|-4---------------4---------------|-----7---6---4-------7---6---4---|
E|---------------------------------|-----5---4---2-------5---4---2---|---------------------------------|


E|---------------------------------|---------------------------------|---------------------------------|
B|---------------------------------|---------------------------------|---------------------------------|
G|---------------------------------|---------------------------------|---------------------------------|
D|-2---------------2---------------|-4---------------4---------------|---------------------------------|
A|-----3---2---0-------3---2---0---|-----5---4---2-------5---4---2---|-4---------------4---------------|
E|---------------------------------|---------------------------------|-----5---4---2-------5---4---2---|


E|---------------------------------|---------------------------------|---------------------------------|
B|---------------------------------|---------------------------------|---------------------------------|
G|---------------------------------|---------------------------------|---------------------------------|
D|-6---------------6---------------|-2---------------2---------------|-4---------------4---------------|
A|-----7---6---4-------7---6---4---|-----3---2---0-------3---2---0---|-----5---4---2-------5---4---2---|
E|---------------------------------|---------------------------------|---------------------------------|


E|---------------------------------|---------------------------------|---------------------------------|
B|---------------------------------|---------------------------------|---------------------------------|
G|---------------------------------|---------------------------------|---------------------------------|
D|---------------------------------|-6---------------6---------------|-2---------------2---------------|
A|-4---------------4---------------|-----7---6---4-------7---6---4---|-----3---2---0-------3---2---0---|
E|-----5---4---2-------5---4---2---|---------------------------------|---------------------------------|





Track 9: Untitled

G|--------|--------|--------|--------|--------|--------|--------|--------|--------|
D|--------|--------|--------|--------|--------|--------|--------|--------|--------|
A|--------|--------|--------|--------|--------|--------|--------|--------|--------|
E|--------|--------|--------|--------|--------|--------|--------|--------|--------|


G|--------|--------|--------|--------|--------|--------|--------|--------|--------|
D|--------|--------|--------|--------|--------|--------|--------|--------|--------|
A|--------|--------|--------|--------|--------|--------|--------|--------|--------|
E|--------|--------|--------|--------|--------|--------|--------|--------|--------|


G|--------|--------|--------|--------|--------|--------|--------|--------|--------|
D|--------|--------|--------|--------|--------|--------|--------|--------|--------|
A|--------|--------|--------|--------|--------|--------|--------|--------|--------|
E|--------|--------|--------|--------|--------|--------|--------|--------|--------|


G|--------|--------|--------|--------|--------|--------|--------|--------|--------|
D|--------|--------|--------|--------|--------|--------|--------|--------|--------|
A|--------|--------|--------|--------|--------|--------|--------|--------|--------|
E|--------|--------|--------|--------|--------|--------|--------|--------|--------|


G|--------|--------|--------|--------|--------|--------|--------|--------|--------|
D|--------|--------|--------|--------|--------|--------|--------|--------|--------|
A|--------|--------|--------|--------|--------|--------|--------|--------|--------|
E|--------|--------|--------|--------|--------|--------|--------|--------|--------|


G|--------|--------|--------|--------|--------|--------|--------|--------|--------|
D|--------|--------|--------|--------|--------|--------|--------|--------|--------|
A|--------|--------|--------|--------|--------|--------|--------|--------|--------|
E|--------|--------|--------|--------|--------|--------|--------|--------|--------|


G|--------|--------|--------|--------|--------|--------|--------|--------|--------|
D|--------|--------|--------|--------|--------|--------|--------|--------|--------|
A|--------|--------|--------|--------|--------|--------|--------|--------|--------|
E|--------|--------|--------|--------|--------|--------|--------|--------|--------|


G|--------|--------|--------|--------|--------|--------|--------|--------|--------|
D|--------|--------|--------|--------|--------|--------|--------|--------|--------|
A|--------|--------|--------|--------|--------|--------|--------|--------|--------|
E|--------|--------|--------|--------|--------|--------|--------|--------|--------|


G|--------|--------|--------|--------|--------|--------|
D|--------|--------|--------|--------|--------|--------|
A|--------|--------|--------|--------|--------|--------|
E|--------|--------|--------|--------|--------|--------|